999
dxfrw 0.5.11
0
SECTION
2
HEADER
9
$ACADVER
1
AC1021
9
$HANDSEED
5
20000
9
$DWGCODEPAGE
3
ANSI_1252
9
$INSBASE
10
0
20
0
30
0
9
$EXTMIN
10
-37.7467845497
20
-33.0441008796
30
0
9
$EXTMAX
10
237.74875508
20
33.0415613288
30
0
9
$LIMMIN
10
0
20
0
9
$LIMMAX
10
420
20
297
9
$ORTHOMODE
70
0
9
$LTSCALE
40
1
9
$TEXTSTYLE
7
STANDARD
9
$CLAYER
8
2
9
$DIMASZ
40
2.5
9
$DIMLFAC
40
1
9
$DIMSCALE
40
1
9
$DIMEXO
40
0.625
9
$DIMEXE
40
1.25
9
$DIMTXT
40
2.5
9
$DIMTSZ
40
0
9
$DIMAUNIT
70
-1
9
$DIMADEC
70
-1
9
$DIMLUNIT
70
2
9
$DIMSTYLE
2
STANDARD
9
$DIMGAP
40
2
9
$DIMTIH
70
0
9
$LUNITS
70
0
9
$LUPREC
70
-1
9
$AUNITS
70
-1
9
$AUPREC
70
-1
9
$SPLINESEGS
70
33
9
$GRIDMODE
70
1
9
$SNAPSTYLE
70
0
9
$GRIDUNIT
10
0
20
0
9
$PINSBASE
10
0
20
0
30
0
9
$PLIMMIN
10
0
20
0
9
$PLIMMAX
10
279.4
20
215.9
9
$INSUNITS
70
4
9
$PSVPSCALE
40
1
0
ENDSEC
0
SECTION
2
CLASSES
0
ENDSEC
0
SECTION
2
TABLES
0
TABLE
2
VPORT
5
8
330
0
100
AcDbSymbolTable
70
1
0
VPORT
5
31
330
2
100
AcDbSymbolTableRecord
100
AcDbViewportTableRecord
2
*ACTIVE
70
0
10
0
20
0
11
1
21
1
12
119.733964284
22
32.0612685592
13
0
23
0
14
10
24
10
15
10
25
10
16
0
26
0
36
1
17
0
27
0
37
0
40
128.079809966
41
2.17677419355
42
50
43
0
44
0
50
0
51
0
71
0
72
100
73
1
74
3
75
0
76
1
77
0
78
0
281
0
65
1
110
0
120
0
130
0
111
1
121
0
131
0
112
0
122
1
132
0
79
0
146
0
348
10020
60
7
61
5
292
1
282
1
141
0
142
0
63
250
421
3358443
0
ENDTAB
0
TABLE
2
LTYPE
5
5
330
0
100
AcDbSymbolTable
70
4
0
LTYPE
5
14
330
5
100
AcDbSymbolTableRecord
100
AcDbLinetypeTableRecord
2
ByBlock
70
0
3

72
65
73
0
40
0
0
LTYPE
5
15
330
5
100
AcDbSymbolTableRecord
100
AcDbLinetypeTableRecord
2
ByLayer
70
0
3

72
65
73
0
40
0
0
LTYPE
5
16
330
5
100
AcDbSymbolTableRecord
100
AcDbLinetypeTableRecord
2
Continuous
70
0
3
Solid line
72
65
73
0
40
0
0
LTYPE
5
32
330
5
100
AcDbSymbolTableRecord
100
AcDbLinetypeTableRecord
2
DOT
70
0
3
Dot . . . . . . . . . . . . . . . . . . . . . .
72
65
73
2
40
6.35
49
0
74
0
49
-6.35
74
0
0
LTYPE
5
33
330
5
100
AcDbSymbolTableRecord
100
AcDbLinetypeTableRecord
2
DOT2
70
0
3
Dot (.5x) .....................................
72
65
73
2
40
3.175
49
0
74
0
49
-3.175
74
0
0
LTYPE
5
34
330
5
100
AcDbSymbolTableRecord
100
AcDbLinetypeTableRecord
2
DOTX2
70
0
3
Dot (2x) .  .  .  .  .  .  .  .  .  .  .  .  .
72
65
73
2
40
12.7
49
0
74
0
49
-12.7
74
0
0
LTYPE
5
35
330
5
100
AcDbSymbolTableRecord
100
AcDbLinetypeTableRecord
2
DASHED
70
0
3
Dot . . . . . . . . . . . . . . . . . . . . . .
72
65
73
2
40
19.05
49
12.7
74
0
49
-6.35
74
0
0
LTYPE
5
36
330
5
100
AcDbSymbolTableRecord
100
AcDbLinetypeTableRecord
2
DASHED2
70
0
3
Dashed (.5x) _ _ _ _ _ _ _ _ _ _ _ _ _ _ _ _ _
72
65
73
2
40
9.525
49
6.35
74
0
49
-3.175
74
0
0
LTYPE
5
37
330
5
100
AcDbSymbolTableRecord
100
AcDbLinetypeTableRecord
2
DASHEDX2
70
0
3
Dashed (2x) ____  ____  ____  ____  ____  ___
72
65
73
2
40
38.1
49
25.4
74
0
49
-12.7
74
0
0
LTYPE
5
38
330
5
100
AcDbSymbolTableRecord
100
AcDbLinetypeTableRecord
2
DASHDOT
70
0
3
Dash dot __ . __ . __ . __ . __ . __ . __ . __
72
65
73
4
40
25.4
49
12.7
74
0
49
-6.35
74
0
49
0
74
0
49
-6.35
74
0
0
LTYPE
5
39
330
5
100
AcDbSymbolTableRecord
100
AcDbLinetypeTableRecord
2
DASHDOT2
70
0
3
Dash dot (.5x) _._._._._._._._._._._._._._._.
72
65
73
4
40
12.7
49
6.35
74
0
49
-3.175
74
0
49
0
74
0
49
-3.175
74
0
0
LTYPE
5
3A
330
5
100
AcDbSymbolTableRecord
100
AcDbLinetypeTableRecord
2
DASHDOTX2
70
0
3
Dash dot (2x) ____  .  ____  .  ____  .  ___
72
65
73
4
40
50.8
49
25.4
74
0
49
-12.7
74
0
49
0
74
0
49
-12.7
74
0
0
LTYPE
5
3B
330
5
100
AcDbSymbolTableRecord
100
AcDbLinetypeTableRecord
2
DIVIDE
70
0
3
Divide ____ . . ____ . . ____ . . ____ . . ____
72
65
73
6
40
31.75
49
12.7
74
0
49
-6.35
74
0
49
0
74
0
49
-6.35
74
0
49
0
74
0
49
-6.35
74
0
0
LTYPE
5
3C
330
5
100
AcDbSymbolTableRecord
100
AcDbLinetypeTableRecord
2
DIVIDE2
70
0
3
Divide (.5x) __..__..__..__..__..__..__..__.._
72
65
73
6
40
15.875
49
6.35
74
0
49
-3.175
74
0
49
0
74
0
49
-3.175
74
0
49
0
74
0
49
-3.175
74
0
0
LTYPE
5
3D
330
5
100
AcDbSymbolTableRecord
100
AcDbLinetypeTableRecord
2
DIVIDEX2
70
0
3
Divide (2x) ________  .  .  ________  .  .  _
72
65
73
6
40
63.5
49
25.4
74
0
49
-12.7
74
0
49
0
74
0
49
-12.7
74
0
49
0
74
0
49
-12.7
74
0
0
LTYPE
5
3E
330
5
100
AcDbSymbolTableRecord
100
AcDbLinetypeTableRecord
2
BORDER
70
0
3
Border __ __ . __ __ . __ __ . __ __ . __ __ .
72
65
73
6
40
44.45
49
12.7
74
0
49
-6.35
74
0
49
12.7
74
0
49
-6.35
74
0
49
0
74
0
49
-6.35
74
0
0
LTYPE
5
3F
330
5
100
AcDbSymbolTableRecord
100
AcDbLinetypeTableRecord
2
BORDER2
70
0
3
Border (.5x) __.__.__.__.__.__.__.__.__.__.__.
72
65
73
6
40
22.225
49
6.35
74
0
49
-3.175
74
0
49
6.35
74
0
49
-3.175
74
0
49
0
74
0
49
-3.175
74
0
0
LTYPE
5
40
330
5
100
AcDbSymbolTableRecord
100
AcDbLinetypeTableRecord
2
BORDERX2
70
0
3
Border (2x) ____  ____  .  ____  ____  .  ___
72
65
73
6
40
88.9
49
25.4
74
0
49
-12.7
74
0
49
25.4
74
0
49
-12.7
74
0
49
0
74
0
49
-12.7
74
0
0
LTYPE
5
41
330
5
100
AcDbSymbolTableRecord
100
AcDbLinetypeTableRecord
2
CENTER
70
0
3
Center ____ _ ____ _ ____ _ ____ _ ____ _ ____
72
65
73
4
40
50.8
49
31.75
74
0
49
-6.35
74
0
49
6.35
74
0
49
-6.35
74
0
0
LTYPE
5
42
330
5
100
AcDbSymbolTableRecord
100
AcDbLinetypeTableRecord
2
CENTER2
70
0
3
Center (.5x) ___ _ ___ _ ___ _ ___ _ ___ _ ___
72
65
73
4
40
28.575
49
19.05
74
0
49
-3.175
74
0
49
3.175
74
0
49
-3.175
74
0
0
LTYPE
5
43
330
5
100
AcDbSymbolTableRecord
100
AcDbLinetypeTableRecord
2
CENTERX2
70
0
3
Center (2x) ________  __  ________  __  _____
72
65
73
4
40
101.6
49
63.5
74
0
49
-12.7
74
0
49
12.7
74
0
49
-12.7
74
0
0
ENDTAB
0
TABLE
2
LAYER
5
2
330
0
100
AcDbSymbolTable
70
1
0
LAYER
5
10
330
2
100
AcDbSymbolTableRecord
100
AcDbLayerTableRecord
2
0
70
0
62
2
6
CONTINUOUS
370
0
390
F
0
LAYER
5
44
330
2
100
AcDbSymbolTableRecord
100
AcDbLayerTableRecord
2
1
70
0
62
7
6
CONTINUOUS
370
0
390
F
0
LAYER
5
45
330
2
100
AcDbSymbolTableRecord
100
AcDbLayerTableRecord
2
2
70
0
62
6
6
CONTINUOUS
370
0
390
F
0
ENDTAB
0
TABLE
2
STYLE
5
3
330
0
100
AcDbSymbolTable
70
3
0
STYLE
5
46
330
2
100
AcDbSymbolTableRecord
100
AcDbTextStyleTableRecord
2
Standard
70
0
40
0
41
1
50
0
71
0
42
1
3
txt
4

0
ENDTAB
0
TABLE
2
VIEW
5
6
330
0
100
AcDbSymbolTable
70
0
0
ENDTAB
0
TABLE
2
UCS
5
7
330
0
100
AcDbSymbolTable
70
0
0
ENDTAB
0
TABLE
2
APPID
5
9
330
0
100
AcDbSymbolTable
70
1
0
APPID
5
12
330
9
100
AcDbSymbolTableRecord
100
AcDbRegAppTableRecord
2
ACAD
70
0
0
ENDTAB
0
TABLE
2
DIMSTYLE
5
A
330
0
100
AcDbSymbolTable
70
1
100
AcDbDimStyleTable
71
1
0
DIMSTYLE
105
47
330
A
100
AcDbSymbolTableRecord
100
AcDbDimStyleTableRecord
2
Standard
70
0
40
1
41
2.5
42
0.625
43
0.38
44
1.25
45
0
46
0
47
0
48
0
140
2.5
141
0.09
142
0
143
25.4
144
1
145
0
146
1
147
2
148
0
71
0
72
0
73
0
74
1
75
0
76
0
77
0
78
0
79
0
170
0
171
2
172
0
173
0
174
0
175
0
176
0
177
0
178
0
179
0
271
4
272
4
273
2
274
2
275
0
276
0
277
2
278
46
279
0
280
0
281
0
282
0
283
1
284
0
285
0
286
0
288
0
289
3
340
Standard
341

371
-2
372
-2
0
ENDTAB
0
TABLE
2
BLOCK_RECORD
5
1
330
0
100
AcDbSymbolTable
70
2
0
BLOCK_RECORD
5
1F
330
1
100
AcDbSymbolTableRecord
100
AcDbBlockTableRecord
2
*Model_Space
70
0
280
1
281
0
0
BLOCK_RECORD
5
1E
330
1
100
AcDbSymbolTableRecord
100
AcDbBlockTableRecord
2
*Paper_Space
70
0
280
1
281
0
0
ENDTAB
0
ENDSEC
0
SECTION
2
BLOCKS
0
BLOCK
5
20
330
1F
100
AcDbEntity
8
0
100
AcDbBlockBegin
2
*Model_Space
70
0
10
0
20
0
30
0
3
*Model_Space
1

0
ENDBLK
5
21
330
1F
100
AcDbEntity
8
0
100
AcDbBlockEnd
0
BLOCK
5
1C
330
1B
100
AcDbEntity
8
0
100
AcDbBlockBegin
2
*Paper_Space
70
0
10
0
20
0
30
0
3
*Paper_Space
1

0
ENDBLK
5
1D
330
1F
100
AcDbEntity
8
0
100
AcDbBlockEnd
0
ENDSEC
0
SECTION
2
ENTITIES
0
HATCH
5
48
100
AcDbEntity
8
2
6
ByLayer
62
256
370
-1
100
AcDbHatch
10
0
20
0
30
0
210
0
220
0
230
1
2
SOLID
70
1
71
0
91
1
92
0
93
90
72
2
10
169.205404579
20
5.77730802879
40
0.580188172706
50
150.0001
51
211.096027855
73
1
72
1
10
168.708587769
20
5.47765594268
11
170.088330498
21
3.12710276543
72
2
10
169.552293807
20
2.89812969735
40
0.582892786008
50
336.869797643
51
24.28930686
73
0
72
1
10
170.08358896
20
2.65836009808
11
167.358779209
21
-2.07400154877
72
2
10
166.881120054
20
-1.79125971889
40
0.555068654078
50
30.622655691
51
151.757697605
73
0
72
1
10
166.392129925
20
-2.05391893676
11
165.360033356
21
-0.268046760566
72
2
10
164.870850836
20
-0.569251807913
40
0.574477169868
50
31.6219124378
51
88.973471588
73
1
72
1
10
164.881142791
20
0.00513316260827
11
162.823339083
21
0.00361085423506
72
2
10
162.806313574
20
-0.551196628335
40
0.555068654022
50
88.242302394
51
209.466545614
73
1
72
1
10
162.323046898
20
-0.824243383428
11
165.055787403
21
-5.55004159128
72
2
10
165.529081543
20
-5.20981129175
40
0.582892786048
50
215.710693143
51
263.13020236
73
1
72
1
10
165.459359691
20
-5.78851921758
11
168.180279607
21
-5.76095310132
72
2
10
168.186936934
20
-6.34889921868
40
0.587983806685
50
269.351266335
51
330.447194173
73
0
72
1
10
168.698424924
20
-6.05889061069
11
173.897695993
21
-15.0646318859
72
1
10
173.897695993
20
-15.0646318859
11
179.096949581
21
-24.0703428829
72
2
10
179.599406771
20
-23.7802479195
40
0.580188172706
50
210.0001
51
271.096027855
73
1
72
1
10
179.610504685
20
-24.360329941
11
182.336014814
21
-24.3407142756
72
2
10
182.266292962
20
-24.9194222014
40
0.582892786008
50
276.869797643
51
324.28930686
73
0
72
1
10
182.739587103
20
-24.5791919017
11
185.475527633
21
-29.3051271899
72
2
10
184.991836448
20
-29.5774212376
40
0.555068654078
50
330.622655691
51
91.757697605
73
0
72
1
10
184.974810939
20
-30.1322287204
11
182.912151982
21
-30.1331144802
72
2
10
182.928411945
20
-30.7073614933
40
0.574477169868
50
91.6219124378
51
148.973471588
73
1
72
1
10
182.436125946
20
-30.4112559136
11
181.40854245
21
-32.1941273549
72
2
10
181.88050707
20
-32.4862756195
40
0.555068654022
50
148.242302394
51
269.466545614
73
1
72
1
10
181.875339158
20
-33.0413202152
11
187.334370712
21
-33.0375966199
72
2
10
187.276369699
20
-32.4575967214
40
0.582892786048
50
275.710693143
51
323.13020236
73
1
72
1
10
187.742684538
20
-32.8073315794
11
189.079271539
21
-30.4371627523
72
2
10
189.591776476
20
-30.7253703967
40
0.587983806685
50
209.351266335
51
270.447194173
73
0
72
1
10
189.59636565
20
-30.1374044996
11
199.995201908
21
-30.1375743106
72
1
10
199.995201908
20
-30.1375743106
11
210.394003205
21
-30.1377441211
72
2
10
210.394002192
20
-29.5575559482
40
0.580188172706
50
270.0001
51
331.096027855
73
1
72
1
10
210.901916916
20
-29.8379858837
11
212.247684316
21
-27.4678170411
72
2
10
212.713999155
20
-27.8175518988
40
0.582892786008
50
216.869797643
51
264.28930686
73
0
72
1
10
212.655998143
20
-27.2375519997
11
218.116748424
21
-27.2311256412
72
2
10
218.110716394
20
-27.7861615187
40
0.555068654078
50
270.622655691
51
31.757697605
73
0
72
1
10
218.582681014
20
-28.0783097837
11
217.552118626
21
-29.8650677197
72
2
10
218.057561109
20
-30.1381096854
40
0.574477169868
50
151.621912438
51
208.973471588
73
1
72
1
10
217.554983155
20
-30.4163890762
11
218.585203367
21
-32.1977382091
72
2
10
219.074193496
20
-31.9350789911
40
0.555068654022
50
208.242302394
51
329.466545614
73
1
72
1
10
219.55229226
20
-32.2170768318
11
222.278583309
21
-27.4875550286
72
2
10
221.747288156
20
-27.2477854297
40
0.582892786048
50
335.710693143
51
23.13020236
73
1
72
1
10
222.283324847
20
-27.0188123618
11
220.898991932
21
-24.676209651
72
2
10
221.404839542
20
-24.376471178
40
0.587983806685
50
149.351266335
51
210.447194173
73
0
72
1
10
220.897940726
20
-24.0785138889
11
226.097505916
21
-15.0729424248
72
1
10
226.097505916
20
-15.0729424248
11
231.297053624
21
-6.06740123819
72
2
10
230.794595421
20
-5.77730802879
40
0.580188172706
50
330.0001
51
31.096027855
73
1
72
1
10
231.291412231
20
-5.47765594268
11
229.911669502
21
-3.12710276543
72
2
10
230.447706193
20
-2.89812969735
40
0.582892786008
50
156.869797643
51
204.28930686
73
0
72
1
10
229.91641104
20
-2.65836009808
11
232.641220791
21
2.07400154877
72
2
10
233.118879946
20
1.79125971889
40
0.555068654078
50
210.622655691
51
331.757697605
73
0
72
1
10
233.607870075
20
2.05391893676
11
234.639966644
21
0.268046760566
72
2
10
235.129149164
20
0.569251807913
40
0.574477169868
50
211.621912438
51
268.973471588
73
1
72
1
10
235.118857209
20
-0.00513316260827
11
237.176660917
21
-0.00361085423506
72
2
10
237.193686426
20
0.551196628335
40
0.555068654022
50
268.242302394
51
29.466545614
73
1
72
1
10
237.676953102
20
0.824243383428
11
234.944212597
21
5.55004159128
72
2
10
234.470918457
20
5.20981129175
40
0.582892786048
50
35.710693143
51
83.13020236
73
1
72
1
10
234.540640309
20
5.78851921758
11
231.819720393
21
5.76095310132
72
2
10
231.813063066
20
6.34889921868
40
0.587983806685
50
89.3512663346
51
150.447194173
73
0
72
1
10
231.301575076
20
6.05889061069
11
226.102304007
21
15.0646318859
72
1
10
226.102304007
20
15.0646318859
11
220.903050419
21
24.0703428829
72
2
10
220.400593229
20
23.7802479195
40
0.580188172706
50
30.0001
51
91.096027855
73
1
72
1
10
220.389495315
20
24.360329941
11
217.663985186
21
24.3407142756
72
2
10
217.733707038
20
24.9194222014
40
0.582892786008
50
96.8697976428
51
144.28930686
73
0
72
1
10
217.260412897
20
24.5791919017
11
214.524472367
21
29.3051271899
72
2
10
215.008163552
20
29.5774212376
40
0.555068654078
50
150.622655691
51
271.757697605
73
0
72
1
10
215.025189061
20
30.1322287204
11
217.087848018
21
30.1331144802
72
2
10
217.071588055
20
30.7073614933
40
0.574477169868
50
271.621912438
51
328.973471588
73
1
72
1
10
217.563874054
20
30.4112559136
11
218.59145755
21
32.1941273549
72
2
10
218.11949293
20
32.4862756195
40
0.555068654022
50
328.242302394
51
89.466545614
73
1
72
1
10
218.124660842
20
33.0413202152
11
212.665629288
21
33.0375966199
72
2
10
212.723630301
20
32.4575967214
40
0.582892786048
50
95.710693143
51
143.13020236
73
1
72
1
10
212.257315462
20
32.8073315794
11
210.920728461
21
30.4371627523
72
2
10
210.408223524
20
30.7253703967
40
0.587983806685
50
29.3512663346
51
90.4471941729
73
0
72
1
10
210.40363435
20
30.1374044996
11
200.004798092
21
30.1375743106
72
1
10
200.004798092
20
30.1375743106
11
189.605996795
21
30.1377441211
72
2
10
189.605997808
20
29.5575559482
40
0.580188172706
50
90.0001
51
151.096027855
73
1
72
1
10
189.098083084
20
29.8379858837
11
187.752315684
21
27.4678170411
72
2
10
187.286000845
20
27.8175518988
40
0.582892786008
50
36.8697976428
51
84.28930686
73
0
72
1
10
187.344001857
20
27.2375519997
11
181.883251576
21
27.2311256412
72
2
10
181.889283606
20
27.7861615187
40
0.555068654078
50
90.622655691
51
211.757697605
73
0
72
1
10
181.417318986
20
28.0783097837
11
182.447881374
21
29.8650677197
72
2
10
181.942438891
20
30.1381096854
40
0.574477169868
50
331.621912438
51
28.973471588
73
1
72
1
10
182.445016845
20
30.4163890762
11
181.414796633
21
32.1977382091
72
2
10
180.925806504
20
31.9350789911
40
0.555068654022
50
28.242302394
51
149.466545614
73
1
72
1
10
180.44770774
20
32.2170768318
11
177.721416691
21
27.4875550286
72
2
10
178.252711844
20
27.2477854297
40
0.582892786048
50
155.710693143
51
203.13020236
73
1
72
1
10
177.716675153
20
27.0188123618
11
179.101008068
21
24.676209651
72
2
10
178.595160458
20
24.376471178
40
0.587983806685
50
329.351266335
51
30.4471941729
73
0
72
1
10
179.102059274
20
24.0785138889
11
173.902494084
21
15.0729424248
72
1
10
173.902494084
20
15.0729424248
11
168.702946376
21
6.06740123819
97
0
75
0
76
1
98
0
0
LINE
5
49
100
AcDbEntity
8
0
6
ByLayer
62
256
370
-1
100
AcDbLine
10
26.1024369289
20
15.0646211412
11
20.903050419
21
24.0703428825
0
LINE
5
4A
100
AcDbEntity
8
0
6
ByLayer
62
256
370
-1
100
AcDbLine
10
20.903050419
20
24.0703428825
11
26.1024369289
21
15.0646211412
0
LINE
5
4B
100
AcDbEntity
8
0
6
ByLayer
62
256
370
-1
100
AcDbLine
10
26.1024369289
20
15.0646211412
11
31.3018234387
21
6.05889940002
0
LINE
5
4C
100
AcDbEntity
8
0
6
ByLayer
62
256
370
-1
100
AcDbLine
10
31.3018234387
20
6.05889940002
11
26.1024369289
21
15.0646211412
0
LINE
5
4D
100
AcDbEntity
8
0
6
ByLayer
62
256
370
-1
100
AcDbLine
10
26.1024369289
20
15.0646211412
11
20.903050419
21
24.0703428825
0
LINE
5
4E
100
AcDbEntity
8
0
6
ByLayer
62
256
370
-1
100
AcDbLine
10
20.903050419
20
24.0703428825
11
26.1024369289
21
15.0646211412
0
LINE
5
4F
100
AcDbEntity
8
0
6
ByLayer
62
256
370
-1
100
AcDbLine
10
26.1024369289
20
15.0646211412
11
31.3018234387
21
6.05889940002
0
LINE
5
50
100
AcDbEntity
8
0
6
ByLayer
62
256
370
-1
100
AcDbLine
10
31.3018234387
20
6.05889940002
11
26.1024369289
21
15.0646211412
0
LINE
5
51
100
AcDbEntity
8
0
6
ByLayer
62
256
370
-1
100
AcDbLine
10
26.1024369289
20
15.0646211412
11
20.903050419
21
24.0703428825
0
LINE
5
52
100
AcDbEntity
8
0
6
ByLayer
62
256
370
-1
100
AcDbLine
10
20.903050419
20
24.0703428825
11
26.1024369289
21
15.0646211412
0
LINE
5
53
100
AcDbEntity
8
0
6
ByLayer
62
256
370
-1
100
AcDbLine
10
26.1024369289
20
15.0646211412
11
31.3018234387
21
6.05889940002
0
LINE
5
54
100
AcDbEntity
8
0
6
ByLayer
62
256
370
-1
100
AcDbLine
10
31.3018234387
20
6.05889940002
11
26.1024369289
21
15.0646211412
0
ARC
5
55
100
AcDbEntity
8
0
6
ByLayer
62
256
370
-1
100
AcDbCircle
10
34.4710543967
20
5.20975049773
40
0.582892786051
100
AcDbArc
50
35.7105931393
51
83.1301023557
0
LINE
5
56
100
AcDbEntity
8
0
6
ByLayer
62
256
370
-1
100
AcDbLine
10
34.9443491309
20
5.54997997118
11
37.6770813877
21
0.82417699377
0
LINE
5
57
100
AcDbEntity
8
0
6
ByLayer
62
256
370
-1
100
AcDbLine
10
37.6770813877
20
0.82417699377
11
34.9443491309
21
5.54997997118
0
ARC
5
58
100
AcDbEntity
8
0
6
ByLayer
62
256
370
-1
100
AcDbCircle
10
34.4710543967
20
5.20975049785
40
0.58289278595
100
AcDbArc
50
35.710593132
51
83.1301023485
0
LINE
5
59
100
AcDbEntity
8
0
6
ByLayer
62
256
370
-1
100
AcDbLine
10
34.5407772586
20
5.78845830188
11
34.4742769663
21
5.78244106352
0
LINE
5
5A
100
AcDbEntity
8
0
6
ByLayer
62
256
370
-1
100
AcDbLine
10
34.4742769663
20
5.78244106352
11
31.819857295
21
5.76089693446
0
ARC
5
5B
100
AcDbEntity
8
0
6
ByLayer
62
256
370
-1
100
AcDbCircle
10
31.8132009941
20
6.34884306332
40
0.587983806562
100
AcDbArc
50
209.552705816
51
270.64863367
0
ARC
5
5C
100
AcDbEntity
8
0
6
ByLayer
62
256
370
-1
100
AcDbCircle
10
31.8132009941
20
6.34884306331
40
0.587983806567
100
AcDbArc
50
209.552705815
51
270.64863367
0
LINE
5
5D
100
AcDbEntity
8
0
6
ByLayer
62
256
370
-1
100
AcDbLine
10
31.819857295
20
5.76089693445
11
34.4742769663
21
5.78244106352
0
LINE
5
5E
100
AcDbEntity
8
0
6
ByLayer
62
256
370
-1
100
AcDbLine
10
34.4742769663
20
5.78244106352
11
34.5407772585
21
5.78845830187
0
LINE
5
5F
100
AcDbEntity
8
0
6
ByLayer
62
256
370
-1
100
AcDbLine
10
29.9165279313
20
-2.6584217403
11
32.6413459416
21
2.07393515085
0
ARC
5
60
100
AcDbEntity
8
0
6
ByLayer
62
256
370
-1
100
AcDbCircle
10
33.1190046032
20
1.79119248731
40
0.555068654125
100
AcDbArc
50
28.2422023991
51
149.377244313
0
LINE
5
61
100
AcDbEntity
8
0
6
ByLayer
62
256
370
-1
100
AcDbLine
10
33.6079951904
20
2.05385085179
11
34.6400886425
21
0.267976874209
0
ARC
5
62
100
AcDbEntity
8
0
6
ByLayer
62
256
370
-1
100
AcDbCircle
10
35.1292716885
20
0.569181067714
40
0.574477169873
100
AcDbArc
50
211.621812431
51
268.973371581
0
LINE
5
63
100
AcDbEntity
8
0
6
ByLayer
62
256
370
-1
100
AcDbLine
10
35.1189787309
20
-0.00520388484779
11
37.1767824412
21
-0.00368516803823
0
ARC
5
64
100
AcDbEntity
8
0
6
ByLayer
62
256
370
-1
100
AcDbCircle
10
37.1938089186
20
0.551122284858
40
0.555068654062
100
AcDbArc
50
268.242202401
51
29.655969853
0
ARC
5
65
100
AcDbEntity
8
0
6
ByLayer
62
256
370
-1
100
AcDbCircle
10
37.1938089186
20
0.551122284858
40
0.555068654062
100
AcDbArc
50
268.242202401
51
29.655969853
0
LINE
5
66
100
AcDbEntity
8
0
6
ByLayer
62
256
370
-1
100
AcDbLine
10
37.1767824412
20
-0.00368516803823
11
35.1189787309
21
-0.00520388484779
0
ARC
5
67
100
AcDbEntity
8
0
6
ByLayer
62
256
370
-1
100
AcDbCircle
10
35.1292716885
20
0.569181067714
40
0.574477169873
100
AcDbArc
50
211.621812431
51
268.973371581
0
LINE
5
68
100
AcDbEntity
8
0
6
ByLayer
62
256
370
-1
100
AcDbLine
10
34.6400886425
20
0.267976874209
11
33.6079951904
21
2.05385085179
0
ARC
5
69
100
AcDbEntity
8
0
6
ByLayer
62
256
370
-1
100
AcDbCircle
10
33.1190046032
20
1.79119248731
40
0.555068654125
100
AcDbArc
50
28.2422023991
51
149.377244313
0
LINE
5
6A
100
AcDbEntity
8
0
6
ByLayer
62
256
370
-1
100
AcDbLine
10
32.6413459416
20
2.07393515085
11
29.9165279313
21
-2.6584217403
0
ARC
5
6B
100
AcDbEntity
8
0
6
ByLayer
62
256
370
-1
100
AcDbCircle
10
30.4478226655
20
-2.89819226683
40
0.582892786023
100
AcDbArc
50
155.710593143
51
203.13010236
0
LINE
5
6C
100
AcDbEntity
8
0
6
ByLayer
62
256
370
-1
100
AcDbLine
10
29.9117855749
20
-3.12716439938
11
31.2915242014
21
-5.4777199847
0
ARC
5
6D
100
AcDbEntity
8
0
6
ByLayer
62
256
370
-1
100
AcDbCircle
10
30.7947068681
20
-5.77737120367
40
0.580188172659
100
AcDbArc
50
329.999999999
51
31.0959278542
0
ARC
5
6E
100
AcDbEntity
8
0
6
ByLayer
62
256
370
-1
100
AcDbCircle
10
30.7947068681
20
-5.77737120367
40
0.580188172659
100
AcDbArc
50
329.999999999
51
31.0959278542
0
LINE
5
6F
100
AcDbEntity
8
0
6
ByLayer
62
256
370
-1
100
AcDbLine
10
31.2915242014
20
-5.4777199847
11
29.9117855749
21
-3.12716439938
0
ARC
5
70
100
AcDbEntity
8
0
6
ByLayer
62
256
370
-1
100
AcDbCircle
10
30.4478226655
20
-2.89819226683
40
0.582892786023
100
AcDbArc
50
155.710593143
51
203.13010236
0
LINE
5
71
100
AcDbEntity
8
0
6
ByLayer
62
256
370
-1
100
AcDbLine
10
26.0975630711
20
-15.0730629105
11
20.8980725187
21
-24.0787245826
0
LINE
5
72
100
AcDbEntity
8
0
6
ByLayer
62
256
370
-1
100
AcDbLine
10
20.8980725187
20
-24.0787245826
11
26.0975630711
21
-15.0730629105
0
LINE
5
73
100
AcDbEntity
8
0
6
ByLayer
62
256
370
-1
100
AcDbLine
10
26.0975630711
20
-15.0730629105
11
31.2970536236
21
-6.06740123819
0
LINE
5
74
100
AcDbEntity
8
0
6
ByLayer
62
256
370
-1
100
AcDbLine
10
31.2970536236
20
-6.06740123819
11
26.0975630711
21
-15.0730629105
0
LINE
5
75
100
AcDbEntity
8
0
6
ByLayer
62
256
370
-1
100
AcDbLine
10
19.5522989077
20
-32.2172211253
11
22.278598211
21
-27.4877040805
0
ARC
5
76
100
AcDbEntity
8
0
6
ByLayer
62
256
370
-1
100
AcDbCircle
10
21.7473034768
20
-27.2479335538
40
0.582892786049
100
AcDbArc
50
335.71059313
51
23.1301023475
0
LINE
5
77
100
AcDbEntity
8
0
6
ByLayer
62
256
370
-1
100
AcDbLine
10
22.2833405675
20
-27.0189614214
11
22.24487934
21
-26.9643790981
0
LINE
5
78
100
AcDbEntity
8
0
6
ByLayer
62
256
370
-1
100
AcDbLine
10
22.24487934
20
-26.9643790981
11
20.8990117414
21
-24.6763562951
0
ARC
5
79
100
AcDbEntity
8
0
6
ByLayer
62
256
370
-1
100
AcDbCircle
10
21.4048598746
20
-24.3766187048
40
0.587983806685
100
AcDbArc
50
149.552705827
51
210.648633682
0
ARC
5
7A
100
AcDbEntity
8
0
6
ByLayer
62
256
370
-1
100
AcDbCircle
10
21.4048598746
20
-24.3766187048
40
0.587983806685
100
AcDbArc
50
149.552705827
51
210.648633682
0
LINE
5
7B
100
AcDbEntity
8
0
6
ByLayer
62
256
370
-1
100
AcDbLine
10
20.8990117414
20
-24.6763562951
11
22.24487934
21
-26.9643790981
0
LINE
5
7C
100
AcDbEntity
8
0
6
ByLayer
62
256
370
-1
100
AcDbLine
10
22.24487934
20
-26.9643790981
11
22.2833405675
21
-27.0189614214
0
ARC
5
7D
100
AcDbEntity
8
0
6
ByLayer
62
256
370
-1
100
AcDbCircle
10
21.7473034768
20
-27.2479335538
40
0.582892786049
100
AcDbArc
50
335.71059313
51
23.1301023475
0
LINE
5
7E
100
AcDbEntity
8
0
6
ByLayer
62
256
370
-1
100
AcDbLine
10
22.278598211
20
-27.4877040805
11
19.5522989077
21
-32.2172211253
0
ARC
5
7F
100
AcDbEntity
8
0
6
ByLayer
62
256
370
-1
100
AcDbCircle
10
18.0461036549
20
-30.1438906054
40
0.561722250662
100
AcDbArc
50
151.684684319
51
209.036243469
0
LINE
5
80
100
AcDbEntity
8
0
6
ByLayer
62
256
370
-1
100
AcDbLine
10
17.554982669
20
-30.4165296783
11
18.5851997715
21
-32.1978806091
0
ARC
5
81
100
AcDbEntity
8
0
6
ByLayer
62
256
370
-1
100
AcDbCircle
10
19.0741903586
20
-31.9352222447
40
0.555068654021
100
AcDbArc
50
208.2422024
51
329.655969852
0
ARC
5
82
100
AcDbEntity
8
0
6
ByLayer
62
256
370
-1
100
AcDbCircle
10
19.0741903586
20
-31.9352222446
40
0.555068654022
100
AcDbArc
50
208.242202394
51
329.655969846
0
LINE
5
83
100
AcDbEntity
8
0
6
ByLayer
62
256
370
-1
100
AcDbLine
10
18.5851997715
20
-32.197880609
11
17.554982669
21
-30.4165296783
0
ARC
5
84
100
AcDbEntity
8
0
6
ByLayer
62
256
370
-1
100
AcDbCircle
10
18.046103655
20
-30.1438906053
40
0.561722250766
100
AcDbArc
50
151.684684319
51
209.036243469
0
LINE
5
85
100
AcDbEntity
8
0
6
ByLayer
62
256
370
-1
100
AcDbLine
10
17.5515911379
20
-29.8774525123
11
18.5915826696
21
-28.0811726625
0
ARC
5
86
100
AcDbEntity
8
0
6
ByLayer
62
256
370
-1
100
AcDbCircle
10
18.1196185599
20
-27.789023574
40
0.555068654074
100
AcDbArc
50
328.242202395
51
89.6559698474
0
ARC
5
87
100
AcDbEntity
8
0
6
ByLayer
62
256
370
-1
100
AcDbCircle
10
18.1196185599
20
-27.789023574
40
0.555068654024
100
AcDbArc
50
328.242202398
51
89.6559698503
0
LINE
5
88
100
AcDbEntity
8
0
6
ByLayer
62
256
370
-1
100
AcDbLine
10
18.5915826696
20
-28.0811726624
11
17.5515911379
21
-29.8774525124
0
LINE
5
89
100
AcDbEntity
8
0
6
ByLayer
62
256
370
-1
100
AcDbLine
10
12.257436691
20
-27.4679483801
11
12.2293976261
21
-27.5285479417
0
LINE
5
8A
100
AcDbEntity
8
0
6
ByLayer
62
256
370
-1
100
AcDbLine
10
12.2293976261
20
-27.5285479417
11
10.9208455536
21
-29.8381148739
0
ARC
5
8B
100
AcDbEntity
8
0
6
ByLayer
62
256
370
-1
100
AcDbCircle
10
10.4083411194
20
-29.5499063351
40
0.587983806667
100
AcDbArc
50
269.552705818
51
330.648633673
0
ARC
5
8C
100
AcDbEntity
8
0
6
ByLayer
62
256
370
-1
100
AcDbCircle
10
10.4083411194
20
-29.5499063351
40
0.587983806667
100
AcDbArc
50
269.552705818
51
330.648633673
0
LINE
5
8D
100
AcDbEntity
8
0
6
ByLayer
62
256
370
-1
100
AcDbLine
10
10.9208455536
20
-29.8381148739
11
12.2293976261
21
-27.5285479417
0
LINE
5
8E
100
AcDbEntity
8
0
6
ByLayer
62
256
370
-1
100
AcDbLine
10
12.2293976261
20
-27.5285479417
11
12.257436691
21
-27.4679483801
0
ARC
5
8F
100
AcDbEntity
8
0
6
ByLayer
62
256
370
-1
100
AcDbCircle
10
12.7237509198
20
-27.8176840517
40
0.582892786015
100
AcDbArc
50
95.7105931404
51
143.130102357
0
LINE
5
90
100
AcDbEntity
8
0
6
ByLayer
62
256
370
-1
100
AcDbLine
10
12.6657509198
20
-27.2376840517
11
18.1247824799
21
-27.2339699843
0
LINE
5
91
100
AcDbEntity
8
0
6
ByLayer
62
256
370
-1
100
AcDbLine
10
18.1247824799
20
-27.2339699843
11
12.6657509198
21
-27.2376840517
0
ARC
5
92
100
AcDbEntity
8
0
6
ByLayer
62
256
370
-1
100
AcDbCircle
10
12.7237509198
20
-27.8176840517
40
0.582892786015
100
AcDbArc
50
95.7105931404
51
143.130102357
0
LINE
5
93
100
AcDbEntity
8
0
6
ByLayer
62
256
370
-1
100
AcDbLine
10
10.4037509198
20
-30.1377441207
11
0.004873857698
21
-30.1376840517
0
LINE
5
94
100
AcDbEntity
8
0
6
ByLayer
62
256
370
-1
100
AcDbLine
10
0.004873857698
20
-30.1376840517
11
-10.3940032047
21
-30.1376239827
0
LINE
5
95
100
AcDbEntity
8
0
6
ByLayer
62
256
370
-1
100
AcDbLine
10
-10.3940032047
20
-30.1376239827
11
0.004873857698
21
-30.1376840517
0
LINE
5
96
100
AcDbEntity
8
0
6
ByLayer
62
256
370
-1
100
AcDbLine
10
0.004873857698
20
-30.1376840517
11
10.4037509198
21
-30.1377441207
0
LINE
5
97
100
AcDbEntity
8
0
6
ByLayer
62
256
370
-1
100
AcDbLine
10
10.4037509198
20
-30.1377441207
11
0.004873857698
21
-30.1376840517
0
LINE
5
98
100
AcDbEntity
8
0
6
ByLayer
62
256
370
-1
100
AcDbLine
10
0.004873857698
20
-30.1376840517
11
-10.3940032047
21
-30.1376239827
0
ARC
5
99
100
AcDbEntity
8
0
6
ByLayer
62
256
370
-1
100
AcDbCircle
10
-15.0061910815
20
-29.5865617668
40
0.555068654037
100
AcDbArc
50
268.242202399
51
29.6559698514
0
LINE
5
9A
100
AcDbEntity
8
0
6
ByLayer
62
256
370
-1
100
AcDbLine
10
-15.0232175589
20
-30.1413692197
11
-17.0810212692
21
-30.1428879365
0
ARC
5
9B
100
AcDbEntity
8
0
6
ByLayer
62
256
370
-1
100
AcDbCircle
10
-17.0722340249
20
-30.7071948644
40
0.564375340102
100
AcDbArc
50
90.8921232363
51
148.243682386
0
LINE
5
9C
100
AcDbEntity
8
0
6
ByLayer
62
256
370
-1
100
AcDbLine
10
-17.552119102
20
-30.4101597868
11
-18.5826846085
21
-32.1969159241
0
ARC
5
9D
100
AcDbEntity
8
0
6
ByLayer
62
256
370
-1
100
AcDbCircle
10
-18.1107204988
20
-32.4890650126
40
0.555068654078
100
AcDbArc
50
148.242202395
51
269.377244309
0
LINE
5
9E
100
AcDbEntity
8
0
6
ByLayer
62
256
370
-1
100
AcDbLine
10
-18.1167534974
20
-33.0441008796
11
-12.6560032047
21
-33.0376840517
0
ARC
5
9F
100
AcDbEntity
8
0
6
ByLayer
62
256
370
-1
100
AcDbCircle
10
-12.7140032047
20
-32.4576840517
40
0.582892786008
100
AcDbArc
50
275.71059314
51
323.130102357
0
LINE
5
A0
100
AcDbEntity
8
0
6
ByLayer
62
256
370
-1
100
AcDbLine
10
-12.2476889759
20
-32.8074197233
11
-10.9019174393
21
-30.4372532295
0
ARC
5
A1
100
AcDbEntity
8
0
6
ByLayer
62
256
370
-1
100
AcDbCircle
10
-10.3940032047
20
-30.7176840517
40
0.580188172706
100
AcDbArc
50
89.9999999996
51
151.095927855
0
ARC
5
A2
100
AcDbEntity
8
0
6
ByLayer
62
256
370
-1
100
AcDbCircle
10
-10.3940032047
20
-30.7176840516
40
0.580188172621
100
AcDbArc
50
90.0000000045
51
151.095927859
0
LINE
5
A3
100
AcDbEntity
8
0
6
ByLayer
62
256
370
-1
100
AcDbLine
10
-10.9019174392
20
-30.4372532295
11
-12.2476889759
21
-32.8074197233
0
ARC
5
A4
100
AcDbEntity
8
0
6
ByLayer
62
256
370
-1
100
AcDbCircle
10
-12.7140032047
20
-32.4576840517
40
0.582892786008
100
AcDbArc
50
275.71059314
51
323.130102357
0
LINE
5
A5
100
AcDbEntity
8
0
6
ByLayer
62
256
370
-1
100
AcDbLine
10
-12.6560032047
20
-33.0376840517
11
-18.1167534974
21
-33.0441008796
0
ARC
5
A6
100
AcDbEntity
8
0
6
ByLayer
62
256
370
-1
100
AcDbCircle
10
-18.1107204988
20
-32.4890650126
40
0.555068654028
100
AcDbArc
50
148.242202398
51
269.377244312
0
LINE
5
A7
100
AcDbEntity
8
0
6
ByLayer
62
256
370
-1
100
AcDbLine
10
-18.5826846085
20
-32.1969159242
11
-17.552119102
21
-30.4101597868
0
ARC
5
A8
100
AcDbEntity
8
0
6
ByLayer
62
256
370
-1
100
AcDbCircle
10
-17.0722340249
20
-30.7071948644
40
0.564375340102
100
AcDbArc
50
90.8921232363
51
148.243682386
0
LINE
5
A9
100
AcDbEntity
8
0
6
ByLayer
62
256
370
-1
100
AcDbLine
10
-17.0810212692
20
-30.1428879365
11
-15.0232175589
21
-30.1413692197
0
ARC
5
AA
100
AcDbEntity
8
0
6
ByLayer
62
256
370
-1
100
AcDbCircle
10
-15.0061910815
20
-29.5865617668
40
0.555068654037
100
AcDbArc
50
268.242202399
51
29.6559698514
0
LINE
5
AB
100
AcDbEntity
8
0
6
ByLayer
62
256
370
-1
100
AcDbLine
10
-17.6592227415
20
-24.3492257498
11
-17.7257230338
21
-24.3552429882
0
LINE
5
AC
100
AcDbEntity
8
0
6
ByLayer
62
256
370
-1
100
AcDbLine
10
-17.7257230338
20
-24.3552429882
11
-20.3801427051
21
-24.3767871172
0
ARC
5
AD
100
AcDbEntity
8
0
6
ByLayer
62
256
370
-1
100
AcDbCircle
10
-20.386799006
20
-23.7888409884
40
0.587983806538
100
AcDbArc
50
209.55270582
51
270.648633675
0
ARC
5
AE
100
AcDbEntity
8
0
6
ByLayer
62
256
370
-1
100
AcDbCircle
10
-20.3867990059
20
-23.7888409884
40
0.587983806587
100
AcDbArc
50
209.552705811
51
270.648633666
0
LINE
5
AF
100
AcDbEntity
8
0
6
ByLayer
62
256
370
-1
100
AcDbLine
10
-20.3801427051
20
-24.3767871173
11
-17.7257230338
21
-24.3552429882
0
LINE
5
B0
100
AcDbEntity
8
0
6
ByLayer
62
256
370
-1
100
AcDbLine
10
-17.7257230338
20
-24.3552429882
11
-17.6592227416
21
-24.3492257498
0
ARC
5
B1
100
AcDbEntity
8
0
6
ByLayer
62
256
370
-1
100
AcDbCircle
10
-17.7289456034
20
-24.9279335539
40
0.582892786057
100
AcDbArc
50
35.7105931382
51
83.1301023547
0
LINE
5
B2
100
AcDbEntity
8
0
6
ByLayer
62
256
370
-1
100
AcDbLine
10
-17.2556508692
20
-24.5877040805
11
-14.5229186124
21
-29.3135070579
0
LINE
5
B3
100
AcDbEntity
8
0
6
ByLayer
62
256
370
-1
100
AcDbLine
10
-14.5229186124
20
-29.3135070579
11
-17.2556508692
21
-24.5877040805
0
ARC
5
B4
100
AcDbEntity
8
0
6
ByLayer
62
256
370
-1
100
AcDbCircle
10
-17.7289456034
20
-24.9279335538
40
0.58289278595
100
AcDbArc
50
35.710593132
51
83.1301023485
0
LINE
5
B5
100
AcDbEntity
8
0
6
ByLayer
62
256
370
-1
100
AcDbLine
10
-26.0975630712
20
-15.0730629105
11
-31.2969495811
21
-6.06734116915
0
LINE
5
B6
100
AcDbEntity
8
0
6
ByLayer
62
256
370
-1
100
AcDbLine
10
-31.2969495811
20
-6.06734116915
11
-26.0975630712
21
-15.0730629105
0
LINE
5
B7
100
AcDbEntity
8
0
6
ByLayer
62
256
370
-1
100
AcDbLine
10
-26.0975630712
20
-15.0730629105
11
-20.8981765614
21
-24.0787846517
0
LINE
5
B8
100
AcDbEntity
8
0
6
ByLayer
62
256
370
-1
100
AcDbLine
10
-20.8981765614
20
-24.0787846517
11
-26.0975630712
21
-15.0730629105
0
ARC
5
B9
100
AcDbEntity
8
0
6
ByLayer
62
256
370
-1
100
AcDbCircle
10
-33.1190046032
20
-1.79119248737
40
0.55506865401
100
AcDbArc
50
208.242202399
51
329.377244313
0
LINE
5
BA
100
AcDbEntity
8
0
6
ByLayer
62
256
370
-1
100
AcDbLine
10
-32.6413459417
20
-2.07393515085
11
-29.9165279313
21
2.65842174031
0
ARC
5
BB
100
AcDbEntity
8
0
6
ByLayer
62
256
370
-1
100
AcDbCircle
10
-30.4478226655
20
2.89819226684
40
0.58289278601
100
AcDbArc
50
335.710593143
51
23.1301023596
0
LINE
5
BC
100
AcDbEntity
8
0
6
ByLayer
62
256
370
-1
100
AcDbLine
10
-29.9117855749
20
3.12716439938
11
-31.2915242014
21
5.47771998468
0
ARC
5
BD
100
AcDbEntity
8
0
6
ByLayer
62
256
370
-1
100
AcDbCircle
10
-30.7947068681
20
5.77737120366
40
0.580188172679
100
AcDbArc
50
149.999999999
51
211.095927854
0
ARC
5
BE
100
AcDbEntity
8
0
6
ByLayer
62
256
370
-1
100
AcDbCircle
10
-30.7947068681
20
5.77737120367
40
0.580188172659
100
AcDbArc
50
149.999999999
51
211.095927854
0
LINE
5
BF
100
AcDbEntity
8
0
6
ByLayer
62
256
370
-1
100
AcDbLine
10
-31.2915242014
20
5.4777199847
11
-29.9117855749
21
3.12716439938
0
ARC
5
C0
100
AcDbEntity
8
0
6
ByLayer
62
256
370
-1
100
AcDbCircle
10
-30.4478226655
20
2.89819226683
40
0.582892786023
100
AcDbArc
50
335.710593143
51
23.1301023597
0
LINE
5
C1
100
AcDbEntity
8
0
6
ByLayer
62
256
370
-1
100
AcDbLine
10
-29.9165279313
20
2.6584217403
11
-32.6413459416
21
-2.07393515085
0
ARC
5
C2
100
AcDbEntity
8
0
6
ByLayer
62
256
370
-1
100
AcDbCircle
10
-33.1190046032
20
-1.79119248732
40
0.555068654125
100
AcDbArc
50
208.2422024
51
329.377244314
0
LINE
5
C3
100
AcDbEntity
8
0
6
ByLayer
62
256
370
-1
100
AcDbLine
10
-33.6079951904
20
-2.0538508518
11
-34.6434801736
21
-0.271100291786
0
ARC
5
C4
100
AcDbEntity
8
0
6
ByLayer
62
256
370
-1
100
AcDbCircle
10
-35.1214785893
20
-0.566141647658
40
0.561722250852
100
AcDbArc
50
31.6846843235
51
89.0362434736
0
LINE
5
C5
100
AcDbEntity
8
0
6
ByLayer
62
256
370
-1
100
AcDbLine
10
-35.1120304596
20
-0.00449886087322
11
-37.1746894182
21
-0.00538102066877
0
ARC
5
C6
100
AcDbEntity
8
0
6
ByLayer
62
256
370
-1
100
AcDbCircle
10
-37.1917158956
20
-0.560188473559
40
0.555068654056
100
AcDbArc
50
88.242202402
51
209.377244316
0
LINE
5
C7
100
AcDbEntity
8
0
6
ByLayer
62
256
370
-1
100
AcDbLine
10
-37.6754075557
20
-0.832481677072
11
-34.9394752734
21
-5.5584217403
0
ARC
5
C8
100
AcDbEntity
8
0
6
ByLayer
62
256
370
-1
100
AcDbCircle
10
-34.4661805392
20
-5.21819226686
40
0.58289278605
100
AcDbArc
50
215.710593138
51
263.130102355
0
LINE
5
C9
100
AcDbEntity
8
0
6
ByLayer
62
256
370
-1
100
AcDbLine
10
-34.535903401
20
-5.796900071
11
-31.8103932379
21
-5.77728916249
0
ARC
5
CA
100
AcDbEntity
8
0
6
ByLayer
62
256
370
-1
100
AcDbCircle
10
-31.7992963366
20
-6.35737120368
40
0.580188172694
100
AcDbArc
50
30.0000000008
51
91.0959278558
0
ARC
5
CB
100
AcDbEntity
8
0
6
ByLayer
62
256
370
-1
100
AcDbCircle
10
-31.7992963366
20
-6.35737120361
40
0.580188172599
100
AcDbArc
50
29.9999999977
51
91.0959278527
0
LINE
5
CC
100
AcDbEntity
8
0
6
ByLayer
62
256
370
-1
100
AcDbLine
10
-31.8103932378
20
-5.77728916251
11
-34.535903401
21
-5.796900071
0
ARC
5
CD
100
AcDbEntity
8
0
6
ByLayer
62
256
370
-1
100
AcDbCircle
10
-34.4661805392
20
-5.21819226686
40
0.58289278605
100
AcDbArc
50
215.710593138
51
263.130102355
0
LINE
5
CE
100
AcDbEntity
8
0
6
ByLayer
62
256
370
-1
100
AcDbLine
10
-34.9394752734
20
-5.5584217403
11
-37.6754075557
21
-0.832481677071
0
ARC
5
CF
100
AcDbEntity
8
0
6
ByLayer
62
256
370
-1
100
AcDbCircle
10
-37.1917158956
20
-0.560188473587
40
0.555068654086
100
AcDbArc
50
88.2422023968
51
209.377244311
0
LINE
5
D0
100
AcDbEntity
8
0
6
ByLayer
62
256
370
-1
100
AcDbLine
10
-37.1746894181
20
-0.00538102066918
11
-35.1120304595
21
-0.00449886087337
0
ARC
5
D1
100
AcDbEntity
8
0
6
ByLayer
62
256
370
-1
100
AcDbCircle
10
-35.1214785893
20
-0.566141647475
40
0.561722250671
100
AcDbArc
50
31.684684313
51
89.0362434631
0
LINE
5
D2
100
AcDbEntity
8
0
6
ByLayer
62
256
370
-1
100
AcDbLine
10
-34.6434801737
20
-0.271100291786
11
-33.6079951903
21
-2.05385085179
0
LINE
5
D3
100
AcDbEntity
8
0
6
ByLayer
62
256
370
-1
100
AcDbLine
10
-20.8980725187
20
24.0787245826
11
-26.0975630711
21
15.0730629105
0
LINE
5
D4
100
AcDbEntity
8
0
6
ByLayer
62
256
370
-1
100
AcDbLine
10
-26.0975630711
20
15.0730629105
11
-31.2970536236
21
6.06740123819
0
LINE
5
D5
100
AcDbEntity
8
0
6
ByLayer
62
256
370
-1
100
AcDbLine
10
-31.2970536236
20
6.06740123819
11
-26.0975630711
21
15.0730629105
0
LINE
5
D6
100
AcDbEntity
8
0
6
ByLayer
62
256
370
-1
100
AcDbLine
10
-26.0975630711
20
15.0730629105
11
-20.8980725187
21
24.0787245826
0
LINE
5
D7
100
AcDbEntity
8
0
6
ByLayer
62
256
370
-1
100
AcDbLine
10
-20.8980725187
20
24.0787245826
11
-26.0975630711
21
15.0730629105
0
LINE
5
D8
100
AcDbEntity
8
0
6
ByLayer
62
256
370
-1
100
AcDbLine
10
-26.0975630711
20
15.0730629105
11
-31.2970536236
21
6.06740123819
0
LINE
5
D9
100
AcDbEntity
8
0
6
ByLayer
62
256
370
-1
100
AcDbLine
10
-19.5522989077
20
32.2172211253
11
-22.278598211
21
27.4877040805
0
ARC
5
DA
100
AcDbEntity
8
0
6
ByLayer
62
256
370
-1
100
AcDbCircle
10
-21.7473034768
20
27.247933554
40
0.582892786048
100
AcDbArc
50
155.710593143
51
203.13010236
0
LINE
5
DB
100
AcDbEntity
8
0
6
ByLayer
62
256
370
-1
100
AcDbLine
10
-22.2833405674
20
27.0189614214
11
-20.8990117414
21
24.6763562951
0
ARC
5
DC
100
AcDbEntity
8
0
6
ByLayer
62
256
370
-1
100
AcDbCircle
10
-21.4048598746
20
24.3766187048
40
0.587983806685
100
AcDbArc
50
329.552705827
51
30.6486336821
0
ARC
5
DD
100
AcDbEntity
8
0
6
ByLayer
62
256
370
-1
100
AcDbCircle
10
-21.4048598746
20
24.3766187048
40
0.587983806685
100
AcDbArc
50
329.552705827
51
30.6486336821
0
LINE
5
DE
100
AcDbEntity
8
0
6
ByLayer
62
256
370
-1
100
AcDbLine
10
-20.8990117414
20
24.6763562951
11
-22.2833405674
21
27.0189614214
0
ARC
5
DF
100
AcDbEntity
8
0
6
ByLayer
62
256
370
-1
100
AcDbCircle
10
-21.7473034768
20
27.247933554
40
0.582892786048
100
AcDbArc
50
155.710593143
51
203.13010236
0
LINE
5
E0
100
AcDbEntity
8
0
6
ByLayer
62
256
370
-1
100
AcDbLine
10
-22.278598211
20
27.4877040805
11
-19.5522989077
21
32.2172211253
0
LINE
5
E1
100
AcDbEntity
8
0
6
ByLayer
62
256
370
-1
100
AcDbLine
10
-10.3940032046
20
30.1377441207
11
0.004873857798
21
30.1376840517
0
LINE
5
E2
100
AcDbEntity
8
0
6
ByLayer
62
256
370
-1
100
AcDbLine
10
0.004873857798
20
30.1376840517
11
10.4037509199
21
30.1376239827
0
LINE
5
E3
100
AcDbEntity
8
0
6
ByLayer
62
256
370
-1
100
AcDbLine
10
10.4037509199
20
30.1376239827
11
0.004873857798
21
30.1376840517
0
LINE
5
E4
100
AcDbEntity
8
0
6
ByLayer
62
256
370
-1
100
AcDbLine
10
0.004873857798
20
30.1376840517
11
-10.3940032046
21
30.1377441207
0
LINE
5
E5
100
AcDbEntity
8
0
6
ByLayer
62
256
370
-1
100
AcDbLine
10
-10.3940032046
20
30.1377441207
11
0.004873857798
21
30.1376840517
0
LINE
5
E6
100
AcDbEntity
8
0
6
ByLayer
62
256
370
-1
100
AcDbLine
10
0.004873857798
20
30.1376840517
11
10.4037509199
21
30.1376239827
0
LINE
5
E7
100
AcDbEntity
8
0
6
ByLayer
62
256
370
-1
100
AcDbLine
10
10.4037509199
20
30.1376239827
11
0.004873857798
21
30.1376840517
0
LINE
5
E8
100
AcDbEntity
8
0
6
ByLayer
62
256
370
-1
100
AcDbLine
10
0.004873857798
20
30.1376840517
11
-10.3940032046
21
30.1377441207
0
LINE
5
E9
100
AcDbEntity
8
0
6
ByLayer
62
256
370
-1
100
AcDbLine
10
-10.3940032046
20
30.1377441207
11
0.004873857798
21
30.1376840517
0
LINE
5
EA
100
AcDbEntity
8
0
6
ByLayer
62
256
370
-1
100
AcDbLine
10
0.004873857798
20
30.1376840517
11
10.4037509199
21
30.1376239827
0
LINE
5
EB
100
AcDbEntity
8
0
6
ByLayer
62
256
370
-1
100
AcDbLine
10
10.4037509199
20
30.1376239827
11
0.004873857798
21
30.1376840517
0
LINE
5
EC
100
AcDbEntity
8
0
6
ByLayer
62
256
370
-1
100
AcDbLine
10
0.004873857798
20
30.1376840517
11
-10.3940032046
21
30.1377441207
0
ARC
5
ED
100
AcDbEntity
8
0
6
ByLayer
62
256
370
-1
100
AcDbCircle
10
20.4007036635
20
23.7803128481
40
0.580188172637
100
AcDbArc
50
29.999999991
51
91.095927846
0
LINE
5
EE
100
AcDbEntity
8
0
6
ByLayer
62
256
370
-1
100
AcDbLine
10
20.3896067623
20
24.3603948892
11
17.6640965991
21
24.3407839807
0
ARC
5
EF
100
AcDbEntity
8
0
6
ByLayer
62
256
370
-1
100
AcDbCircle
10
17.7338194609
20
24.9194917848
40
0.58289278605
100
AcDbArc
50
215.710593138
51
263.130102355
0
LINE
5
F0
100
AcDbEntity
8
0
6
ByLayer
62
256
370
-1
100
AcDbLine
10
17.2605247267
20
24.5792623114
11
14.5245924444
21
29.3052023746
0
ARC
5
F1
100
AcDbEntity
8
0
6
ByLayer
62
256
370
-1
100
AcDbCircle
10
15.0082841045
20
29.5774955781
40
0.555068654085
100
AcDbArc
50
88.2422023968
51
209.377244311
0
LINE
5
F2
100
AcDbEntity
8
0
6
ByLayer
62
256
370
-1
100
AcDbLine
10
15.025310582
20
30.132303031
11
17.0988373071
21
30.1388500584
0
ARC
5
F3
100
AcDbEntity
8
0
6
ByLayer
62
256
370
-1
100
AcDbCircle
10
17.0823232056
20
30.7003295072
40
0.561722250765
100
AcDbArc
50
271.68468432
51
329.03624347
0
LINE
5
F4
100
AcDbEntity
8
0
6
ByLayer
62
256
370
-1
100
AcDbLine
10
17.5639960619
20
30.4113257935
11
18.5915826697
21
32.1941954409
0
ARC
5
F5
100
AcDbEntity
8
0
6
ByLayer
62
256
370
-1
100
AcDbCircle
10
18.11961856
20
32.4863445294
40
0.555068654074
100
AcDbArc
50
328.242202395
51
89.6559698474
0
ARC
5
F6
100
AcDbEntity
8
0
6
ByLayer
62
256
370
-1
100
AcDbCircle
10
18.11961856
20
32.4863445294
40
0.555068654074
100
AcDbArc
50
328.242202395
51
89.6559698474
0
LINE
5
F7
100
AcDbEntity
8
0
6
ByLayer
62
256
370
-1
100
AcDbLine
10
18.5915826697
20
32.1941954409
11
17.5639960619
21
30.4113257935
0
ARC
5
F8
100
AcDbEntity
8
0
6
ByLayer
62
256
370
-1
100
AcDbCircle
10
17.0823232056
20
30.7003295072
40
0.561722250765
100
AcDbArc
50
271.68468432
51
329.03624347
0
LINE
5
F9
100
AcDbEntity
8
0
6
ByLayer
62
256
370
-1
100
AcDbLine
10
17.0988373071
20
30.1388500584
11
15.025310582
21
30.132303031
0
ARC
5
FA
100
AcDbEntity
8
0
6
ByLayer
62
256
370
-1
100
AcDbCircle
10
15.0082841045
20
29.5774955781
40
0.555068654085
100
AcDbArc
50
88.2422023968
51
209.377244311
0
LINE
5
FB
100
AcDbEntity
8
0
6
ByLayer
62
256
370
-1
100
AcDbLine
10
14.5245924444
20
29.3052023746
11
17.2605247267
21
24.5792623114
0
ARC
5
FC
100
AcDbEntity
8
0
6
ByLayer
62
256
370
-1
100
AcDbCircle
10
17.7338194609
20
24.9194917848
40
0.58289278605
100
AcDbArc
50
215.710593138
51
263.130102355
0
LINE
5
FD
100
AcDbEntity
8
0
6
ByLayer
62
256
370
-1
100
AcDbLine
10
17.6640965991
20
24.3407839807
11
20.3896067623
21
24.3603948892
0
ARC
5
FE
100
AcDbEntity
8
0
6
ByLayer
62
256
370
-1
100
AcDbCircle
10
20.4007036635
20
23.7803128481
40
0.580188172637
100
AcDbArc
50
29.999999991
51
91.095927846
0
ARC
5
FF
100
AcDbEntity
8
0
6
ByLayer
62
256
370
-1
100
AcDbCircle
10
20.4007036635
20
23.7803128481
40
0.580188172637
100
AcDbArc
50
29.999999991
51
91.095927846
0
LINE
5
100
100
AcDbEntity
8
0
6
ByLayer
62
256
370
-1
100
AcDbLine
10
20.3896067623
20
24.3603948892
11
17.6640965991
21
24.3407839807
0
ARC
5
101
100
AcDbEntity
8
0
6
ByLayer
62
256
370
-1
100
AcDbCircle
10
17.7338194609
20
24.9194917848
40
0.58289278605
100
AcDbArc
50
215.710593138
51
263.130102355
0
LINE
5
102
100
AcDbEntity
8
0
6
ByLayer
62
256
370
-1
100
AcDbLine
10
17.2605247267
20
24.5792623114
11
14.5245924444
21
29.3052023746
0
ARC
5
103
100
AcDbEntity
8
0
6
ByLayer
62
256
370
-1
100
AcDbCircle
10
15.0082841045
20
29.5774955781
40
0.555068654085
100
AcDbArc
50
88.2422023968
51
209.377244311
0
LINE
5
104
100
AcDbEntity
8
0
6
ByLayer
62
256
370
-1
100
AcDbLine
10
15.025310582
20
30.132303031
11
17.0988373071
21
30.1388500584
0
ARC
5
105
100
AcDbEntity
8
0
6
ByLayer
62
256
370
-1
100
AcDbCircle
10
17.0823232056
20
30.7003295072
40
0.561722250765
100
AcDbArc
50
271.68468432
51
329.03624347
0
LINE
5
106
100
AcDbEntity
8
0
6
ByLayer
62
256
370
-1
100
AcDbLine
10
17.5639960619
20
30.4113257935
11
18.5915826697
21
32.1941954409
0
ARC
5
107
100
AcDbEntity
8
0
6
ByLayer
62
256
370
-1
100
AcDbCircle
10
18.11961856
20
32.4863445294
40
0.555068654074
100
AcDbArc
50
328.242202395
51
89.6559698474
0
ARC
5
108
100
AcDbEntity
8
0
6
ByLayer
62
256
370
-1
100
AcDbCircle
10
18.11961856
20
32.4863445294
40
0.555068654074
100
AcDbArc
50
328.242202395
51
89.6559698474
0
LINE
5
109
100
AcDbEntity
8
0
6
ByLayer
62
256
370
-1
100
AcDbLine
10
18.5915826697
20
32.1941954409
11
17.5639960619
21
30.4113257935
0
ARC
5
10A
100
AcDbEntity
8
0
6
ByLayer
62
256
370
-1
100
AcDbCircle
10
17.0823232056
20
30.7003295072
40
0.561722250765
100
AcDbArc
50
271.68468432
51
329.03624347
0
LINE
5
10B
100
AcDbEntity
8
0
6
ByLayer
62
256
370
-1
100
AcDbLine
10
17.0988373071
20
30.1388500584
11
15.025310582
21
30.132303031
0
ARC
5
10C
100
AcDbEntity
8
0
6
ByLayer
62
256
370
-1
100
AcDbCircle
10
15.0082841045
20
29.5774955781
40
0.555068654085
100
AcDbArc
50
88.2422023968
51
209.377244311
0
LINE
5
10D
100
AcDbEntity
8
0
6
ByLayer
62
256
370
-1
100
AcDbLine
10
14.5245924444
20
29.3052023746
11
17.2605247267
21
24.5792623114
0
ARC
5
10E
100
AcDbEntity
8
0
6
ByLayer
62
256
370
-1
100
AcDbCircle
10
17.7338194609
20
24.9194917848
40
0.58289278605
100
AcDbArc
50
215.710593138
51
263.130102355
0
LINE
5
10F
100
AcDbEntity
8
0
6
ByLayer
62
256
370
-1
100
AcDbLine
10
17.6640965991
20
24.3407839807
11
20.3896067623
21
24.3603948892
0
ARC
5
110
100
AcDbEntity
8
0
6
ByLayer
62
256
370
-1
100
AcDbCircle
10
20.4007036635
20
23.7803128481
40
0.580188172637
100
AcDbArc
50
29.999999991
51
91.095927846
0
ARC
5
111
100
AcDbEntity
8
0
6
ByLayer
62
256
370
-1
100
AcDbCircle
10
20.4007036635
20
23.7803128481
40
0.580188172637
100
AcDbArc
50
29.999999991
51
91.095927846
0
LINE
5
112
100
AcDbEntity
8
0
6
ByLayer
62
256
370
-1
100
AcDbLine
10
20.3896067623
20
24.3603948892
11
17.6640965991
21
24.3407839807
0
ARC
5
113
100
AcDbEntity
8
0
6
ByLayer
62
256
370
-1
100
AcDbCircle
10
17.7338194609
20
24.9194917848
40
0.58289278605
100
AcDbArc
50
215.710593138
51
263.130102355
0
LINE
5
114
100
AcDbEntity
8
0
6
ByLayer
62
256
370
-1
100
AcDbLine
10
17.2605247267
20
24.5792623114
11
14.5245924444
21
29.3052023746
0
ARC
5
115
100
AcDbEntity
8
0
6
ByLayer
62
256
370
-1
100
AcDbCircle
10
15.0082841045
20
29.5774955781
40
0.555068654085
100
AcDbArc
50
88.2422023968
51
209.377244311
0
LINE
5
116
100
AcDbEntity
8
0
6
ByLayer
62
256
370
-1
100
AcDbLine
10
15.025310582
20
30.132303031
11
17.0988373071
21
30.1388500584
0
ARC
5
117
100
AcDbEntity
8
0
6
ByLayer
62
256
370
-1
100
AcDbCircle
10
17.0823232056
20
30.7003295072
40
0.561722250765
100
AcDbArc
50
271.68468432
51
329.03624347
0
LINE
5
118
100
AcDbEntity
8
0
6
ByLayer
62
256
370
-1
100
AcDbLine
10
17.5639960619
20
30.4113257935
11
18.5915826697
21
32.1941954409
0
ARC
5
119
100
AcDbEntity
8
0
6
ByLayer
62
256
370
-1
100
AcDbCircle
10
18.11961856
20
32.4863445294
40
0.555068654074
100
AcDbArc
50
328.242202395
51
89.6559698474
0
ARC
5
11A
100
AcDbEntity
8
0
6
ByLayer
62
256
370
-1
100
AcDbCircle
10
18.11961856
20
32.4863445294
40
0.555068654074
100
AcDbArc
50
328.242202395
51
89.6559698474
0
LINE
5
11B
100
AcDbEntity
8
0
6
ByLayer
62
256
370
-1
100
AcDbLine
10
18.5915826697
20
32.1941954409
11
17.5639960619
21
30.4113257935
0
ARC
5
11C
100
AcDbEntity
8
0
6
ByLayer
62
256
370
-1
100
AcDbCircle
10
17.0823232056
20
30.7003295072
40
0.561722250765
100
AcDbArc
50
271.68468432
51
329.03624347
0
LINE
5
11D
100
AcDbEntity
8
0
6
ByLayer
62
256
370
-1
100
AcDbLine
10
17.0988373071
20
30.1388500584
11
15.025310582
21
30.132303031
0
ARC
5
11E
100
AcDbEntity
8
0
6
ByLayer
62
256
370
-1
100
AcDbCircle
10
15.0082841045
20
29.5774955781
40
0.555068654085
100
AcDbArc
50
88.2422023968
51
209.377244311
0
LINE
5
11F
100
AcDbEntity
8
0
6
ByLayer
62
256
370
-1
100
AcDbLine
10
14.5245924444
20
29.3052023746
11
17.2605247267
21
24.5792623114
0
ARC
5
120
100
AcDbEntity
8
0
6
ByLayer
62
256
370
-1
100
AcDbCircle
10
17.7338194609
20
24.9194917848
40
0.58289278605
100
AcDbArc
50
215.710593138
51
263.130102355
0
LINE
5
121
100
AcDbEntity
8
0
6
ByLayer
62
256
370
-1
100
AcDbLine
10
17.6640965991
20
24.3407839807
11
20.3896067623
21
24.3603948892
0
ARC
5
122
100
AcDbEntity
8
0
6
ByLayer
62
256
370
-1
100
AcDbCircle
10
20.4007036635
20
23.7803128481
40
0.580188172637
100
AcDbArc
50
29.999999991
51
91.095927846
0
ARC
5
123
100
AcDbEntity
8
0
6
ByLayer
62
256
370
-1
100
AcDbCircle
10
20.4007036635
20
23.7803128481
40
0.580188172637
100
AcDbArc
50
29.999999991
51
91.095927846
0
LINE
5
124
100
AcDbEntity
8
0
6
ByLayer
62
256
370
-1
100
AcDbLine
10
20.3896067623
20
24.3603948892
11
17.6640965991
21
24.3407839807
0
ARC
5
125
100
AcDbEntity
8
0
6
ByLayer
62
256
370
-1
100
AcDbCircle
10
17.7338194609
20
24.9194917848
40
0.58289278605
100
AcDbArc
50
215.710593138
51
263.130102355
0
LINE
5
126
100
AcDbEntity
8
0
6
ByLayer
62
256
370
-1
100
AcDbLine
10
17.2605247267
20
24.5792623114
11
14.5245924444
21
29.3052023746
0
ARC
5
127
100
AcDbEntity
8
0
6
ByLayer
62
256
370
-1
100
AcDbCircle
10
15.0082841045
20
29.5774955781
40
0.555068654085
100
AcDbArc
50
88.2422023968
51
209.377244311
0
LINE
5
128
100
AcDbEntity
8
0
6
ByLayer
62
256
370
-1
100
AcDbLine
10
15.025310582
20
30.132303031
11
17.0988373071
21
30.1388500584
0
ARC
5
129
100
AcDbEntity
8
0
6
ByLayer
62
256
370
-1
100
AcDbCircle
10
17.0823232056
20
30.7003295072
40
0.561722250765
100
AcDbArc
50
271.68468432
51
329.03624347
0
LINE
5
12A
100
AcDbEntity
8
0
6
ByLayer
62
256
370
-1
100
AcDbLine
10
17.5639960619
20
30.4113257935
11
18.5915826697
21
32.1941954409
0
ARC
5
12B
100
AcDbEntity
8
0
6
ByLayer
62
256
370
-1
100
AcDbCircle
10
18.11961856
20
32.4863445294
40
0.555068654074
100
AcDbArc
50
328.242202395
51
89.6559698474
0
ARC
5
12C
100
AcDbEntity
8
0
6
ByLayer
62
256
370
-1
100
AcDbCircle
10
-19.0741903586
20
31.9352222446
40
0.555068654022
100
AcDbArc
50
28.242202394
51
149.655969846
0
LINE
5
12D
100
AcDbEntity
8
0
6
ByLayer
62
256
370
-1
100
AcDbLine
10
-18.5851997715
20
32.197880609
11
-17.554982669
21
30.4165296783
0
ARC
5
12E
100
AcDbEntity
8
0
6
ByLayer
62
256
370
-1
100
AcDbCircle
10
-18.0575611082
20
30.1382511647
40
0.574477169868
100
AcDbArc
50
331.621812438
51
28.973371588
0
LINE
5
12F
100
AcDbEntity
8
0
6
ByLayer
62
256
370
-1
100
AcDbLine
10
-17.5521191019
20
29.8652083166
11
-18.5826846084
21
28.0784521793
0
ARC
5
130
100
AcDbEntity
8
0
6
ByLayer
62
256
370
-1
100
AcDbCircle
10
-18.1107204987
20
27.7863030908
40
0.555068654078
100
AcDbArc
50
148.242202395
51
269.377244309
0
LINE
5
131
100
AcDbEntity
8
0
6
ByLayer
62
256
370
-1
100
AcDbLine
10
-18.1167534973
20
27.2312672238
11
-12.6560032046
21
27.2376840517
0
ARC
5
132
100
AcDbEntity
8
0
6
ByLayer
62
256
370
-1
100
AcDbCircle
10
-12.7140032046
20
27.8176840517
40
0.582892786008
100
AcDbArc
50
275.71059314
51
323.130102357
0
LINE
5
133
100
AcDbEntity
8
0
6
ByLayer
62
256
370
-1
100
AcDbLine
10
-12.2476889758
20
27.4679483801
11
-10.9019174392
21
29.8381148739
0
ARC
5
134
100
AcDbEntity
8
0
6
ByLayer
62
256
370
-1
100
AcDbCircle
10
-10.3940032046
20
29.5576840517
40
0.580188172706
100
AcDbArc
50
89.9999999996
51
151.095927855
0
ARC
5
135
100
AcDbEntity
8
0
6
ByLayer
62
256
370
-1
100
AcDbCircle
10
-10.3940032046
20
29.5576840517
40
0.580188172706
100
AcDbArc
50
89.9999999996
51
151.095927855
0
LINE
5
136
100
AcDbEntity
8
0
6
ByLayer
62
256
370
-1
100
AcDbLine
10
-10.9019174392
20
29.8381148739
11
-12.2476889758
21
27.4679483801
0
ARC
5
137
100
AcDbEntity
8
0
6
ByLayer
62
256
370
-1
100
AcDbCircle
10
-12.7140032046
20
27.8176840517
40
0.582892786008
100
AcDbArc
50
275.71059314
51
323.130102357
0
LINE
5
138
100
AcDbEntity
8
0
6
ByLayer
62
256
370
-1
100
AcDbLine
10
-12.6560032046
20
27.2376840517
11
-18.1167534973
21
27.2312672238
0
ARC
5
139
100
AcDbEntity
8
0
6
ByLayer
62
256
370
-1
100
AcDbCircle
10
-18.1107204987
20
27.7863030908
40
0.555068654078
100
AcDbArc
50
148.242202395
51
269.377244309
0
LINE
5
13A
100
AcDbEntity
8
0
6
ByLayer
62
256
370
-1
100
AcDbLine
10
-18.5826846084
20
28.0784521793
11
-17.5521191019
21
29.8652083166
0
ARC
5
13B
100
AcDbEntity
8
0
6
ByLayer
62
256
370
-1
100
AcDbCircle
10
-18.0575611082
20
30.1382511647
40
0.574477169868
100
AcDbArc
50
331.621812438
51
28.973371588
0
LINE
5
13C
100
AcDbEntity
8
0
6
ByLayer
62
256
370
-1
100
AcDbLine
10
-17.554982669
20
30.4165296783
11
-18.5851997715
21
32.197880609
0
ARC
5
13D
100
AcDbEntity
8
0
6
ByLayer
62
256
370
-1
100
AcDbCircle
10
-19.0741903586
20
31.9352222446
40
0.555068654022
100
AcDbArc
50
28.242202394
51
149.655969846
0
ARC
5
13E
100
AcDbEntity
8
0
6
ByLayer
62
256
370
-1
100
AcDbCircle
10
-19.0741903586
20
31.9352222446
40
0.555068654022
100
AcDbArc
50
28.242202394
51
149.655969846
0
LINE
5
13F
100
AcDbEntity
8
0
6
ByLayer
62
256
370
-1
100
AcDbLine
10
-18.5851997715
20
32.197880609
11
-17.554982669
21
30.4165296783
0
ARC
5
140
100
AcDbEntity
8
0
6
ByLayer
62
256
370
-1
100
AcDbCircle
10
-18.0575611082
20
30.1382511647
40
0.574477169868
100
AcDbArc
50
331.621812438
51
28.973371588
0
LINE
5
141
100
AcDbEntity
8
0
6
ByLayer
62
256
370
-1
100
AcDbLine
10
-17.5521191019
20
29.8652083166
11
-18.5826846084
21
28.0784521793
0
ARC
5
142
100
AcDbEntity
8
0
6
ByLayer
62
256
370
-1
100
AcDbCircle
10
-18.1107204987
20
27.7863030908
40
0.555068654078
100
AcDbArc
50
148.242202395
51
269.377244309
0
LINE
5
143
100
AcDbEntity
8
0
6
ByLayer
62
256
370
-1
100
AcDbLine
10
-18.1167534973
20
27.2312672238
11
-12.6560032046
21
27.2376840517
0
ARC
5
144
100
AcDbEntity
8
0
6
ByLayer
62
256
370
-1
100
AcDbCircle
10
-12.7140032046
20
27.8176840517
40
0.582892786008
100
AcDbArc
50
275.71059314
51
323.130102357
0
LINE
5
145
100
AcDbEntity
8
0
6
ByLayer
62
256
370
-1
100
AcDbLine
10
-12.2476889758
20
27.4679483801
11
-10.9019174392
21
29.8381148739
0
ARC
5
146
100
AcDbEntity
8
0
6
ByLayer
62
256
370
-1
100
AcDbCircle
10
-10.3940032046
20
29.5576840517
40
0.580188172706
100
AcDbArc
50
89.9999999996
51
151.095927855
0
ARC
5
147
100
AcDbEntity
8
0
6
ByLayer
62
256
370
-1
100
AcDbCircle
10
-10.3940032046
20
29.5576840517
40
0.580188172706
100
AcDbArc
50
89.9999999996
51
151.095927855
0
LINE
5
148
100
AcDbEntity
8
0
6
ByLayer
62
256
370
-1
100
AcDbLine
10
-10.9019174392
20
29.8381148739
11
-12.2476889758
21
27.4679483801
0
ARC
5
149
100
AcDbEntity
8
0
6
ByLayer
62
256
370
-1
100
AcDbCircle
10
-12.7140032046
20
27.8176840517
40
0.582892786008
100
AcDbArc
50
275.71059314
51
323.130102357
0
LINE
5
14A
100
AcDbEntity
8
0
6
ByLayer
62
256
370
-1
100
AcDbLine
10
-12.6560032046
20
27.2376840517
11
-18.1167534973
21
27.2312672238
0
ARC
5
14B
100
AcDbEntity
8
0
6
ByLayer
62
256
370
-1
100
AcDbCircle
10
-18.1107204987
20
27.7863030908
40
0.555068654078
100
AcDbArc
50
148.242202395
51
269.377244309
0
LINE
5
14C
100
AcDbEntity
8
0
6
ByLayer
62
256
370
-1
100
AcDbLine
10
-18.5826846084
20
28.0784521793
11
-17.5521191019
21
29.8652083166
0
ARC
5
14D
100
AcDbEntity
8
0
6
ByLayer
62
256
370
-1
100
AcDbCircle
10
-18.0575611082
20
30.1382511647
40
0.574477169868
100
AcDbArc
50
331.621812438
51
28.973371588
0
LINE
5
14E
100
AcDbEntity
8
0
6
ByLayer
62
256
370
-1
100
AcDbLine
10
-17.554982669
20
30.4165296783
11
-18.5851997715
21
32.197880609
0
ARC
5
14F
100
AcDbEntity
8
0
6
ByLayer
62
256
370
-1
100
AcDbCircle
10
-19.0741903586
20
31.9352222446
40
0.555068654022
100
AcDbArc
50
28.242202394
51
149.655969846
0
ARC
5
150
100
AcDbEntity
8
0
6
ByLayer
62
256
370
-1
100
AcDbCircle
10
-19.0741903586
20
31.9352222446
40
0.555068654022
100
AcDbArc
50
28.242202394
51
149.655969846
0
LINE
5
151
100
AcDbEntity
8
0
6
ByLayer
62
256
370
-1
100
AcDbLine
10
-18.5851997715
20
32.197880609
11
-17.554982669
21
30.4165296783
0
ARC
5
152
100
AcDbEntity
8
0
6
ByLayer
62
256
370
-1
100
AcDbCircle
10
-18.0575611082
20
30.1382511647
40
0.574477169868
100
AcDbArc
50
331.621812438
51
28.973371588
0
LINE
5
153
100
AcDbEntity
8
0
6
ByLayer
62
256
370
-1
100
AcDbLine
10
-17.5521191019
20
29.8652083166
11
-18.5826846084
21
28.0784521793
0
ARC
5
154
100
AcDbEntity
8
0
6
ByLayer
62
256
370
-1
100
AcDbCircle
10
-18.1107204987
20
27.7863030908
40
0.555068654078
100
AcDbArc
50
148.242202395
51
269.377244309
0
LINE
5
155
100
AcDbEntity
8
0
6
ByLayer
62
256
370
-1
100
AcDbLine
10
-18.1167534973
20
27.2312672238
11
-12.6560032046
21
27.2376840517
0
ARC
5
156
100
AcDbEntity
8
0
6
ByLayer
62
256
370
-1
100
AcDbCircle
10
-12.7140032046
20
27.8176840517
40
0.582892786008
100
AcDbArc
50
275.71059314
51
323.130102357
0
LINE
5
157
100
AcDbEntity
8
0
6
ByLayer
62
256
370
-1
100
AcDbLine
10
-12.2476889758
20
27.4679483801
11
-10.9019174392
21
29.8381148739
0
ARC
5
158
100
AcDbEntity
8
0
6
ByLayer
62
256
370
-1
100
AcDbCircle
10
-10.3940032046
20
29.5576840517
40
0.580188172706
100
AcDbArc
50
89.9999999996
51
151.095927855
0
ARC
5
159
100
AcDbEntity
8
0
6
ByLayer
62
256
370
-1
100
AcDbCircle
10
-10.3940032046
20
29.5576840517
40
0.580188172706
100
AcDbArc
50
89.9999999996
51
151.095927855
0
LINE
5
15A
100
AcDbEntity
8
0
6
ByLayer
62
256
370
-1
100
AcDbLine
10
-10.9019174392
20
29.8381148739
11
-12.2476889758
21
27.4679483801
0
ARC
5
15B
100
AcDbEntity
8
0
6
ByLayer
62
256
370
-1
100
AcDbCircle
10
-12.7140032046
20
27.8176840517
40
0.582892786008
100
AcDbArc
50
275.71059314
51
323.130102357
0
LINE
5
15C
100
AcDbEntity
8
0
6
ByLayer
62
256
370
-1
100
AcDbLine
10
-12.6560032046
20
27.2376840517
11
-18.1167534973
21
27.2312672238
0
ARC
5
15D
100
AcDbEntity
8
0
6
ByLayer
62
256
370
-1
100
AcDbCircle
10
-18.1107204987
20
27.7863030908
40
0.555068654078
100
AcDbArc
50
148.242202395
51
269.377244309
0
LINE
5
15E
100
AcDbEntity
8
0
6
ByLayer
62
256
370
-1
100
AcDbLine
10
-18.5826846084
20
28.0784521793
11
-17.5521191019
21
29.8652083166
0
ARC
5
15F
100
AcDbEntity
8
0
6
ByLayer
62
256
370
-1
100
AcDbCircle
10
-18.0575611082
20
30.1382511647
40
0.574477169868
100
AcDbArc
50
331.621812438
51
28.973371588
0
LINE
5
160
100
AcDbEntity
8
0
6
ByLayer
62
256
370
-1
100
AcDbLine
10
-17.554982669
20
30.4165296783
11
-18.5851997715
21
32.197880609
0
ARC
5
161
100
AcDbEntity
8
0
6
ByLayer
62
256
370
-1
100
AcDbCircle
10
-19.0741903586
20
31.9352222446
40
0.555068654022
100
AcDbArc
50
28.242202394
51
149.655969846
0
ARC
5
162
100
AcDbEntity
8
0
6
ByLayer
62
256
370
-1
100
AcDbCircle
10
-19.0741903586
20
31.9352222446
40
0.555068654022
100
AcDbArc
50
28.242202394
51
149.655969846
0
LINE
5
163
100
AcDbEntity
8
0
6
ByLayer
62
256
370
-1
100
AcDbLine
10
-18.5851997715
20
32.197880609
11
-17.554982669
21
30.4165296783
0
ARC
5
164
100
AcDbEntity
8
0
6
ByLayer
62
256
370
-1
100
AcDbCircle
10
-18.0575611082
20
30.1382511647
40
0.574477169868
100
AcDbArc
50
331.621812438
51
28.973371588
0
LINE
5
165
100
AcDbEntity
8
0
6
ByLayer
62
256
370
-1
100
AcDbLine
10
-17.5521191019
20
29.8652083166
11
-18.5826846084
21
28.0784521793
0
ARC
5
166
100
AcDbEntity
8
0
6
ByLayer
62
256
370
-1
100
AcDbCircle
10
-18.1107204987
20
27.7863030908
40
0.555068654078
100
AcDbArc
50
148.242202395
51
269.377244309
0
LINE
5
167
100
AcDbEntity
8
0
6
ByLayer
62
256
370
-1
100
AcDbLine
10
-18.1167534973
20
27.2312672238
11
-12.6560032046
21
27.2376840517
0
ARC
5
168
100
AcDbEntity
8
0
6
ByLayer
62
256
370
-1
100
AcDbCircle
10
-12.7140032046
20
27.8176840517
40
0.582892786008
100
AcDbArc
50
275.71059314
51
323.130102357
0
LINE
5
169
100
AcDbEntity
8
0
6
ByLayer
62
256
370
-1
100
AcDbLine
10
-12.2476889758
20
27.4679483801
11
-10.9019174392
21
29.8381148739
0
ARC
5
16A
100
AcDbEntity
8
0
6
ByLayer
62
256
370
-1
100
AcDbCircle
10
-10.3940032046
20
29.5576840517
40
0.580188172706
100
AcDbArc
50
89.9999999996
51
151.095927855
0
ARC
5
16B
100
AcDbEntity
8
0
6
ByLayer
62
256
370
-1
100
AcDbCircle
10
-10.3940032046
20
29.5576840517
40
0.580188172706
100
AcDbArc
50
89.9999999996
51
151.095927855
0
LINE
5
16C
100
AcDbEntity
8
0
6
ByLayer
62
256
370
-1
100
AcDbLine
10
-10.9019174392
20
29.8381148739
11
-12.2476889758
21
27.4679483801
0
ARC
5
16D
100
AcDbEntity
8
0
6
ByLayer
62
256
370
-1
100
AcDbCircle
10
-12.7140032046
20
27.8176840517
40
0.582892786008
100
AcDbArc
50
275.71059314
51
323.130102357
0
LINE
5
16E
100
AcDbEntity
8
0
6
ByLayer
62
256
370
-1
100
AcDbLine
10
-12.6560032046
20
27.2376840517
11
-18.1167534973
21
27.2312672238
0
ARC
5
16F
100
AcDbEntity
8
0
6
ByLayer
62
256
370
-1
100
AcDbCircle
10
-18.1107204987
20
27.7863030908
40
0.555068654078
100
AcDbArc
50
148.242202395
51
269.377244309
0
LINE
5
170
100
AcDbEntity
8
0
6
ByLayer
62
256
370
-1
100
AcDbLine
10
-18.5826846084
20
28.0784521793
11
-17.5521191019
21
29.8652083166
0
ARC
5
171
100
AcDbEntity
8
0
6
ByLayer
62
256
370
-1
100
AcDbCircle
10
-18.0575611082
20
30.1382511647
40
0.574477169868
100
AcDbArc
50
331.621812438
51
28.973371588
0
LINE
5
172
100
AcDbEntity
8
0
6
ByLayer
62
256
370
-1
100
AcDbLine
10
-17.554982669
20
30.4165296783
11
-18.5851997715
21
32.197880609
0
ARC
5
173
100
AcDbEntity
8
0
6
ByLayer
62
256
370
-1
100
AcDbCircle
10
-19.0741903586
20
31.9352222446
40
0.555068654022
100
AcDbArc
50
28.242202394
51
149.655969846
0
ARC
5
174
100
AcDbEntity
8
0
6
ByLayer
62
256
370
-1
100
AcDbCircle
10
-19.0741903586
20
31.9352222446
40
0.555068654022
100
AcDbArc
50
28.242202394
51
149.655969846
0
LINE
5
175
100
AcDbEntity
8
0
6
ByLayer
62
256
370
-1
100
AcDbLine
10
-18.5851997715
20
32.197880609
11
-17.554982669
21
30.4165296783
0
ARC
5
176
100
AcDbEntity
8
0
6
ByLayer
62
256
370
-1
100
AcDbCircle
10
-18.0575611082
20
30.1382511647
40
0.574477169868
100
AcDbArc
50
331.621812438
51
28.973371588
0
LINE
5
177
100
AcDbEntity
8
0
6
ByLayer
62
256
370
-1
100
AcDbLine
10
-17.5521191019
20
29.8652083166
11
-18.5826846084
21
28.0784521793
0
ARC
5
178
100
AcDbEntity
8
0
6
ByLayer
62
256
370
-1
100
AcDbCircle
10
-18.1107204987
20
27.7863030908
40
0.555068654078
100
AcDbArc
50
148.242202395
51
269.377244309
0
LINE
5
179
100
AcDbEntity
8
0
6
ByLayer
62
256
370
-1
100
AcDbLine
10
-18.1167534973
20
27.2312672238
11
-12.6560032046
21
27.2376840517
0
ARC
5
17A
100
AcDbEntity
8
0
6
ByLayer
62
256
370
-1
100
AcDbCircle
10
-12.7140032046
20
27.8176840517
40
0.582892786008
100
AcDbArc
50
275.71059314
51
323.130102357
0
LINE
5
17B
100
AcDbEntity
8
0
6
ByLayer
62
256
370
-1
100
AcDbLine
10
-12.2476889758
20
27.4679483801
11
-10.9019174392
21
29.8381148739
0
ARC
5
17C
100
AcDbEntity
8
0
6
ByLayer
62
256
370
-1
100
AcDbCircle
10
-10.3940032046
20
29.5576840517
40
0.580188172706
100
AcDbArc
50
89.9999999996
51
151.095927855
0
LINE
5
17D
100
AcDbEntity
8
0
6
ByLayer
62
256
370
-1
100
AcDbLine
10
18.1229514269
20
33.0414031774
11
12.6657509199
21
33.0376840517
0
ARC
5
17E
100
AcDbEntity
8
0
6
ByLayer
62
256
370
-1
100
AcDbCircle
10
12.7237509199
20
32.4576840517
40
0.582892786015
100
AcDbArc
50
95.7105931404
51
143.130102357
0
LINE
5
17F
100
AcDbEntity
8
0
6
ByLayer
62
256
370
-1
100
AcDbLine
10
12.2574366911
20
32.8074197233
11
12.2293976262
21
32.7468201617
0
LINE
5
180
100
AcDbEntity
8
0
6
ByLayer
62
256
370
-1
100
AcDbLine
10
12.2293976262
20
32.7468201617
11
10.9208455537
21
30.4372532295
0
ARC
5
181
100
AcDbEntity
8
0
6
ByLayer
62
256
370
-1
100
AcDbCircle
10
10.4083411195
20
30.7254617683
40
0.587983806667
100
AcDbArc
50
269.552705818
51
330.648633673
0
ARC
5
182
100
AcDbEntity
8
0
6
ByLayer
62
256
370
-1
100
AcDbCircle
10
10.4083411195
20
30.7254617683
40
0.587983806667
100
AcDbArc
50
269.552705818
51
330.648633673
0
LINE
5
183
100
AcDbEntity
8
0
6
ByLayer
62
256
370
-1
100
AcDbLine
10
10.9208455537
20
30.4372532295
11
12.2293976262
21
32.7468201617
0
LINE
5
184
100
AcDbEntity
8
0
6
ByLayer
62
256
370
-1
100
AcDbLine
10
12.2293976262
20
32.7468201617
11
12.2574366911
21
32.8074197233
0
ARC
5
185
100
AcDbEntity
8
0
6
ByLayer
62
256
370
-1
100
AcDbCircle
10
12.7237509199
20
32.4576840517
40
0.582892786015
100
AcDbArc
50
95.7105931404
51
143.130102357
0
LINE
5
186
100
AcDbEntity
8
0
6
ByLayer
62
256
370
-1
100
AcDbLine
10
12.6657509199
20
33.0376840517
11
18.1229514269
21
33.0414031774
0
LINE
5
187
100
AcDbEntity
8
0
6
ByLayer
62
256
370
-1
100
AcDbLine
10
18.1229514269
20
33.0414031774
11
12.6657509199
21
33.0376840517
0
ARC
5
188
100
AcDbEntity
8
0
6
ByLayer
62
256
370
-1
100
AcDbCircle
10
12.7237509199
20
32.4576840517
40
0.582892786015
100
AcDbArc
50
95.7105931404
51
143.130102357
0
LINE
5
189
100
AcDbEntity
8
0
6
ByLayer
62
256
370
-1
100
AcDbLine
10
12.2574366911
20
32.8074197233
11
12.2293976262
21
32.7468201617
0
LINE
5
18A
100
AcDbEntity
8
0
6
ByLayer
62
256
370
-1
100
AcDbLine
10
12.2293976262
20
32.7468201617
11
10.9208455537
21
30.4372532295
0
ARC
5
18B
100
AcDbEntity
8
0
6
ByLayer
62
256
370
-1
100
AcDbCircle
10
10.4083411195
20
30.7254617683
40
0.587983806667
100
AcDbArc
50
269.552705818
51
330.648633673
0
ARC
5
18C
100
AcDbEntity
8
0
6
ByLayer
62
256
370
-1
100
AcDbCircle
10
10.4083411195
20
30.7254617683
40
0.587983806667
100
AcDbArc
50
269.552705818
51
330.648633673
0
LINE
5
18D
100
AcDbEntity
8
0
6
ByLayer
62
256
370
-1
100
AcDbLine
10
10.9208455537
20
30.4372532295
11
12.2293976262
21
32.7468201617
0
LINE
5
18E
100
AcDbEntity
8
0
6
ByLayer
62
256
370
-1
100
AcDbLine
10
12.2293976262
20
32.7468201617
11
12.2574366911
21
32.8074197233
0
ARC
5
18F
100
AcDbEntity
8
0
6
ByLayer
62
256
370
-1
100
AcDbCircle
10
12.7237509199
20
32.4576840517
40
0.582892786015
100
AcDbArc
50
95.7105931404
51
143.130102357
0
LINE
5
190
100
AcDbEntity
8
0
6
ByLayer
62
256
370
-1
100
AcDbLine
10
12.6657509199
20
33.0376840517
11
18.1229514269
21
33.0414031774
0
LINE
5
191
100
AcDbEntity
8
0
6
ByLayer
62
256
370
-1
100
AcDbLine
10
18.1229514269
20
33.0414031774
11
12.6657509199
21
33.0376840517
0
ARC
5
192
100
AcDbEntity
8
0
6
ByLayer
62
256
370
-1
100
AcDbCircle
10
12.7237509199
20
32.4576840517
40
0.582892786015
100
AcDbArc
50
95.7105931404
51
143.130102357
0
LINE
5
193
100
AcDbEntity
8
0
6
ByLayer
62
256
370
-1
100
AcDbLine
10
12.2574366911
20
32.8074197233
11
12.2293976262
21
32.7468201617
0
LINE
5
194
100
AcDbEntity
8
0
6
ByLayer
62
256
370
-1
100
AcDbLine
10
12.2293976262
20
32.7468201617
11
10.9208455537
21
30.4372532295
0
ARC
5
195
100
AcDbEntity
8
0
6
ByLayer
62
256
370
-1
100
AcDbCircle
10
10.4083411195
20
30.7254617683
40
0.587983806667
100
AcDbArc
50
269.552705818
51
330.648633673
0
ARC
5
196
100
AcDbEntity
8
0
6
ByLayer
62
256
370
-1
100
AcDbCircle
10
10.4083411195
20
30.7254617683
40
0.587983806667
100
AcDbArc
50
269.552705818
51
330.648633673
0
LINE
5
197
100
AcDbEntity
8
0
6
ByLayer
62
256
370
-1
100
AcDbLine
10
10.9208455537
20
30.4372532295
11
12.2293976262
21
32.7468201617
0
LINE
5
198
100
AcDbEntity
8
0
6
ByLayer
62
256
370
-1
100
AcDbLine
10
12.2293976262
20
32.7468201617
11
12.2574366911
21
32.8074197233
0
ARC
5
199
100
AcDbEntity
8
0
6
ByLayer
62
256
370
-1
100
AcDbCircle
10
12.7237509199
20
32.4576840517
40
0.582892786015
100
AcDbArc
50
95.7105931404
51
143.130102357
0
LINE
5
19A
100
AcDbEntity
8
0
6
ByLayer
62
256
370
-1
100
AcDbLine
10
12.6657509199
20
33.0376840517
11
18.1229514269
21
33.0414031774
0
LINE
5
19B
100
AcDbEntity
8
0
6
ByLayer
62
256
370
-1
100
AcDbLine
10
18.1229514269
20
33.0414031774
11
12.6657509199
21
33.0376840517
0
ARC
5
19C
100
AcDbEntity
8
0
6
ByLayer
62
256
370
-1
100
AcDbCircle
10
12.7237509199
20
32.4576840517
40
0.582892786015
100
AcDbArc
50
95.7105931404
51
143.130102357
0
LINE
5
19D
100
AcDbEntity
8
0
6
ByLayer
62
256
370
-1
100
AcDbLine
10
12.2574366911
20
32.8074197233
11
12.2293976262
21
32.7468201617
0
LINE
5
19E
100
AcDbEntity
8
0
6
ByLayer
62
256
370
-1
100
AcDbLine
10
12.2293976262
20
32.7468201617
11
10.9208455537
21
30.4372532295
0
ARC
5
19F
100
AcDbEntity
8
0
6
ByLayer
62
256
370
-1
100
AcDbCircle
10
10.4083411195
20
30.7254617683
40
0.587983806667
100
AcDbArc
50
269.552705818
51
330.648633673
0
ARC
5
1A0
100
AcDbEntity
8
2
6
ByLayer
62
256
370
-1
100
AcDbCircle
10
169.205404579
20
5.77730802879
40
0.580188172706
100
AcDbArc
50
150.0001
51
211.096027855
0
LINE
5
1A1
100
AcDbEntity
8
2
6
ByLayer
62
256
370
-1
100
AcDbLine
10
170.088330498
20
3.12710276543
11
168.708587769
21
5.47765594268
0
ARC
5
1A2
100
AcDbEntity
8
2
6
ByLayer
62
256
370
-1
100
AcDbCircle
10
169.552293807
20
2.89812969735
40
0.582892786008
100
AcDbArc
50
335.71069314
51
23.1302023572
0
LINE
5
1A3
100
AcDbEntity
8
2
6
ByLayer
62
256
370
-1
100
AcDbLine
10
167.358779209
20
-2.07400154877
11
170.08358896
21
2.65836009808
0
ARC
5
1A4
100
AcDbEntity
8
2
6
ByLayer
62
256
370
-1
100
AcDbCircle
10
166.881120054
20
-1.79125971889
40
0.555068654078
100
AcDbArc
50
208.242302395
51
329.377344309
0
LINE
5
1A5
100
AcDbEntity
8
2
6
ByLayer
62
256
370
-1
100
AcDbLine
10
165.360033356
20
-0.268046760566
11
166.392129925
21
-2.05391893676
0
ARC
5
1A6
100
AcDbEntity
8
2
6
ByLayer
62
256
370
-1
100
AcDbCircle
10
164.870850836
20
-0.569251807913
40
0.574477169868
100
AcDbArc
50
31.6219124378
51
88.973471588
0
LINE
5
1A7
100
AcDbEntity
8
2
6
ByLayer
62
256
370
-1
100
AcDbLine
10
162.823339083
20
0.00361085423506
11
164.881142791
21
0.00513316260827
0
ARC
5
1A8
100
AcDbEntity
8
2
6
ByLayer
62
256
370
-1
100
AcDbCircle
10
162.806313574
20
-0.551196628335
40
0.555068654022
100
AcDbArc
50
88.242302394
51
209.466545614
0
LINE
5
1A9
100
AcDbEntity
8
2
6
ByLayer
62
256
370
-1
100
AcDbLine
10
162.323046898
20
-0.824243383428
11
165.055787403
21
-5.55004159128
0
ARC
5
1AA
100
AcDbEntity
8
2
6
ByLayer
62
256
370
-1
100
AcDbCircle
10
165.529081543
20
-5.20981129175
40
0.582892786048
100
AcDbArc
50
215.710693143
51
263.13020236
0
LINE
5
1AB
100
AcDbEntity
8
2
6
ByLayer
62
256
370
-1
100
AcDbLine
10
165.459359691
20
-5.78851921758
11
168.180279607
21
-5.76095310132
0
LINE
5
1AC
100
AcDbEntity
8
1
6
ByLayer
62
256
370
-1
100
AcDbLine
10
168.28158616
20
-15.7604399373
11
168.078973054
21
4.23853373463
0
ARC
5
1AD
100
AcDbEntity
8
2
6
ByLayer
62
256
370
-1
100
AcDbCircle
10
168.186936934
20
-6.34889921868
40
0.587983806685
100
AcDbArc
50
29.5528058271
51
90.6487336654
0
LINE
5
1AE
100
AcDbEntity
8
1
6
ByLayer
62
256
370
-1
100
AcDbLine
10
200
20
0
11
168.702946376
21
6.06740123819
0
LINE
5
1AF
100
AcDbEntity
8
1
6
ByLayer
62
256
370
-1
100
AcDbLine
10
200
20
0
11
179.096949581
21
-24.0703428829
0
LINE
5
1B0
100
AcDbEntity
8
1
6
ByLayer
62
256
370
-1
100
AcDbLine
10
170.436579396
20
-29.0701417059
11
187.757319765
21
-19.0705440598
0
LINE
5
1B1
100
AcDbEntity
8
2
6
ByLayer
62
256
370
-1
100
AcDbLine
10
173.897695993
20
-15.0646318859
11
179.096949581
21
-24.0703428829
0
LINE
5
1B2
100
AcDbEntity
8
2
6
ByLayer
62
256
370
-1
100
AcDbLine
10
168.698424924
20
-6.05889061069
11
173.897695993
21
-15.0646318859
0
ARC
5
1B3
100
AcDbEntity
8
2
6
ByLayer
62
256
370
-1
100
AcDbCircle
10
179.599406771
20
-23.7802479195
40
0.580188172706
100
AcDbArc
50
210.0001
51
271.096027855
0
LINE
5
1B4
100
AcDbEntity
8
2
6
ByLayer
62
256
370
-1
100
AcDbLine
10
182.336014814
20
-24.3407142756
11
179.610504685
21
-24.360329941
0
ARC
5
1B5
100
AcDbEntity
8
2
6
ByLayer
62
256
370
-1
100
AcDbCircle
10
182.266292962
20
-24.9194222014
40
0.582892786008
100
AcDbArc
50
35.71069314
51
83.1302023572
0
LINE
5
1B6
100
AcDbEntity
8
2
6
ByLayer
62
256
370
-1
100
AcDbLine
10
185.475527633
20
-29.3051271899
11
182.739587103
21
-24.5791919017
0
ARC
5
1B7
100
AcDbEntity
8
2
6
ByLayer
62
256
370
-1
100
AcDbCircle
10
184.991836448
20
-29.5774212376
40
0.555068654078
100
AcDbArc
50
268.242302395
51
29.377344309
0
LINE
5
1B8
100
AcDbEntity
8
2
6
ByLayer
62
256
370
-1
100
AcDbLine
10
182.912151982
20
-30.1331144802
11
184.974810939
21
-30.1322287204
0
ARC
5
1B9
100
AcDbEntity
8
2
6
ByLayer
62
256
370
-1
100
AcDbCircle
10
182.928411945
20
-30.7073614933
40
0.574477169868
100
AcDbArc
50
91.6219124378
51
148.973471588
0
LINE
5
1BA
100
AcDbEntity
8
2
6
ByLayer
62
256
370
-1
100
AcDbLine
10
181.40854245
20
-32.1941273549
11
182.436125946
21
-30.4112559136
0
ARC
5
1BB
100
AcDbEntity
8
2
6
ByLayer
62
256
370
-1
100
AcDbCircle
10
181.88050707
20
-32.4862756195
40
0.555068654022
100
AcDbArc
50
148.242302394
51
269.466545614
0
LINE
5
1BC
100
AcDbEntity
8
2
6
ByLayer
62
256
370
-1
100
AcDbLine
10
181.875339158
20
-33.0413202152
11
187.334370712
21
-33.0375966199
0
ARC
5
1BD
100
AcDbEntity
8
2
6
ByLayer
62
256
370
-1
100
AcDbCircle
10
187.276369699
20
-32.4575967214
40
0.582892786048
100
AcDbArc
50
275.710693143
51
323.13020236
0
LINE
5
1BE
100
AcDbEntity
8
2
6
ByLayer
62
256
370
-1
100
AcDbLine
10
187.742684538
20
-32.8073315794
11
189.079271539
21
-30.4371627523
0
ARC
5
1BF
100
AcDbEntity
8
2
6
ByLayer
62
256
370
-1
100
AcDbCircle
10
189.591776476
20
-30.7253703967
40
0.587983806685
100
AcDbArc
50
89.5528058271
51
150.648733665
0
LINE
5
1C0
100
AcDbEntity
8
2
6
ByLayer
62
256
370
-1
100
AcDbLine
10
199.995201908
20
-30.1375743106
11
210.394003205
21
-30.1377441211
0
LINE
5
1C1
100
AcDbEntity
8
2
6
ByLayer
62
256
370
-1
100
AcDbLine
10
189.59636565
20
-30.1374044996
11
199.995201908
21
-30.1375743106
0
ARC
5
1C2
100
AcDbEntity
8
2
6
ByLayer
62
256
370
-1
100
AcDbCircle
10
210.394002192
20
-29.5575559482
40
0.580188172706
100
AcDbArc
50
270.0001
51
331.096027855
0
LINE
5
1C3
100
AcDbEntity
8
2
6
ByLayer
62
256
370
-1
100
AcDbLine
10
212.247684316
20
-27.4678170411
11
210.901916916
21
-29.8379858837
0
ARC
5
1C4
100
AcDbEntity
8
2
6
ByLayer
62
256
370
-1
100
AcDbCircle
10
212.713999155
20
-27.8175518988
40
0.582892786008
100
AcDbArc
50
95.71069314
51
143.130202357
0
LINE
5
1C5
100
AcDbEntity
8
2
6
ByLayer
62
256
370
-1
100
AcDbLine
10
218.116748424
20
-27.2311256412
11
212.655998143
21
-27.2375519997
0
ARC
5
1C6
100
AcDbEntity
8
2
6
ByLayer
62
256
370
-1
100
AcDbCircle
10
218.110716394
20
-27.7861615187
40
0.555068654078
100
AcDbArc
50
328.242302395
51
89.377344309
0
LINE
5
1C7
100
AcDbEntity
8
2
6
ByLayer
62
256
370
-1
100
AcDbLine
10
217.552118626
20
-29.8650677197
11
218.582681014
21
-28.0783097837
0
ARC
5
1C8
100
AcDbEntity
8
2
6
ByLayer
62
256
370
-1
100
AcDbCircle
10
218.057561109
20
-30.1381096854
40
0.574477169868
100
AcDbArc
50
151.621912438
51
208.973471588
0
LINE
5
1C9
100
AcDbEntity
8
2
6
ByLayer
62
256
370
-1
100
AcDbLine
10
218.585203367
20
-32.1977382091
11
217.554983155
21
-30.4163890762
0
ARC
5
1CA
100
AcDbEntity
8
2
6
ByLayer
62
256
370
-1
100
AcDbCircle
10
219.074193496
20
-31.9350789911
40
0.555068654022
100
AcDbArc
50
208.242302394
51
329.466545614
0
LINE
5
1CB
100
AcDbEntity
8
2
6
ByLayer
62
256
370
-1
100
AcDbLine
10
219.55229226
20
-32.2170768318
11
222.278583309
21
-27.4875550286
0
ARC
5
1CC
100
AcDbEntity
8
2
6
ByLayer
62
256
370
-1
100
AcDbCircle
10
221.747288156
20
-27.2477854297
40
0.582892786048
100
AcDbArc
50
335.710693143
51
23.13020236
0
LINE
5
1CD
100
AcDbEntity
8
2
6
ByLayer
62
256
370
-1
100
AcDbLine
10
222.283324847
20
-27.0188123618
11
220.898991932
21
-24.676209651
0
ARC
5
1CE
100
AcDbEntity
8
2
6
ByLayer
62
256
370
-1
100
AcDbCircle
10
221.404839542
20
-24.376471178
40
0.587983806685
100
AcDbArc
50
149.552805827
51
210.648733665
0
LINE
5
1CF
100
AcDbEntity
8
2
6
ByLayer
62
256
370
-1
100
AcDbLine
10
226.097505916
20
-15.0729424248
11
231.297053624
21
-6.06740123819
0
LINE
5
1D0
100
AcDbEntity
8
2
6
ByLayer
62
256
370
-1
100
AcDbLine
10
220.897940726
20
-24.0785138889
11
226.097505916
21
-15.0729424248
0
ARC
5
1D1
100
AcDbEntity
8
2
6
ByLayer
62
256
370
-1
100
AcDbCircle
10
230.794595421
20
-5.77730802879
40
0.580188172706
100
AcDbArc
50
330.0001
51
31.096027855
0
LINE
5
1D2
100
AcDbEntity
8
2
6
ByLayer
62
256
370
-1
100
AcDbLine
10
229.911669502
20
-3.12710276543
11
231.291412231
21
-5.47765594268
0
ARC
5
1D3
100
AcDbEntity
8
2
6
ByLayer
62
256
370
-1
100
AcDbCircle
10
230.447706193
20
-2.89812969735
40
0.582892786008
100
AcDbArc
50
155.71069314
51
203.130202357
0
LINE
5
1D4
100
AcDbEntity
8
2
6
ByLayer
62
256
370
-1
100
AcDbLine
10
232.641220791
20
2.07400154877
11
229.91641104
21
-2.65836009808
0
ARC
5
1D5
100
AcDbEntity
8
2
6
ByLayer
62
256
370
-1
100
AcDbCircle
10
233.118879946
20
1.79125971889
40
0.555068654078
100
AcDbArc
50
28.242302395
51
149.377344309
0
LINE
5
1D6
100
AcDbEntity
8
2
6
ByLayer
62
256
370
-1
100
AcDbLine
10
234.639966644
20
0.268046760566
11
233.607870075
21
2.05391893676
0
ARC
5
1D7
100
AcDbEntity
8
2
6
ByLayer
62
256
370
-1
100
AcDbCircle
10
235.129149164
20
0.569251807913
40
0.574477169868
100
AcDbArc
50
211.621912438
51
268.973471588
0
LINE
5
1D8
100
AcDbEntity
8
2
6
ByLayer
62
256
370
-1
100
AcDbLine
10
237.176660917
20
-0.00361085423506
11
235.118857209
21
-0.00513316260827
0
ARC
5
1D9
100
AcDbEntity
8
2
6
ByLayer
62
256
370
-1
100
AcDbCircle
10
237.193686426
20
0.551196628335
40
0.555068654022
100
AcDbArc
50
268.242302394
51
29.466545614
0
LINE
5
1DA
100
AcDbEntity
8
2
6
ByLayer
62
256
370
-1
100
AcDbLine
10
237.676953102
20
0.824243383428
11
234.944212597
21
5.55004159128
0
ARC
5
1DB
100
AcDbEntity
8
2
6
ByLayer
62
256
370
-1
100
AcDbCircle
10
234.470918457
20
5.20981129175
40
0.582892786048
100
AcDbArc
50
35.710693143
51
83.13020236
0
LINE
5
1DC
100
AcDbEntity
8
2
6
ByLayer
62
256
370
-1
100
AcDbLine
10
234.540640309
20
5.78851921758
11
231.819720393
21
5.76095310132
0
ARC
5
1DD
100
AcDbEntity
8
2
6
ByLayer
62
256
370
-1
100
AcDbCircle
10
231.813063066
20
6.34889921868
40
0.587983806685
100
AcDbArc
50
209.552805827
51
270.648733665
0
LINE
5
1DE
100
AcDbEntity
8
2
6
ByLayer
62
256
370
-1
100
AcDbLine
10
226.102304007
20
15.0646318859
11
220.903050419
21
24.0703428829
0
LINE
5
1DF
100
AcDbEntity
8
2
6
ByLayer
62
256
370
-1
100
AcDbLine
10
231.301575076
20
6.05889061069
11
226.102304007
21
15.0646318859
0
ARC
5
1E0
100
AcDbEntity
8
2
6
ByLayer
62
256
370
-1
100
AcDbCircle
10
220.400593229
20
23.7802479195
40
0.580188172706
100
AcDbArc
50
30.0001
51
91.096027855
0
LINE
5
1E1
100
AcDbEntity
8
2
6
ByLayer
62
256
370
-1
100
AcDbLine
10
217.663985186
20
24.3407142756
11
220.389495315
21
24.360329941
0
ARC
5
1E2
100
AcDbEntity
8
2
6
ByLayer
62
256
370
-1
100
AcDbCircle
10
217.733707038
20
24.9194222014
40
0.582892786008
100
AcDbArc
50
215.71069314
51
263.130202357
0
LINE
5
1E3
100
AcDbEntity
8
2
6
ByLayer
62
256
370
-1
100
AcDbLine
10
214.524472367
20
29.3051271899
11
217.260412897
21
24.5791919017
0
ARC
5
1E4
100
AcDbEntity
8
2
6
ByLayer
62
256
370
-1
100
AcDbCircle
10
215.008163552
20
29.5774212376
40
0.555068654078
100
AcDbArc
50
88.242302395
51
209.377344309
0
LINE
5
1E5
100
AcDbEntity
8
2
6
ByLayer
62
256
370
-1
100
AcDbLine
10
217.087848018
20
30.1331144802
11
215.025189061
21
30.1322287204
0
ARC
5
1E6
100
AcDbEntity
8
2
6
ByLayer
62
256
370
-1
100
AcDbCircle
10
217.071588055
20
30.7073614933
40
0.574477169868
100
AcDbArc
50
271.621912438
51
328.973471588
0
LINE
5
1E7
100
AcDbEntity
8
2
6
ByLayer
62
256
370
-1
100
AcDbLine
10
218.59145755
20
32.1941273549
11
217.563874054
21
30.4112559136
0
ARC
5
1E8
100
AcDbEntity
8
2
6
ByLayer
62
256
370
-1
100
AcDbCircle
10
218.11949293
20
32.4862756195
40
0.555068654022
100
AcDbArc
50
328.242302394
51
89.466545614
0
LINE
5
1E9
100
AcDbEntity
8
2
6
ByLayer
62
256
370
-1
100
AcDbLine
10
218.124660842
20
33.0413202152
11
212.665629288
21
33.0375966199
0
ARC
5
1EA
100
AcDbEntity
8
2
6
ByLayer
62
256
370
-1
100
AcDbCircle
10
212.723630301
20
32.4575967214
40
0.582892786048
100
AcDbArc
50
95.710693143
51
143.13020236
0
LINE
5
1EB
100
AcDbEntity
8
2
6
ByLayer
62
256
370
-1
100
AcDbLine
10
212.257315462
20
32.8073315794
11
210.920728461
21
30.4371627523
0
ARC
5
1EC
100
AcDbEntity
8
2
6
ByLayer
62
256
370
-1
100
AcDbCircle
10
210.408223524
20
30.7253703967
40
0.587983806685
100
AcDbArc
50
269.552805827
51
330.648733665
0
LINE
5
1ED
100
AcDbEntity
8
2
6
ByLayer
62
256
370
-1
100
AcDbLine
10
200.004798092
20
30.1375743106
11
189.605996795
21
30.1377441211
0
LINE
5
1EE
100
AcDbEntity
8
2
6
ByLayer
62
256
370
-1
100
AcDbLine
10
210.40363435
20
30.1374044996
11
200.004798092
21
30.1375743106
0
ARC
5
1EF
100
AcDbEntity
8
2
6
ByLayer
62
256
370
-1
100
AcDbCircle
10
189.605997808
20
29.5575559482
40
0.580188172706
100
AcDbArc
50
90.0001
51
151.096027855
0
LINE
5
1F0
100
AcDbEntity
8
2
6
ByLayer
62
256
370
-1
100
AcDbLine
10
187.752315684
20
27.4678170411
11
189.098083084
21
29.8379858837
0
ARC
5
1F1
100
AcDbEntity
8
2
6
ByLayer
62
256
370
-1
100
AcDbCircle
10
187.286000845
20
27.8175518988
40
0.582892786008
100
AcDbArc
50
275.71069314
51
323.130202357
0
LINE
5
1F2
100
AcDbEntity
8
2
6
ByLayer
62
256
370
-1
100
AcDbLine
10
181.883251576
20
27.2311256412
11
187.344001857
21
27.2375519997
0
ARC
5
1F3
100
AcDbEntity
8
2
6
ByLayer
62
256
370
-1
100
AcDbCircle
10
181.889283606
20
27.7861615187
40
0.555068654078
100
AcDbArc
50
148.242302395
51
269.377344309
0
LINE
5
1F4
100
AcDbEntity
8
2
6
ByLayer
62
256
370
-1
100
AcDbLine
10
182.447881374
20
29.8650677197
11
181.417318986
21
28.0783097837
0
ARC
5
1F5
100
AcDbEntity
8
2
6
ByLayer
62
256
370
-1
100
AcDbCircle
10
181.942438891
20
30.1381096854
40
0.574477169868
100
AcDbArc
50
331.621912438
51
28.973471588
0
LINE
5
1F6
100
AcDbEntity
8
2
6
ByLayer
62
256
370
-1
100
AcDbLine
10
181.414796633
20
32.1977382091
11
182.445016845
21
30.4163890762
0
ARC
5
1F7
100
AcDbEntity
8
2
6
ByLayer
62
256
370
-1
100
AcDbCircle
10
180.925806504
20
31.9350789911
40
0.555068654022
100
AcDbArc
50
28.242302394
51
149.466545614
0
LINE
5
1F8
100
AcDbEntity
8
2
6
ByLayer
62
256
370
-1
100
AcDbLine
10
180.44770774
20
32.2170768318
11
177.721416691
21
27.4875550286
0
ARC
5
1F9
100
AcDbEntity
8
2
6
ByLayer
62
256
370
-1
100
AcDbCircle
10
178.252711844
20
27.2477854297
40
0.582892786048
100
AcDbArc
50
155.710693143
51
203.13020236
0
LINE
5
1FA
100
AcDbEntity
8
2
6
ByLayer
62
256
370
-1
100
AcDbLine
10
177.716675153
20
27.0188123618
11
179.101008068
21
24.676209651
0
ARC
5
1FB
100
AcDbEntity
8
2
6
ByLayer
62
256
370
-1
100
AcDbCircle
10
178.595160458
20
24.376471178
40
0.587983806685
100
AcDbArc
50
329.552805827
51
30.6487336654
0
LINE
5
1FC
100
AcDbEntity
8
2
6
ByLayer
62
256
370
-1
100
AcDbLine
10
173.902494084
20
15.0729424248
11
168.702946376
21
6.06740123819
0
LINE
5
1FD
100
AcDbEntity
8
2
6
ByLayer
62
256
370
-1
100
AcDbLine
10
179.102059274
20
24.0785138889
11
173.902494084
21
15.0729424248
0
ENDSEC
0
SECTION
2
OBJECTS
0
DICTIONARY
5
C
330
0
100
AcDbDictionary
281
1
3
ACAD_GROUP
350
D
0
DICTIONARY
5
D
330
C
100
AcDbDictionary
281
1
0
ENDSEC
0
EOF
