999
dxfrw 0.6.3
  0
SECTION
  2
HEADER
  9
$ACADVER
  1
AC1021
  9
$DWGCODEPAGE
  3
ANSI_1252
  9
$INSBASE
 10
0
 20
0
 30
0
  9
$EXTMIN
 10
0
 20
0
 30
0
  9
$EXTMAX
 10
318.7191392654455
 20
421.1289318930321
 30
0
  9
$LIMMIN
 10
0
 20
0
  9
$LIMMAX
 10
420
 20
297
  9
$ORTHOMODE
 70
    0
  9
$REGENMODE
 70
    1
  9
$FILLMODE
 70
    1
  9
$QTEXTMODE
 70
    0
  9
$MIRRTEXT
 70
    0
  9
$LTSCALE
 40
1
  9
$ATTMODE
 70
    0
  9
$TEXTSIZE
 40
2.5
  9
$TRACEWID
 40
15.68
  9
$TEXTSTYLE
  7
STANDARD
  9
$CLAYER
  8
0
  9
$CELTYPE
  6
BYLAYER
  9
$CECOLOR
 62
  256
  9
$CELTSCALE
 40
1
  9
$DISPSILH
 70
    0
  9
$DIMSCALE
 40
2.5
  9
$DIMASZ
 40
2.5
  9
$DIMEXO
 40
0.625
  9
$DIMDLI
 40
3.75
  9
$DIMRND
 40
0
  9
$DIMDLE
 40
0
  9
$DIMEXE
 40
1.25
  9
$DIMTP
 40
0
  9
$DIMTM
 40
0
  9
$DIMTXT
 40
2.5
  9
$DIMCEN
 40
2.5
  9
$DIMTSZ
 40
0
  9
$DIMTOL
 70
    0
  9
$DIMLIM
 70
    0
  9
$DIMTIH
 70
    0
  9
$DIMTOH
 70
    0
  9
$DIMSE1
 70
    0
  9
$DIMSE2
 70
    0
  9
$DIMTAD
 70
    1
  9
$DIMZIN
 70
    8
  9
$DIMBLK
  1

  9
$DIMASO
 70
    1
  9
$DIMSHO
 70
    1
  9
$DIMPOST
  1

  9
$DIMAPOST
  1

  9
$DIMALT
 70
    0
  9
$DIMALTD
 70
    3
  9
$DIMALTF
 40
0.03937
  9
$DIMLFAC
 40
1
  9
$DIMTOFL
 70
    1
  9
$DIMTVP
 40
0
  9
$DIMTIX
 70
    0
  9
$DIMSOXD
 70
    0
  9
$DIMSAH
 70
    0
  9
$DIMBLK1
  1

  9
$DIMBLK2
  1

  9
$DIMSTYLE
  2
Standard
  9
$DIMCLRD
 70
    0
  9
$DIMCLRE
 70
    0
  9
$DIMCLRT
 70
    0
  9
$DIMTFAC
 40
1
  9
$DIMGAP
 40
0.625
  9
$DIMJUST
 70
    0
  9
$DIMSD1
 70
    0
  9
$DIMSD2
 70
    0
  9
$DIMTOLJ
 70
    0
  9
$DIMTZIN
 70
    8
  9
$DIMALTZ
 70
    0
  9
$DIMALTTZ
 70
    0
  9
$DIMUPT
 70
    0
  9
$DIMDEC
 70
    2
  9
$DIMTDEC
 70
    2
  9
$DIMALTU
 70
    2
  9
$DIMALTTD
 70
    3
  9
$DIMTXSTY
  7
STANDARD
  9
$DIMAUNIT
 70
    0
  9
$DIMADEC
 70
    0
  9
$DIMALTRND
 40
0
  9
$DIMAZIN
 70
    0
  9
$DIMDSEP
 70
   44
  9
$DIMATFIT
 70
    3
  9
$DIMFRAC
 70
    0
  9
$DIMLDRBLK
  1
STANDARD
  9
$DIMLUNIT
 70
    2
  9
$DIMLWD
 70
   -2
  9
$DIMLWE
 70
   -2
  9
$DIMTMOVE
 70
    0
  9
$DIMFXL
 40
1
  9
$DIMFXLON
 70
    0
  9
$DIMJOGANG
 40
0.7854
  9
$DIMTFILL
 70
    0
  9
$DIMTFILLCLR
 70
    0
  9
$DIMARCSYM
 70
    0
  9
$DIMLTYPE
  6

  9
$DIMLTEX1
  6

  9
$DIMLTEX2
  6

  9
$LUNITS
 70
    2
  9
$LUPREC
 70
    4
  9
$SKETCHINC
 40
1
  9
$FILLETRAD
 40
0
  9
$AUNITS
 70
    0
  9
$AUPREC
 70
    2
  9
$MENU
  1
.
  9
$ELEVATION
 40
0
  9
$PELEVATION
 40
0
  9
$THICKNESS
 40
0
  9
$LIMCHECK
 70
    0
  9
$CHAMFERA
 40
0
  9
$CHAMFERB
 40
0
  9
$CHAMFERC
 40
0
  9
$CHAMFERD
 40
0
  9
$SKPOLY
 70
    0
  9
$USRTIMER
 70
    1
  9
$ANGBASE
 50
0
  9
$ANGDIR
 70
    0
  9
$PDMODE
 70
   34
  9
$PDSIZE
 40
0
  9
$PLINEWID
 40
0
  9
$SPLFRAME
 70
    0
  9
$SPLINETYPE
 70
    2
  9
$SPLINESEGS
 70
    8
  9
$HANDSEED
  5
20000
  9
$SURFTAB1
 70
    6
  9
$SURFTAB2
 70
    6
  9
$SURFTYPE
 70
    6
  9
$SURFU
 70
    6
  9
$SURFV
 70
    6
  9
$UCSBASE
  2

  9
$UCSNAME
  2

  9
$UCSORG
 10
0
 20
0
 30
0
  9
$UCSXDIR
 10
1
 20
0
 30
0
  9
$UCSYDIR
 10
0
 20
1
 30
0
  9
$UCSORTHOREF
  2

  9
$UCSORTHOVIEW
 70
    0
  9
$UCSORGTOP
 10
0
 20
0
 30
0
  9
$UCSORGBOTTOM
 10
0
 20
0
 30
0
  9
$UCSORGLEFT
 10
0
 20
0
 30
0
  9
$UCSORGRIGHT
 10
0
 20
0
 30
0
  9
$UCSORGFRONT
 10
0
 20
0
 30
0
  9
$UCSORGBACK
 10
0
 20
0
 30
0
  9
$PUCSBASE
  2

  9
$PUCSNAME
  2

  9
$PUCSORG
 10
0
 20
0
 30
0
  9
$PUCSXDIR
 10
1
 20
0
 30
0
  9
$PUCSYDIR
 10
0
 20
1
 30
0
  9
$PUCSORTHOREF
  2

  9
$PUCSORTHOVIEW
 70
    0
  9
$PUCSORGTOP
 10
0
 20
0
 30
0
  9
$PUCSORGBOTTOM
 10
0
 20
0
 30
0
  9
$PUCSORGLEFT
 10
0
 20
0
 30
0
  9
$PUCSORGRIGHT
 10
0
 20
0
 30
0
  9
$PUCSORGFRONT
 10
0
 20
0
 30
0
  9
$PUCSORGBACK
 10
0
 20
0
 30
0
  9
$USERI1
 70
    0
  9
$USERI2
 70
    0
  9
$USERI3
 70
    0
  9
$USERI4
 70
    0
  9
$USERI5
 70
    0
  9
$USERR1
 40
0
  9
$USERR2
 40
0
  9
$USERR3
 40
0
  9
$USERR4
 40
0
  9
$USERR5
 40
0
  9
$WORLDVIEW
 70
    1
  9
$SHADEDGE
 70
    3
  9
$SHADEDIF
 70
   70
  9
$TILEMODE
 70
    1
  9
$MAXACTVP
 70
   64
  9
$PINSBASE
 10
12.49999974052844
 20
-269.6924000566909
 30
0
  9
$PLIMCHECK
 70
    0
  9
$PEXTMIN
 10
0
 20
0
 30
0
  9
$PEXTMAX
 10
0
 20
0
 30
0
  9
$GRIDMODE
 70
    1
  9
$SNAPSTYLE
 70
    0
  9
$PLIMMIN
 10
0
 20
0
  9
$PLIMMAX
 10
297
 20
210
  9
$UNITMODE
 70
    0
  9
$VISRETAIN
 70
    1
  9
$PLINEGEN
 70
    0
  9
$PSLTSCALE
 70
    1
  9
$TREEDEPTH
 70
 3020
  9
$CMLSTYLE
  2
Standard
  9
$CMLJUST
 70
    0
  9
$CMLSCALE
 40
20
  9
$PROXYGRAPHICS
 70
    1
  9
$MEASUREMENT
 70
    1
  9
$CELWEIGHT
370
   -1
  9
$ENDCAPS
280
    0
  9
$JOINSTYLE
280
    0
  9
$LWDISPLAY
290
    0
  9
$INSUNITS
 70
    4
  9
$HYPERLINKBASE
  1

  9
$STYLESHEET
  1

  9
$XEDIT
290
    1
  9
$CEPSNTYPE
380
    0
  9
$PSTYLEMODE
290
    1
  9
$EXTNAMES
290
    1
  9
$PSVPSCALE
 40
0.4101924623033127
  9
$OLESTARTUP
290
    0
  9
$SORTENTS
280
  127
  9
$INDEXCTL
280
    0
  9
$HIDETEXT
280
    1
  9
$XCLIPFRAME
290
    0
  9
$HALOGAP
280
    0
  9
$OBSCOLOR
 70
  257
  9
$OBSLTYPE
280
    0
  9
$INTERSECTIONDISPLAY
280
    0
  9
$INTERSECTIONCOLOR
 70
  257
  9
$DIMASSOC
280
    1
  9
$PROJECTNAME
  1

  9
$CAMERADISPLAY
290
    0
  9
$LENSLENGTH
 40
50
  9
$CAMERAHEIGHT
 40
0
  9
$STEPSPERSEC
 40
2
  9
$STEPSIZE
 40
50
  9
$3DDWFPREC
 40
2
  9
$PSOLWIDTH
 40
5
  9
$PSOLHEIGHT
 40
80
  9
$LOFTANG1
 40
1.570796326794897
  9
$LOFTANG2
 40
1.570796326794897
  9
$LOFTMAG1
 40
0
  9
$LOFTMAG2
 40
0
  9
$LOFTPARAM
 70
    7
  9
$LOFTNORMALS
280
    1
  9
$LATITUDE
 40
1
  9
$LONGITUDE
 40
1
  9
$NORTHDIRECTION
 40
0
  9
$TIMEZONE
 70
-8000
  9
$LIGHTGLYPHDISPLAY
280
    1
  9
$TILEMODELIGHTSYNCH
280
    1
  9
$SOLIDHIST
280
    1
  9
$SHOWHIST
280
    1
  9
$DWFFRAME
280
    2
  9
$DGNFRAME
280
    0
  9
$REALWORLDSCALE
290
    1
  9
$INTERFERECOLOR
 62
    1
  9
$CSHADOW
280
    0
  9
$SHADOWPLANELOCATION
 40
0
  0
ENDSEC
  0
SECTION
  2
CLASSES
  0
ENDSEC
  0
SECTION
  2
TABLES
  0
TABLE
  2
VPORT
  5
8
330
0
100
AcDbSymbolTable
 70
    1
  0
VPORT
  5
31
330
2
100
AcDbSymbolTableRecord
100
AcDbViewportTableRecord
  2
*ACTIVE
 70
    0
 10
0
 20
0
 11
1
 21
1
 12
87.17928453288702
 22
228.386529214204
 13
0
 23
0
 14
10
 24
10
 15
10
 25
10
 16
0
 26
0
 36
1
 17
0
 27
0
 37
0
 40
154.6417463997996
 41
1.92875
 42
50
 43
0
 44
0
 50
0
 51
0
 71
    0
 72
  100
 73
    1
 74
    3
 75
    0
 76
    1
 77
    0
 78
    0
281
    0
 65
    1
110
0
120
0
130
0
111
1
121
0
131
0
112
0
122
1
132
0
 79
    0
146
0
348
10020
 60
    7
 61
    5
292
1
282
    1
141
0
142
0
 63
  250
421
3358443
  0
ENDTAB
  0
TABLE
  2
LTYPE
  5
5
330
0
100
AcDbSymbolTable
 70
    4
  0
LTYPE
  5
14
330
5
100
AcDbSymbolTableRecord
100
AcDbLinetypeTableRecord
  2
ByBlock
 70
    0
  3

 72
   65
 73
    0
 40
0
  0
LTYPE
  5
15
330
5
100
AcDbSymbolTableRecord
100
AcDbLinetypeTableRecord
  2
ByLayer
 70
    0
  3

 72
   65
 73
    0
 40
0
  0
LTYPE
  5
16
330
5
100
AcDbSymbolTableRecord
100
AcDbLinetypeTableRecord
  2
Continuous
 70
    0
  3
Solid line
 72
   65
 73
    0
 40
0
  0
LTYPE
  5
32
330
5
100
AcDbSymbolTableRecord
100
AcDbLinetypeTableRecord
  2
DOT
 70
    0
  3
Dot . . . . . . . . . . . . . . . . . . . . . .
 72
   65
 73
    2
 40
6.35
 49
0
 74
    0
 49
-6.35
 74
    0
  0
LTYPE
  5
33
330
5
100
AcDbSymbolTableRecord
100
AcDbLinetypeTableRecord
  2
DOTTINY
 70
    0
  3
Dot (.15x) .....................................
 72
   65
 73
    2
 40
0.9525
 49
0
 74
    0
 49
-0.9525
 74
    0
  0
LTYPE
  5
34
330
5
100
AcDbSymbolTableRecord
100
AcDbLinetypeTableRecord
  2
DOT2
 70
    0
  3
Dot (.5x) .....................................
 72
   65
 73
    2
 40
3.175
 49
0
 74
    0
 49
-3.175
 74
    0
  0
LTYPE
  5
35
330
5
100
AcDbSymbolTableRecord
100
AcDbLinetypeTableRecord
  2
DOTX2
 70
    0
  3
Dot (2x) .  .  .  .  .  .  .  .  .  .  .  .  .
 72
   65
 73
    2
 40
12.7
 49
0
 74
    0
 49
-12.7
 74
    0
  0
LTYPE
  5
36
330
5
100
AcDbSymbolTableRecord
100
AcDbLinetypeTableRecord
  2
DASHED
 70
    0
  3
Dashed _ _ _ _ _ _ _ _ _ _ _ _ _ _ _ _ _
 72
   65
 73
    2
 40
19.05
 49
12.7
 74
    0
 49
-6.35
 74
    0
  0
LTYPE
  5
37
330
5
100
AcDbSymbolTableRecord
100
AcDbLinetypeTableRecord
  2
DASHEDTINY
 70
    0
  3
Dashed (.15x) _ _ _ _ _ _ _ _ _ _ _ _ _ _ _ _ _
 72
   65
 73
    2
 40
2.8575
 49
1.905
 74
    0
 49
-0.9525
 74
    0
  0
LTYPE
  5
38
330
5
100
AcDbSymbolTableRecord
100
AcDbLinetypeTableRecord
  2
DASHED2
 70
    0
  3
Dashed (.5x) _ _ _ _ _ _ _ _ _ _ _ _ _ _ _ _ _
 72
   65
 73
    2
 40
9.524999999999999
 49
6.35
 74
    0
 49
-3.175
 74
    0
  0
LTYPE
  5
39
330
5
100
AcDbSymbolTableRecord
100
AcDbLinetypeTableRecord
  2
DASHEDX2
 70
    0
  3
Dashed (2x) ____  ____  ____  ____  ____  ___
 72
   65
 73
    2
 40
38.09999999999999
 49
25.4
 74
    0
 49
-12.7
 74
    0
  0
LTYPE
  5
3A
330
5
100
AcDbSymbolTableRecord
100
AcDbLinetypeTableRecord
  2
DASHDOT
 70
    0
  3
Dash dot __ . __ . __ . __ . __ . __ . __ . __
 72
   65
 73
    4
 40
25.4
 49
12.7
 74
    0
 49
-6.35
 74
    0
 49
0
 74
    0
 49
-6.35
 74
    0
  0
LTYPE
  5
3B
330
5
100
AcDbSymbolTableRecord
100
AcDbLinetypeTableRecord
  2
DASHDOTTINY
 70
    0
  3
Dash dot (.15x) _._._._._._._._._._._._._._._.
 72
   65
 73
    4
 40
3.81
 49
1.905
 74
    0
 49
-0.9525
 74
    0
 49
0
 74
    0
 49
-0.9525
 74
    0
  0
LTYPE
  5
3C
330
5
100
AcDbSymbolTableRecord
100
AcDbLinetypeTableRecord
  2
DASHDOT2
 70
    0
  3
Dash dot (.5x) _._._._._._._._._._._._._._._.
 72
   65
 73
    4
 40
12.7
 49
6.35
 74
    0
 49
-3.175
 74
    0
 49
0
 74
    0
 49
-3.175
 74
    0
  0
LTYPE
  5
3D
330
5
100
AcDbSymbolTableRecord
100
AcDbLinetypeTableRecord
  2
DASHDOTX2
 70
    0
  3
Dash dot (2x) ____  .  ____  .  ____  .  ___
 72
   65
 73
    4
 40
50.8
 49
25.4
 74
    0
 49
-12.7
 74
    0
 49
0
 74
    0
 49
-12.7
 74
    0
  0
LTYPE
  5
3E
330
5
100
AcDbSymbolTableRecord
100
AcDbLinetypeTableRecord
  2
DIVIDE
 70
    0
  3
Divide ____ . . ____ . . ____ . . ____ . . ____
 72
   65
 73
    6
 40
31.75
 49
12.7
 74
    0
 49
-6.35
 74
    0
 49
0
 74
    0
 49
-6.35
 74
    0
 49
0
 74
    0
 49
-6.35
 74
    0
  0
LTYPE
  5
3F
330
5
100
AcDbSymbolTableRecord
100
AcDbLinetypeTableRecord
  2
DIVIDETINY
 70
    0
  3
Divide (.15x) __..__..__..__..__..__..__..__.._
 72
   65
 73
    6
 40
4.7625
 49
1.905
 74
    0
 49
-0.9525
 74
    0
 49
0
 74
    0
 49
-0.9525
 74
    0
 49
0
 74
    0
 49
-0.9525
 74
    0
  0
LTYPE
  5
40
330
5
100
AcDbSymbolTableRecord
100
AcDbLinetypeTableRecord
  2
DIVIDE2
 70
    0
  3
Divide (.5x) __..__..__..__..__..__..__..__.._
 72
   65
 73
    6
 40
15.875
 49
6.35
 74
    0
 49
-3.175
 74
    0
 49
0
 74
    0
 49
-3.175
 74
    0
 49
0
 74
    0
 49
-3.175
 74
    0
  0
LTYPE
  5
41
330
5
100
AcDbSymbolTableRecord
100
AcDbLinetypeTableRecord
  2
DIVIDEX2
 70
    0
  3
Divide (2x) ________  .  .  ________  .  .  _
 72
   65
 73
    6
 40
63.5
 49
25.4
 74
    0
 49
-12.7
 74
    0
 49
0
 74
    0
 49
-12.7
 74
    0
 49
0
 74
    0
 49
-12.7
 74
    0
  0
LTYPE
  5
42
330
5
100
AcDbSymbolTableRecord
100
AcDbLinetypeTableRecord
  2
BORDER
 70
    0
  3
Border __ __ . __ __ . __ __ . __ __ . __ __ .
 72
   65
 73
    6
 40
44.45
 49
12.7
 74
    0
 49
-6.35
 74
    0
 49
12.7
 74
    0
 49
-6.35
 74
    0
 49
0
 74
    0
 49
-6.35
 74
    0
  0
LTYPE
  5
43
330
5
100
AcDbSymbolTableRecord
100
AcDbLinetypeTableRecord
  2
BORDERTINY
 70
    0
  3
Border (.15x) __.__.__.__.__.__.__.__.__.__.__.
 72
   65
 73
    6
 40
6.6675
 49
1.905
 74
    0
 49
-0.9525
 74
    0
 49
1.905
 74
    0
 49
-0.9525
 74
    0
 49
0
 74
    0
 49
-0.9525
 74
    0
  0
LTYPE
  5
44
330
5
100
AcDbSymbolTableRecord
100
AcDbLinetypeTableRecord
  2
BORDER2
 70
    0
  3
Border (.5x) __.__.__.__.__.__.__.__.__.__.__.
 72
   65
 73
    6
 40
22.225
 49
6.35
 74
    0
 49
-3.175
 74
    0
 49
6.35
 74
    0
 49
-3.175
 74
    0
 49
0
 74
    0
 49
-3.175
 74
    0
  0
LTYPE
  5
45
330
5
100
AcDbSymbolTableRecord
100
AcDbLinetypeTableRecord
  2
BORDERX2
 70
    0
  3
Border (2x) ____  ____  .  ____  ____  .  ___
 72
   65
 73
    6
 40
88.89999999999999
 49
25.4
 74
    0
 49
-12.7
 74
    0
 49
25.4
 74
    0
 49
-12.7
 74
    0
 49
0
 74
    0
 49
-12.7
 74
    0
  0
LTYPE
  5
46
330
5
100
AcDbSymbolTableRecord
100
AcDbLinetypeTableRecord
  2
CENTER
 70
    0
  3
Center ____ _ ____ _ ____ _ ____ _ ____ _ ____
 72
   65
 73
    4
 40
50.8
 49
31.75
 74
    0
 49
-6.35
 74
    0
 49
6.35
 74
    0
 49
-6.35
 74
    0
  0
LTYPE
  5
47
330
5
100
AcDbSymbolTableRecord
100
AcDbLinetypeTableRecord
  2
CENTERTINY
 70
    0
  3
Center (.15x) ___ _ ___ _ ___ _ ___ _ ___ _ ___
 72
   65
 73
    4
 40
7.62
 49
4.7625
 74
    0
 49
-0.9525
 74
    0
 49
0.9525
 74
    0
 49
-0.9525
 74
    0
  0
LTYPE
  5
48
330
5
100
AcDbSymbolTableRecord
100
AcDbLinetypeTableRecord
  2
CENTER2
 70
    0
  3
Center (.5x) ___ _ ___ _ ___ _ ___ _ ___ _ ___
 72
   65
 73
    4
 40
28.575
 49
19.05
 74
    0
 49
-3.175
 74
    0
 49
3.175
 74
    0
 49
-3.175
 74
    0
  0
LTYPE
  5
49
330
5
100
AcDbSymbolTableRecord
100
AcDbLinetypeTableRecord
  2
CENTERX2
 70
    0
  3
Center (2x) ________  __  ________  __  _____
 72
   65
 73
    4
 40
101.6
 49
63.5
 74
    0
 49
-12.7
 74
    0
 49
12.7
 74
    0
 49
-12.7
 74
    0
  0
ENDTAB
  0
TABLE
  2
LAYER
  5
2
330
0
100
AcDbSymbolTable
 70
    1
  0
LAYER
  5
10
330
2
100
AcDbSymbolTableRecord
100
AcDbLayerTableRecord
  2
0
 70
    0
 62
    7
  6
CONTINUOUS
370
   -3
390
F
  0
LAYER
  5
4A
330
2
100
AcDbSymbolTableRecord
100
AcDbLayerTableRecord
  2
CONNECTOR
 70
    0
 62
    7
  6
CONTINUOUS
370
   -3
390
F
  0
LAYER
  5
4B
330
2
100
AcDbSymbolTableRecord
100
AcDbLayerTableRecord
  2
Tekst
 70
    0
 62
    3
  6
CONTINUOUS
370
   -3
390
F
  0
ENDTAB
  0
TABLE
  2
STYLE
  5
3
330
0
100
AcDbSymbolTable
 70
    3
  0
STYLE
  5
4C
330
2
100
AcDbSymbolTableRecord
100
AcDbTextStyleTableRecord
  2
fibrocit_100
 70
    0
 40
0
 41
1
 50
0
 71
    0
 42
1
  3
fibrocit_100
  4

  0
STYLE
  5
4D
330
2
100
AcDbSymbolTableRecord
100
AcDbTextStyleTableRecord
  2
standard
 70
    0
 40
0
 41
1
 50
0
 71
    0
 42
1
  3
standard
  4

  0
ENDTAB
  0
TABLE
  2
VIEW
  5
6
330
0
100
AcDbSymbolTable
 70
    0
  0
ENDTAB
  0
TABLE
  2
UCS
  5
7
330
0
100
AcDbSymbolTable
 70
    0
  0
ENDTAB
  0
TABLE
  2
APPID
  5
9
330
0
100
AcDbSymbolTable
 70
    1
  0
APPID
  5
12
330
9
100
AcDbSymbolTableRecord
100
AcDbRegAppTableRecord
  2
ACAD
 70
    0
  0
APPID
  5
4E
330
9
100
AcDbSymbolTableRecord
100
AcDbRegAppTableRecord
  2
LibreCad
 70
    0
  0
ENDTAB
  0
TABLE
  2
DIMSTYLE
  5
A
330
0
100
AcDbSymbolTable
 70
    1
100
AcDbDimStyleTable
 71
    1
  0
DIMSTYLE
105
4F
330
A
100
AcDbSymbolTableRecord
100
AcDbDimStyleTableRecord
  2
Standard
 70
    0
 40
2.5
 41
2.5
 42
0.625
 43
0.38
 44
1.25
 45
0
 46
0
 47
0
 48
0
 49
1
140
2.5
141
0.09
142
0
143
25.4
144
1
145
0
146
1
147
0.625
148
0
 71
    0
 72
    0
 73
    0
 74
    1
 75
    0
 76
    0
 77
    0
 78
    8
 79
    0
170
    0
171
    2
172
    0
173
    0
174
    0
175
    0
176
    0
177
    0
178
    0
179
    0
271
    2
272
    4
273
    2
274
    2
275
    0
276
    0
277
    2
278
   44
279
    0
280
    0
281
    0
282
    0
283
    1
284
    0
285
    0
286
    0
288
    0
289
    3
340
STANDARD
341

371
   -2
372
   -2
  0
ENDTAB
  0
TABLE
  2
BLOCK_RECORD
  5
1
330
0
100
AcDbSymbolTable
 70
    2
  0
BLOCK_RECORD
  5
1F
330
1
100
AcDbSymbolTableRecord
100
AcDbBlockTableRecord
  2
*Model_Space
 70
    0
280
    1
281
    0
  0
BLOCK_RECORD
  5
1E
330
1
100
AcDbSymbolTableRecord
100
AcDbBlockTableRecord
  2
*Paper_Space
 70
    0
280
    1
281
    0
  0
BLOCK_RECORD
  5
50
330
1
100
AcDbSymbolTableRecord
100
AcDbBlockTableRecord
  2
Gelijkstroom
 70
    0
280
    1
281
    0
  0
BLOCK_RECORD
  5
53
330
1
100
AcDbSymbolTableRecord
100
AcDbBlockTableRecord
  2
Wisselstroom
 70
    0
280
    1
281
    0
  0
BLOCK_RECORD
  5
56
330
1
100
AcDbSymbolTableRecord
100
AcDbBlockTableRecord
  2
EénfasigeWisselstroom
 70
    0
280
    1
281
    0
  0
BLOCK_RECORD
  5
59
330
1
100
AcDbSymbolTableRecord
100
AcDbBlockTableRecord
  2
DriefasigeWisselstroom
 70
    0
280
    1
281
    0
  0
BLOCK_RECORD
  5
5C
330
1
100
AcDbSymbolTableRecord
100
AcDbBlockTableRecord
  2
BordOfVerdeelkast
 70
    0
280
    1
281
    0
  0
BLOCK_RECORD
  5
5F
330
1
100
AcDbSymbolTableRecord
100
AcDbBlockTableRecord
  2
DoosOfInbouwdoos
 70
    0
280
    1
281
    0
  0
BLOCK_RECORD
  5
62
330
1
100
AcDbSymbolTableRecord
100
AcDbBlockTableRecord
  2
VerbindingsdoosAftakdoosAansluitdoos
 70
    0
280
    1
281
    0
  0
BLOCK_RECORD
  5
65
330
1
100
AcDbSymbolTableRecord
100
AcDbBlockTableRecord
  2
Aardingsstrip
 70
    0
280
    1
281
    0
  0
BLOCK_RECORD
  5
68
330
1
100
AcDbSymbolTableRecord
100
AcDbBlockTableRecord
  2
Aftakkast
 70
    0
280
    1
281
    0
  0
BLOCK_RECORD
  5
6B
330
1
100
AcDbSymbolTableRecord
100
AcDbBlockTableRecord
  2
OndergrondseLeiding
 70
    0
280
    1
281
    0
  0
BLOCK_RECORD
  5
6E
330
1
100
AcDbSymbolTableRecord
100
AcDbBlockTableRecord
  2
Luchtleiding
 70
    0
280
    1
281
    0
  0
BLOCK_RECORD
  5
71
330
1
100
AcDbSymbolTableRecord
100
AcDbBlockTableRecord
  2
LeidingInBuis
 70
    0
280
    1
281
    0
  0
BLOCK_RECORD
  5
74
330
1
100
AcDbSymbolTableRecord
100
AcDbBlockTableRecord
  2
LeidingInWand
 70
    0
280
    1
281
    0
  0
BLOCK_RECORD
  5
77
330
1
100
AcDbSymbolTableRecord
100
AcDbBlockTableRecord
  2
LeidingOpWand
 70
    0
280
    1
281
    0
  0
BLOCK_RECORD
  5
7A
330
1
100
AcDbSymbolTableRecord
100
AcDbBlockTableRecord
  2
LeidingInBuisInWand
 70
    0
280
    1
281
    0
  0
BLOCK_RECORD
  5
7D
330
1
100
AcDbSymbolTableRecord
100
AcDbBlockTableRecord
  2
TweeLeidingen
 70
    0
280
    1
281
    0
  0
BLOCK_RECORD
  5
80
330
1
100
AcDbSymbolTableRecord
100
AcDbBlockTableRecord
  2
nLeidingen
 70
    0
280
    1
281
    0
  0
BLOCK_RECORD
  5
83
330
1
100
AcDbSymbolTableRecord
100
AcDbBlockTableRecord
  2
LeidingMet3Geleiders
 70
    0
280
    1
281
    0
  0
BLOCK_RECORD
  5
86
330
1
100
AcDbSymbolTableRecord
100
AcDbBlockTableRecord
  2
LeidingMetnGeleiders
 70
    0
280
    1
281
    0
  0
BLOCK_RECORD
  5
89
330
1
100
AcDbSymbolTableRecord
100
AcDbBlockTableRecord
  2
Aardelektrode
 70
    0
280
    1
281
    0
  0
BLOCK_RECORD
  5
8C
330
1
100
AcDbSymbolTableRecord
100
AcDbBlockTableRecord
  2
Smeltveiligheid
 70
    0
280
    1
281
    0
  0
BLOCK_RECORD
  5
8F
330
1
100
AcDbSymbolTableRecord
100
AcDbBlockTableRecord
  2
SmeltveiligheidxAmp
 70
    0
280
    1
281
    0
  0
BLOCK_RECORD
  5
92
330
1
100
AcDbSymbolTableRecord
100
AcDbBlockTableRecord
  2
schakelaar
 70
    0
280
    1
281
    0
  0
BLOCK_RECORD
  5
95
330
1
100
AcDbSymbolTableRecord
100
AcDbBlockTableRecord
  2
SchakelaarMetPermanentBrandendeVerklikkerlamp
 70
    0
280
    1
281
    0
  0
BLOCK_RECORD
  5
98
330
1
100
AcDbSymbolTableRecord
100
AcDbBlockTableRecord
  2
EnkelpoligeSchakelaarMetVertraagdeOpening
 70
    0
280
    1
281
    0
  0
BLOCK_RECORD
  5
9B
330
1
100
AcDbSymbolTableRecord
100
AcDbBlockTableRecord
  2
EnkelpoligeSchakelaar
 70
    0
280
    1
281
    0
  0
BLOCK_RECORD
  5
9E
330
1
100
AcDbSymbolTableRecord
100
AcDbBlockTableRecord
  2
TweepoligeSchakelaar
 70
    0
280
    1
281
    0
  0
BLOCK_RECORD
  5
A1
330
1
100
AcDbSymbolTableRecord
100
AcDbBlockTableRecord
  2
DriepoligeSchakelaar
 70
    0
280
    1
281
    0
  0
BLOCK_RECORD
  5
A4
330
1
100
AcDbSymbolTableRecord
100
AcDbBlockTableRecord
  2
EnkelpoligeOmschakelaar
 70
    0
280
    1
281
    0
  0
BLOCK_RECORD
  5
A7
330
1
100
AcDbSymbolTableRecord
100
AcDbBlockTableRecord
  2
EnkelpoligeWisselschakelaar
 70
    0
280
    1
281
    0
  0
BLOCK_RECORD
  5
AA
330
1
100
AcDbSymbolTableRecord
100
AcDbBlockTableRecord
  2
TweepoligeWisselschakelaar
 70
    0
280
    1
281
    0
  0
BLOCK_RECORD
  5
AD
330
1
100
AcDbSymbolTableRecord
100
AcDbBlockTableRecord
  2
Kruisschakelaar
 70
    0
280
    1
281
    0
  0
BLOCK_RECORD
  5
B0
330
1
100
AcDbSymbolTableRecord
100
AcDbBlockTableRecord
  2
EnkelpoligeSchakelaarMetSignalisatielamp
 70
    0
280
    1
281
    0
  0
BLOCK_RECORD
  5
B3
330
1
100
AcDbSymbolTableRecord
100
AcDbBlockTableRecord
  2
Dimmer
 70
    0
280
    1
281
    0
  0
BLOCK_RECORD
  5
B6
330
1
100
AcDbSymbolTableRecord
100
AcDbBlockTableRecord
  2
Drukknop
 70
    0
280
    1
281
    0
  0
BLOCK_RECORD
  5
B9
330
1
100
AcDbSymbolTableRecord
100
AcDbBlockTableRecord
  2
DrukknopMetVerklikkerlamp
 70
    0
280
    1
281
    0
  0
BLOCK_RECORD
  5
BC
330
1
100
AcDbSymbolTableRecord
100
AcDbBlockTableRecord
  2
DrukknopMetAfgeschermdeToegang
 70
    0
280
    1
281
    0
  0
BLOCK_RECORD
  5
BF
330
1
100
AcDbSymbolTableRecord
100
AcDbBlockTableRecord
  2
Minuterie
 70
    0
280
    1
281
    0
  0
BLOCK_RECORD
  5
C2
330
1
100
AcDbSymbolTableRecord
100
AcDbBlockTableRecord
  2
Schakelklok
 70
    0
280
    1
281
    0
  0
BLOCK_RECORD
  5
C5
330
1
100
AcDbSymbolTableRecord
100
AcDbBlockTableRecord
  2
Impulsschakelaar
 70
    0
280
    1
281
    0
  0
BLOCK_RECORD
  5
C8
330
1
100
AcDbSymbolTableRecord
100
AcDbBlockTableRecord
  2
Thermostaat
 70
    0
280
    1
281
    0
  0
BLOCK_RECORD
  5
CB
330
1
100
AcDbSymbolTableRecord
100
AcDbBlockTableRecord
  2
Rondecontrole
 70
    0
280
    1
281
    0
  0
BLOCK_RECORD
  5
CE
330
1
100
AcDbSymbolTableRecord
100
AcDbBlockTableRecord
  2
Stopcontact
 70
    0
280
    1
281
    0
  0
BLOCK_RECORD
  5
D1
330
1
100
AcDbSymbolTableRecord
100
AcDbBlockTableRecord
  2
MeervoudigStopcontact3
 70
    0
280
    1
281
    0
  0
BLOCK_RECORD
  5
D4
330
1
100
AcDbSymbolTableRecord
100
AcDbBlockTableRecord
  2
WaterdichtStopcontact
 70
    0
280
    1
281
    0
  0
BLOCK_RECORD
  5
D7
330
1
100
AcDbSymbolTableRecord
100
AcDbBlockTableRecord
  2
StopcontactMetKinderbescherming
 70
    0
280
    1
281
    0
  0
BLOCK_RECORD
  5
DA
330
1
100
AcDbSymbolTableRecord
100
AcDbBlockTableRecord
  2
StopcontactMetContactVoorBeschermgeleider
 70
    0
280
    1
281
    0
  0
BLOCK_RECORD
  5
DD
330
1
100
AcDbSymbolTableRecord
100
AcDbBlockTableRecord
  2
StopcontactMetContactVoorBeschermingsgeleiderEnKinderbescherming
 70
    0
280
    1
281
    0
  0
BLOCK_RECORD
  5
E0
330
1
100
AcDbSymbolTableRecord
100
AcDbBlockTableRecord
  2
StopcontactMetTweepoligeSchakelaar
 70
    0
280
    1
281
    0
  0
BLOCK_RECORD
  5
E3
330
1
100
AcDbSymbolTableRecord
100
AcDbBlockTableRecord
  2
StopcontactMetBeschermingstransformator
 70
    0
280
    1
281
    0
  0
BLOCK_RECORD
  5
E6
330
1
100
AcDbSymbolTableRecord
100
AcDbBlockTableRecord
  2
StopcontactMetTweepoligeVergrendelingsschakelaar
 70
    0
280
    1
281
    0
  0
BLOCK_RECORD
  5
E9
330
1
100
AcDbSymbolTableRecord
100
AcDbBlockTableRecord
  2
AansluitpuntVoorVerlichtingstoestel
 70
    0
280
    1
281
    0
  0
BLOCK_RECORD
  5
EC
330
1
100
AcDbSymbolTableRecord
100
AcDbBlockTableRecord
  2
AansluitpuntVoorWandverlichtingstoestel
 70
    0
280
    1
281
    0
  0
BLOCK_RECORD
  5
EF
330
1
100
AcDbSymbolTableRecord
100
AcDbBlockTableRecord
  2
Fluorecentiearmatuur
 70
    0
280
    1
281
    0
  0
BLOCK_RECORD
  5
F2
330
1
100
AcDbSymbolTableRecord
100
AcDbBlockTableRecord
  2
ArmatuurMet3Buislampen
 70
    0
280
    1
281
    0
  0
BLOCK_RECORD
  5
F5
330
1
100
AcDbSymbolTableRecord
100
AcDbBlockTableRecord
  2
Projector
 70
    0
280
    1
281
    0
  0
BLOCK_RECORD
  5
F8
330
1
100
AcDbSymbolTableRecord
100
AcDbBlockTableRecord
  2
ProjectorMetWeinigDevergerendeLichtbundel
 70
    0
280
    1
281
    0
  0
BLOCK_RECORD
  5
FB
330
1
100
AcDbSymbolTableRecord
100
AcDbBlockTableRecord
  2
ProjectorMetDevergerendeLichtbundel
 70
    0
280
    1
281
    0
  0
BLOCK_RECORD
  5
FE
330
1
100
AcDbSymbolTableRecord
100
AcDbBlockTableRecord
  2
VerlichtingsarmatuurMetIngebouwdeEnkelpoligeSchakelaar
 70
    0
280
    1
281
    0
  0
BLOCK_RECORD
  5
101
330
1
100
AcDbSymbolTableRecord
100
AcDbBlockTableRecord
  2
NoodverlichtingstoestelAangeslotenOpEenSpecialeStroombaan
 70
    0
280
    1
281
    0
  0
BLOCK_RECORD
  5
104
330
1
100
AcDbSymbolTableRecord
100
AcDbBlockTableRecord
  2
AutonoomNoodverlichtingstoestel
 70
    0
280
    1
281
    0
  0
BLOCK_RECORD
  5
107
330
1
100
AcDbSymbolTableRecord
100
AcDbBlockTableRecord
  2
VoorschakeltoestelVoorOntladingslamp
 70
    0
280
    1
281
    0
  0
BLOCK_RECORD
  5
10A
330
1
100
AcDbSymbolTableRecord
100
AcDbBlockTableRecord
  2
Bel
 70
    0
280
    1
281
    0
  0
BLOCK_RECORD
  5
10D
330
1
100
AcDbSymbolTableRecord
100
AcDbBlockTableRecord
  2
Zoemer
 70
    0
280
    1
281
    0
  0
BLOCK_RECORD
  5
110
330
1
100
AcDbSymbolTableRecord
100
AcDbBlockTableRecord
  2
Sirene
 70
    0
280
    1
281
    0
  0
BLOCK_RECORD
  5
113
330
1
100
AcDbSymbolTableRecord
100
AcDbBlockTableRecord
  2
Hoorn
 70
    0
280
    1
281
    0
  0
BLOCK_RECORD
  5
116
330
1
100
AcDbSymbolTableRecord
100
AcDbBlockTableRecord
  2
Horloge
 70
    0
280
    1
281
    0
  0
BLOCK_RECORD
  5
119
330
1
100
AcDbSymbolTableRecord
100
AcDbBlockTableRecord
  2
Moederklok
 70
    0
280
    1
281
    0
  0
BLOCK_RECORD
  5
11C
330
1
100
AcDbSymbolTableRecord
100
AcDbBlockTableRecord
  2
ElektrischDeurslot
 70
    0
280
    1
281
    0
  0
BLOCK_RECORD
  5
11F
330
1
100
AcDbSymbolTableRecord
100
AcDbBlockTableRecord
  2
Ventilator
 70
    0
280
    1
281
    0
  0
BLOCK_RECORD
  5
122
330
1
100
AcDbSymbolTableRecord
100
AcDbBlockTableRecord
  2
Verwarmingstoestel
 70
    0
280
    1
281
    0
  0
BLOCK_RECORD
  5
125
330
1
100
AcDbSymbolTableRecord
100
AcDbBlockTableRecord
  2
VerwarmingstoestelMetAccumulatie
 70
    0
280
    1
281
    0
  0
BLOCK_RECORD
  5
128
330
1
100
AcDbSymbolTableRecord
100
AcDbBlockTableRecord
  2
VerwarmingstoestelMetAccumulatieEnIngebouwdeVentilator
 70
    0
280
    1
281
    0
  0
BLOCK_RECORD
  5
12B
330
1
100
AcDbSymbolTableRecord
100
AcDbBlockTableRecord
  2
Boiler
 70
    0
280
    1
281
    0
  0
BLOCK_RECORD
  5
12E
330
1
100
AcDbSymbolTableRecord
100
AcDbBlockTableRecord
  2
BoilerMetAccumulatie
 70
    0
280
    1
281
    0
  0
BLOCK_RECORD
  5
131
330
1
100
AcDbSymbolTableRecord
100
AcDbBlockTableRecord
  2
VastElektrischToestel
 70
    0
280
    1
281
    0
  0
BLOCK_RECORD
  5
134
330
1
100
AcDbSymbolTableRecord
100
AcDbBlockTableRecord
  2
Kookfornuis
 70
    0
280
    1
281
    0
  0
BLOCK_RECORD
  5
137
330
1
100
AcDbSymbolTableRecord
100
AcDbBlockTableRecord
  2
Microgolfoven
 70
    0
280
    1
281
    0
  0
BLOCK_RECORD
  5
13A
330
1
100
AcDbSymbolTableRecord
100
AcDbBlockTableRecord
  2
ElektrischeOven
 70
    0
280
    1
281
    0
  0
BLOCK_RECORD
  5
13D
330
1
100
AcDbSymbolTableRecord
100
AcDbBlockTableRecord
  2
Wasmashine
 70
    0
280
    1
281
    0
  0
BLOCK_RECORD
  5
140
330
1
100
AcDbSymbolTableRecord
100
AcDbBlockTableRecord
  2
Droogkast
 70
    0
280
    1
281
    0
  0
BLOCK_RECORD
  5
143
330
1
100
AcDbSymbolTableRecord
100
AcDbBlockTableRecord
  2
Vaatwasmashine
 70
    0
280
    1
281
    0
  0
BLOCK_RECORD
  5
146
330
1
100
AcDbSymbolTableRecord
100
AcDbBlockTableRecord
  2
Koelkast
 70
    0
280
    1
281
    0
  0
BLOCK_RECORD
  5
149
330
1
100
AcDbSymbolTableRecord
100
AcDbBlockTableRecord
  2
Diepvriezer
 70
    0
280
    1
281
    0
  0
BLOCK_RECORD
  5
14C
330
1
100
AcDbSymbolTableRecord
100
AcDbBlockTableRecord
  2
Transformator
 70
    0
280
    1
281
    0
  0
BLOCK_RECORD
  5
14F
330
1
100
AcDbSymbolTableRecord
100
AcDbBlockTableRecord
  2
Motor
 70
    0
280
    1
281
    0
  0
BLOCK_RECORD
  5
152
330
1
100
AcDbSymbolTableRecord
100
AcDbBlockTableRecord
  2
kWhTeller
 70
    0
280
    1
281
    0
  0
BLOCK_RECORD
  5
155
330
1
100
AcDbSymbolTableRecord
100
AcDbBlockTableRecord
  2
AansluitpuntVoorVerlichtingstoestel-0
 70
    0
280
    1
281
    0
  0
BLOCK_RECORD
  5
158
330
1
100
AcDbSymbolTableRecord
100
AcDbBlockTableRecord
  2
AansluitpuntVoorWandverlichtingstoestel-0
 70
    0
280
    1
281
    0
  0
BLOCK_RECORD
  5
15B
330
1
100
AcDbSymbolTableRecord
100
AcDbBlockTableRecord
  2
Fluorecentiearmatuur-0
 70
    0
280
    1
281
    0
  0
BLOCK_RECORD
  5
15E
330
1
100
AcDbSymbolTableRecord
100
AcDbBlockTableRecord
  2
ArmatuurMet3Buislampen-0
 70
    0
280
    1
281
    0
  0
BLOCK_RECORD
  5
161
330
1
100
AcDbSymbolTableRecord
100
AcDbBlockTableRecord
  2
Projector-0
 70
    0
280
    1
281
    0
  0
BLOCK_RECORD
  5
164
330
1
100
AcDbSymbolTableRecord
100
AcDbBlockTableRecord
  2
ProjectorMetWeinigDevergerendeLichtbundel-0
 70
    0
280
    1
281
    0
  0
BLOCK_RECORD
  5
167
330
1
100
AcDbSymbolTableRecord
100
AcDbBlockTableRecord
  2
ProjectorMetDevergerendeLichtbundel-0
 70
    0
280
    1
281
    0
  0
BLOCK_RECORD
  5
16A
330
1
100
AcDbSymbolTableRecord
100
AcDbBlockTableRecord
  2
VerlichtingsarmatuurMetIngebouwdeEnkelpoligeSchakelaar-0
 70
    0
280
    1
281
    0
  0
BLOCK_RECORD
  5
16D
330
1
100
AcDbSymbolTableRecord
100
AcDbBlockTableRecord
  2
NoodverlichtingstoestelAangeslotenOpEenSpecialeStroombaan-0
 70
    0
280
    1
281
    0
  0
BLOCK_RECORD
  5
170
330
1
100
AcDbSymbolTableRecord
100
AcDbBlockTableRecord
  2
AutonoomNoodverlichtingstoestel-0
 70
    0
280
    1
281
    0
  0
BLOCK_RECORD
  5
173
330
1
100
AcDbSymbolTableRecord
100
AcDbBlockTableRecord
  2
VoorschakeltoestelVoorOntladingslamp-0
 70
    0
280
    1
281
    0
  0
BLOCK_RECORD
  5
176
330
1
100
AcDbSymbolTableRecord
100
AcDbBlockTableRecord
  2
Bel-0
 70
    0
280
    1
281
    0
  0
BLOCK_RECORD
  5
179
330
1
100
AcDbSymbolTableRecord
100
AcDbBlockTableRecord
  2
Zoemer-0
 70
    0
280
    1
281
    0
  0
BLOCK_RECORD
  5
17C
330
1
100
AcDbSymbolTableRecord
100
AcDbBlockTableRecord
  2
Sirene-0
 70
    0
280
    1
281
    0
  0
BLOCK_RECORD
  5
17F
330
1
100
AcDbSymbolTableRecord
100
AcDbBlockTableRecord
  2
Hoorn-0
 70
    0
280
    1
281
    0
  0
BLOCK_RECORD
  5
182
330
1
100
AcDbSymbolTableRecord
100
AcDbBlockTableRecord
  2
Horloge-0
 70
    0
280
    1
281
    0
  0
BLOCK_RECORD
  5
185
330
1
100
AcDbSymbolTableRecord
100
AcDbBlockTableRecord
  2
Moederklok-0
 70
    0
280
    1
281
    0
  0
BLOCK_RECORD
  5
188
330
1
100
AcDbSymbolTableRecord
100
AcDbBlockTableRecord
  2
ElektrischDeurslot-0
 70
    0
280
    1
281
    0
  0
BLOCK_RECORD
  5
18B
330
1
100
AcDbSymbolTableRecord
100
AcDbBlockTableRecord
  2
Ventilator-0
 70
    0
280
    1
281
    0
  0
BLOCK_RECORD
  5
18E
330
1
100
AcDbSymbolTableRecord
100
AcDbBlockTableRecord
  2
Verwarmingstoestel-0
 70
    0
280
    1
281
    0
  0
BLOCK_RECORD
  5
191
330
1
100
AcDbSymbolTableRecord
100
AcDbBlockTableRecord
  2
VerwarmingstoestelMetAccumulatie-0
 70
    0
280
    1
281
    0
  0
BLOCK_RECORD
  5
194
330
1
100
AcDbSymbolTableRecord
100
AcDbBlockTableRecord
  2
VerwarmingstoestelMetAccumulatieEnIngebouwdeVentilator-0
 70
    0
280
    1
281
    0
  0
BLOCK_RECORD
  5
197
330
1
100
AcDbSymbolTableRecord
100
AcDbBlockTableRecord
  2
Boiler-0
 70
    0
280
    1
281
    0
  0
BLOCK_RECORD
  5
19A
330
1
100
AcDbSymbolTableRecord
100
AcDbBlockTableRecord
  2
BoilerMetAccumulatie-0
 70
    0
280
    1
281
    0
  0
BLOCK_RECORD
  5
19D
330
1
100
AcDbSymbolTableRecord
100
AcDbBlockTableRecord
  2
VastElektrischToestel-0
 70
    0
280
    1
281
    0
  0
BLOCK_RECORD
  5
1A0
330
1
100
AcDbSymbolTableRecord
100
AcDbBlockTableRecord
  2
Kookfornuis-0
 70
    0
280
    1
281
    0
  0
BLOCK_RECORD
  5
1A3
330
1
100
AcDbSymbolTableRecord
100
AcDbBlockTableRecord
  2
Microgolfoven-0
 70
    0
280
    1
281
    0
  0
BLOCK_RECORD
  5
1A6
330
1
100
AcDbSymbolTableRecord
100
AcDbBlockTableRecord
  2
ElektrischeOven-0
 70
    0
280
    1
281
    0
  0
BLOCK_RECORD
  5
1A9
330
1
100
AcDbSymbolTableRecord
100
AcDbBlockTableRecord
  2
Wasmashine-0
 70
    0
280
    1
281
    0
  0
BLOCK_RECORD
  5
1AC
330
1
100
AcDbSymbolTableRecord
100
AcDbBlockTableRecord
  2
Droogkast-0
 70
    0
280
    1
281
    0
  0
BLOCK_RECORD
  5
1AF
330
1
100
AcDbSymbolTableRecord
100
AcDbBlockTableRecord
  2
Vaatwasmashine-0
 70
    0
280
    1
281
    0
  0
BLOCK_RECORD
  5
1B2
330
1
100
AcDbSymbolTableRecord
100
AcDbBlockTableRecord
  2
Koelkast-0
 70
    0
280
    1
281
    0
  0
BLOCK_RECORD
  5
1B5
330
1
100
AcDbSymbolTableRecord
100
AcDbBlockTableRecord
  2
Diepvriezer-0
 70
    0
280
    1
281
    0
  0
BLOCK_RECORD
  5
1B8
330
1
100
AcDbSymbolTableRecord
100
AcDbBlockTableRecord
  2
Transformator-0
 70
    0
280
    1
281
    0
  0
BLOCK_RECORD
  5
1BB
330
1
100
AcDbSymbolTableRecord
100
AcDbBlockTableRecord
  2
Motor-0
 70
    0
280
    1
281
    0
  0
BLOCK_RECORD
  5
1BE
330
1
100
AcDbSymbolTableRecord
100
AcDbBlockTableRecord
  2
kWhTeller-0
 70
    0
280
    1
281
    0
  0
BLOCK_RECORD
  5
1C1
330
1
100
AcDbSymbolTableRecord
100
AcDbBlockTableRecord
  2
schakelaar-0
 70
    0
280
    1
281
    0
  0
BLOCK_RECORD
  5
1C4
330
1
100
AcDbSymbolTableRecord
100
AcDbBlockTableRecord
  2
SchakelaarMetPermanentBrandendeVerklikkerlamp-0
 70
    0
280
    1
281
    0
  0
BLOCK_RECORD
  5
1C7
330
1
100
AcDbSymbolTableRecord
100
AcDbBlockTableRecord
  2
EnkelpoligeSchakelaarMetVertraagdeOpening-0
 70
    0
280
    1
281
    0
  0
BLOCK_RECORD
  5
1CA
330
1
100
AcDbSymbolTableRecord
100
AcDbBlockTableRecord
  2
EnkelpoligeSchakelaar-0
 70
    0
280
    1
281
    0
  0
BLOCK_RECORD
  5
1CD
330
1
100
AcDbSymbolTableRecord
100
AcDbBlockTableRecord
  2
TweepoligeSchakelaar-0
 70
    0
280
    1
281
    0
  0
BLOCK_RECORD
  5
1D0
330
1
100
AcDbSymbolTableRecord
100
AcDbBlockTableRecord
  2
DriepoligeSchakelaar-0
 70
    0
280
    1
281
    0
  0
BLOCK_RECORD
  5
1D3
330
1
100
AcDbSymbolTableRecord
100
AcDbBlockTableRecord
  2
EnkelpoligeOmschakelaar-0
 70
    0
280
    1
281
    0
  0
BLOCK_RECORD
  5
1D6
330
1
100
AcDbSymbolTableRecord
100
AcDbBlockTableRecord
  2
EnkelpoligeWisselschakelaar-0
 70
    0
280
    1
281
    0
  0
BLOCK_RECORD
  5
1D9
330
1
100
AcDbSymbolTableRecord
100
AcDbBlockTableRecord
  2
TweepoligeWisselschakelaar-0
 70
    0
280
    1
281
    0
  0
BLOCK_RECORD
  5
1DC
330
1
100
AcDbSymbolTableRecord
100
AcDbBlockTableRecord
  2
Kruisschakelaar-0
 70
    0
280
    1
281
    0
  0
BLOCK_RECORD
  5
1DF
330
1
100
AcDbSymbolTableRecord
100
AcDbBlockTableRecord
  2
EnkelpoligeSchakelaarMetSignalisatielamp-0
 70
    0
280
    1
281
    0
  0
BLOCK_RECORD
  5
1E2
330
1
100
AcDbSymbolTableRecord
100
AcDbBlockTableRecord
  2
Dimmer-0
 70
    0
280
    1
281
    0
  0
BLOCK_RECORD
  5
1E5
330
1
100
AcDbSymbolTableRecord
100
AcDbBlockTableRecord
  2
Drukknop-0
 70
    0
280
    1
281
    0
  0
BLOCK_RECORD
  5
1E8
330
1
100
AcDbSymbolTableRecord
100
AcDbBlockTableRecord
  2
DrukknopMetVerklikkerlamp-0
 70
    0
280
    1
281
    0
  0
BLOCK_RECORD
  5
1EB
330
1
100
AcDbSymbolTableRecord
100
AcDbBlockTableRecord
  2
DrukknopMetAfgeschermdeToegang-0
 70
    0
280
    1
281
    0
  0
BLOCK_RECORD
  5
1EE
330
1
100
AcDbSymbolTableRecord
100
AcDbBlockTableRecord
  2
Minuterie-0
 70
    0
280
    1
281
    0
  0
BLOCK_RECORD
  5
1F1
330
1
100
AcDbSymbolTableRecord
100
AcDbBlockTableRecord
  2
Schakelklok-0
 70
    0
280
    1
281
    0
  0
BLOCK_RECORD
  5
1F4
330
1
100
AcDbSymbolTableRecord
100
AcDbBlockTableRecord
  2
Impulsschakelaar-0
 70
    0
280
    1
281
    0
  0
BLOCK_RECORD
  5
1F7
330
1
100
AcDbSymbolTableRecord
100
AcDbBlockTableRecord
  2
Thermostaat-0
 70
    0
280
    1
281
    0
  0
BLOCK_RECORD
  5
1FA
330
1
100
AcDbSymbolTableRecord
100
AcDbBlockTableRecord
  2
Rondecontrole-0
 70
    0
280
    1
281
    0
  0
BLOCK_RECORD
  5
1FD
330
1
100
AcDbSymbolTableRecord
100
AcDbBlockTableRecord
  2
Stopcontact-0
 70
    0
280
    1
281
    0
  0
BLOCK_RECORD
  5
200
330
1
100
AcDbSymbolTableRecord
100
AcDbBlockTableRecord
  2
MeervoudigStopcontact3-0
 70
    0
280
    1
281
    0
  0
BLOCK_RECORD
  5
203
330
1
100
AcDbSymbolTableRecord
100
AcDbBlockTableRecord
  2
WaterdichtStopcontact-0
 70
    0
280
    1
281
    0
  0
BLOCK_RECORD
  5
206
330
1
100
AcDbSymbolTableRecord
100
AcDbBlockTableRecord
  2
StopcontactMetKinderbescherming-0
 70
    0
280
    1
281
    0
  0
BLOCK_RECORD
  5
209
330
1
100
AcDbSymbolTableRecord
100
AcDbBlockTableRecord
  2
StopcontactMetContactVoorBeschermgeleider-0
 70
    0
280
    1
281
    0
  0
BLOCK_RECORD
  5
20C
330
1
100
AcDbSymbolTableRecord
100
AcDbBlockTableRecord
  2
StopcontactMetContactVoorBeschermingsgeleiderEnKinderbescherming-0
 70
    0
280
    1
281
    0
  0
BLOCK_RECORD
  5
20F
330
1
100
AcDbSymbolTableRecord
100
AcDbBlockTableRecord
  2
StopcontactMetTweepoligeSchakelaar-0
 70
    0
280
    1
281
    0
  0
BLOCK_RECORD
  5
212
330
1
100
AcDbSymbolTableRecord
100
AcDbBlockTableRecord
  2
StopcontactMetBeschermingstransformator-0
 70
    0
280
    1
281
    0
  0
BLOCK_RECORD
  5
215
330
1
100
AcDbSymbolTableRecord
100
AcDbBlockTableRecord
  2
StopcontactMetTweepoligeVergrendelingsschakelaar-0
 70
    0
280
    1
281
    0
  0
ENDTAB
  0
ENDSEC
  0
SECTION
  2
BLOCKS
  0
BLOCK
  5
20
330
1F
100
AcDbEntity
  8
0
100
AcDbBlockBegin
  2
*Model_Space
 70
    0
 10
0
 20
0
 30
0
  3
*Model_Space
  1

  0
ENDBLK
  5
21
330
1F
100
AcDbEntity
  8
0
100
AcDbBlockEnd
  0
BLOCK
  5
1C
330
1B
100
AcDbEntity
  8
0
100
AcDbBlockBegin
  2
*Paper_Space
 70
    0
 10
0
 20
0
 30
0
  3
*Paper_Space
  1

  0
ENDBLK
  5
1D
330
1F
100
AcDbEntity
  8
0
100
AcDbBlockEnd
  0
BLOCK
  5
51
330
50
100
AcDbEntity
  8
0
100
AcDbBlockBegin
  2
Gelijkstroom
 70
    0
 10
0
 20
0
  3
Gelijkstroom
  1

  0
LINE
  5
218
100
AcDbEntity
  8
0
  6
ByLayer
 62
  256
370
   -1
100
AcDbLine
 10
-1.995326005381099
 20
5.434230843093246e-011
 11
1.995326005381095
 21
-5.434230843093246e-011
  0
ENDBLK
  5
52
330
50
100
AcDbEntity
  8
0
100
AcDbBlockEnd
  0
BLOCK
  5
54
330
53
100
AcDbEntity
  8
0
100
AcDbBlockBegin
  2
Wisselstroom
 70
    0
 10
0
 20
0
  3
Wisselstroom
  1

  0
ELLIPSE
  5
219
100
AcDbEntity
  8
0
  6
CONTINUOUS
 62
    7
370
   -1
100
AcDbEllipse
 10
-1.000000000000004
 20
-2.842170943040401e-014
 30
0
 11
-1.685637374582334e-014
 21
-1.999999999999994
 31
0
 40
0.4953260053810927
 41
3.141592653589787
 42
4.712388980384718
  0
ELLIPSE
  5
21A
100
AcDbEntity
  8
0
  6
CONTINUOUS
 62
    7
370
   -1
100
AcDbEllipse
 10
-1.000000000000014
 20
-2.842170943040401e-014
 30
0
 11
5.826507895947963e-015
 21
2.000000000000026
 31
0
 40
0.5
 41
-1.57079632679488
 42
-8.283651542484342e-015
  0
ELLIPSE
  5
21B
100
AcDbEntity
  8
0
  6
CONTINUOUS
 62
    7
370
   -1
100
AcDbEllipse
 10
1.000000000000036
 20
-1.989519660128281e-013
 30
0
 11
-1.497657249951951e-014
 21
-1.999999999999948
 31
0
 40
0.5
 41
-8.812395257962404e-015
 42
1.570796326794924
  0
ELLIPSE
  5
21C
100
AcDbEntity
  8
0
  6
CONTINUOUS
 62
    7
370
   -1
100
AcDbEllipse
 10
1
 20
-1.4210854715202e-013
 30
0
 11
-1.275612645026942e-014
 21
-1.999999999999976
 31
0
 40
0.5000000000000112
 41
-1.570796326794903
 42
2.344097138617968e-014
  0
ENDBLK
  5
55
330
53
100
AcDbEntity
  8
0
100
AcDbBlockEnd
  0
BLOCK
  5
57
330
56
100
AcDbEntity
  8
0
100
AcDbBlockBegin
  2
EénfasigeWisselstroom
 70
    0
 10
0
 20
0
  3
EénfasigeWisselstroom
  1

  0
ELLIPSE
  5
21D
100
AcDbEntity
  8
0
  6
CONTINUOUS
 62
    7
370
   -1
100
AcDbEllipse
 10
-1.000000000000004
 20
-2.842170943040401e-014
 30
0
 11
-1.685637374582334e-014
 21
-1.999999999999994
 31
0
 40
0.4953260053810927
 41
3.141592653589787
 42
4.712388980384718
  0
ELLIPSE
  5
21E
100
AcDbEntity
  8
0
  6
CONTINUOUS
 62
    7
370
   -1
100
AcDbEllipse
 10
-1.000000000000014
 20
-2.842170943040401e-014
 30
0
 11
5.826507895947963e-015
 21
2.000000000000026
 31
0
 40
0.5
 41
-1.57079632679488
 42
-8.283651542484342e-015
  0
ELLIPSE
  5
21F
100
AcDbEntity
  8
0
  6
CONTINUOUS
 62
    7
370
   -1
100
AcDbEllipse
 10
1.000000000000036
 20
-1.989519660128281e-013
 30
0
 11
-1.497657249951951e-014
 21
-1.999999999999948
 31
0
 40
0.5
 41
-8.812395257962404e-015
 42
1.570796326794924
  0
ELLIPSE
  5
220
100
AcDbEntity
  8
0
  6
CONTINUOUS
 62
    7
370
   -1
100
AcDbEllipse
 10
1
 20
-1.4210854715202e-013
 30
0
 11
-1.275612645026942e-014
 21
-1.999999999999976
 31
0
 40
0.5000000000000112
 41
-1.570796326794903
 42
2.344097138617968e-014
  0
MTEXT
  5
221
100
AcDbEntity
  8
0
  6
ByLayer
 62
  256
370
   -1
100
AcDbMText
 10
-5.000000000000007
 20
0.9999999999999716
 30
0
 40
1.28412799090147
 41
29.46360334679504
 71
    5
 72
    5
  1
\C7;\fArial|b0|i0|;\H1.2841279909015;1
  7
standard
210
0
220
0
230
1
 50
0
 73
    1
 44
1
  0
ENDBLK
  5
58
330
56
100
AcDbEntity
  8
0
100
AcDbBlockEnd
  0
BLOCK
  5
5A
330
59
100
AcDbEntity
  8
0
100
AcDbBlockBegin
  2
DriefasigeWisselstroom
 70
    0
 10
0
 20
0
  3
DriefasigeWisselstroom
  1

  0
ELLIPSE
  5
222
100
AcDbEntity
  8
0
  6
CONTINUOUS
 62
    7
370
   -1
100
AcDbEllipse
 10
-1.000000000000004
 20
-8.526512829121202e-014
 30
0
 11
-1.685637374582334e-014
 21
-1.999999999999994
 31
0
 40
0.4953260053810927
 41
3.141592653589787
 42
4.712388980384718
  0
ELLIPSE
  5
223
100
AcDbEntity
  8
0
  6
CONTINUOUS
 62
    7
370
   -1
100
AcDbEllipse
 10
-1.000000000000018
 20
-8.526512829121202e-014
 30
0
 11
5.826507895947963e-015
 21
2.000000000000026
 31
0
 40
0.5
 41
-1.57079632679488
 42
-8.283651542484342e-015
  0
ELLIPSE
  5
224
100
AcDbEntity
  8
0
  6
CONTINUOUS
 62
    7
370
   -1
100
AcDbEllipse
 10
1.000000000000046
 20
-8.526512829121202e-014
 30
0
 11
-1.497657249951951e-014
 21
-1.999999999999948
 31
0
 40
0.5
 41
-8.812395257962404e-015
 42
1.570796326794924
  0
ELLIPSE
  5
225
100
AcDbEntity
  8
0
  6
CONTINUOUS
 62
    7
370
   -1
100
AcDbEllipse
 10
1.000000000000011
 20
-2.842170943040401e-014
 30
0
 11
-1.275612645026942e-014
 21
-1.999999999999976
 31
0
 40
0.5000000000000112
 41
-1.570796326794903
 42
2.344097138617968e-014
  0
MTEXT
  5
226
100
AcDbEntity
  8
0
  6
ByLayer
 62
  256
370
   -1
100
AcDbMText
 10
-4.999999999999982
 20
1.000000000000142
 30
0
 40
1.28412799090147
 41
29.748965122551
 71
    5
 72
    5
  1
\C7;\fArial|b0|i0|;\H1.2841279909015;3
  7
standard
210
0
220
0
230
1
 50
0
 73
    1
 44
1
  0
ENDBLK
  5
5B
330
59
100
AcDbEntity
  8
0
100
AcDbBlockEnd
  0
BLOCK
  5
5D
330
5C
100
AcDbEntity
  8
0
100
AcDbBlockBegin
  2
BordOfVerdeelkast
 70
    0
 10
0
 20
0
  3
BordOfVerdeelkast
  1

  0
LWPOLYLINE
  5
227
100
AcDbEntity
  8
0
  6
CONTINUOUS
 62
    7
370
   -1
100
AcDbPolyline
 90
    4
 70
    1
 43
0
 10
-8.000000000000014
 20
-2
 10
8
 20
-2
 10
8
 20
2
 10
-8.000000000000014
 20
2
  0
ENDBLK
  5
5E
330
5C
100
AcDbEntity
  8
0
100
AcDbBlockEnd
  0
BLOCK
  5
60
330
5F
100
AcDbEntity
  8
0
100
AcDbBlockBegin
  2
DoosOfInbouwdoos
 70
    0
 10
0
 20
0
  3
DoosOfInbouwdoos
  1

  0
CIRCLE
  5
228
100
AcDbEntity
  8
0
  6
CONTINUOUS
 62
    7
370
   -1
100
AcDbCircle
 10
0
 20
0
 40
1.999999999999996
  0
ENDBLK
  5
61
330
5F
100
AcDbEntity
  8
0
100
AcDbBlockEnd
  0
BLOCK
  5
63
330
62
100
AcDbEntity
  8
0
100
AcDbBlockBegin
  2
VerbindingsdoosAftakdoosAansluitdoos
 70
    0
 10
0
 20
0
  3
VerbindingsdoosAftakdoosAansluitdoos
  1

  0
CIRCLE
  5
229
100
AcDbEntity
  8
0
  6
CONTINUOUS
 62
    7
370
   -1
100
AcDbCircle
 10
-1.4210854715202e-014
 20
0
 40
2.000000000000003
  0
CIRCLE
  5
22A
100
AcDbEntity
  8
0
  6
CONTINUOUS
 62
    7
370
   -1
100
AcDbCircle
 10
0
 20
0
 40
0.5
  0
HATCH
  5
22B
100
AcDbEntity
  8
0
  6
ByLayer
 62
  256
370
   -1
100
AcDbHatch
 10
0
 20
0
 30
0
210
0
220
0
230
1
  2
SOLID
 70
    1
 71
    0
 91
    1
 92
    0
 93
    1
 72
    2
 10
0
 20
0
 40
0.5
 50
0
 51
360
 73
    1
 97
    0
 75
    0
 76
    1
 98
    0
  0
ENDBLK
  5
64
330
62
100
AcDbEntity
  8
0
100
AcDbBlockEnd
  0
BLOCK
  5
66
330
65
100
AcDbEntity
  8
0
100
AcDbBlockBegin
  2
Aardingsstrip
 70
    0
 10
0
 20
0
  3
Aardingsstrip
  1

  0
LINE
  5
22C
100
AcDbEntity
  8
0
  6
CONTINUOUS
 62
    7
370
   -1
100
AcDbLine
 10
-6.000000000000085
 20
0
 11
-3.000000000000085
 21
0
  0
LINE
  5
22D
100
AcDbEntity
  8
0
  6
CONTINUOUS
 62
    7
370
   -1
100
AcDbLine
 10
-3.000000000000028
 20
1
 11
-3.000000000000028
 21
-1
  0
LINE
  5
22E
100
AcDbEntity
  8
0
  6
CONTINUOUS
 62
    7
370
   -1
100
AcDbLine
 10
-2
 20
1
 11
-2
 21
-1
  0
LINE
  5
22F
100
AcDbEntity
  8
0
  6
CONTINUOUS
 62
    7
370
   -1
100
AcDbLine
 10
-2
 20
0
 11
2
 21
0
  0
LINE
  5
230
100
AcDbEntity
  8
0
  6
CONTINUOUS
 62
    7
370
   -1
100
AcDbLine
 10
2
 20
1
 11
2
 21
-1
  0
LINE
  5
231
100
AcDbEntity
  8
0
  6
CONTINUOUS
 62
    7
370
   -1
100
AcDbLine
 10
2.999999999999943
 20
1
 11
2.999999999999943
 21
-1
  0
LINE
  5
232
100
AcDbEntity
  8
0
  6
CONTINUOUS
 62
    7
370
   -1
100
AcDbLine
 10
2.999999999999943
 20
0
 11
5.999999999999943
 21
0
  0
ENDBLK
  5
67
330
65
100
AcDbEntity
  8
0
100
AcDbBlockEnd
  0
BLOCK
  5
69
330
68
100
AcDbEntity
  8
0
100
AcDbBlockBegin
  2
Aftakkast
 70
    0
 10
0
 20
0
  3
Aftakkast
  1

  0
LWPOLYLINE
  5
233
100
AcDbEntity
  8
0
  6
CONTINUOUS
 62
    7
370
   -1
100
AcDbPolyline
 90
    4
 70
    1
 43
0
 10
-7.600000000000023
 20
-1.999999999999545
 10
8.400000000000006
 20
-1.999999999999545
 10
8.400000000000006
 20
2.000000000000568
 10
-7.600000000000023
 20
2.000000000000568
  0
CIRCLE
  5
234
100
AcDbEntity
  8
0
  6
CONTINUOUS
 62
    7
370
   -1
100
AcDbCircle
 10
0
 20
0
 40
0.9999999999999981
  0
LINE
  5
235
100
AcDbEntity
  8
0
  6
CONTINUOUS
 62
    7
370
   -1
100
AcDbLine
 10
-8.600000000000023
 20
0
 11
9.400000000000006
 21
0
  0
HATCH
  5
236
100
AcDbEntity
  8
0
  6
ByLayer
 62
  256
370
   -1
100
AcDbHatch
 10
0
 20
0
 30
0
210
0
220
0
230
1
  2
SOLID
 70
    1
 71
    0
 91
    1
 92
    0
 93
    1
 72
    2
 10
0
 20
0
 40
0.9999999999999981
 50
0
 51
360
 73
    1
 97
    0
 75
    0
 76
    1
 98
    0
  0
ENDBLK
  5
6A
330
68
100
AcDbEntity
  8
0
100
AcDbBlockEnd
  0
BLOCK
  5
6C
330
6B
100
AcDbEntity
  8
0
100
AcDbBlockBegin
  2
OndergrondseLeiding
 70
    0
 10
0
 20
0
  3
OndergrondseLeiding
  1

  0
LINE
  5
237
100
AcDbEntity
  8
0
  6
CONTINUOUS
 62
    7
370
   -1
100
AcDbLine
 10
-7
 20
0
 11
7
 21
0
  0
LINE
  5
238
100
AcDbEntity
  8
0
  6
CONTINUOUS
 62
    7
370
   -1
100
AcDbLine
 10
-3
 20
2.999999999999943
 11
3
 21
2.999999999999943
  0
LINE
  5
239
100
AcDbEntity
  8
0
  6
CONTINUOUS
 62
    7
370
   -1
100
AcDbLine
 10
-2.000000000000014
 20
1.999999999999886
 11
2
 21
1.999999999999886
  0
LINE
  5
23A
100
AcDbEntity
  8
0
  6
CONTINUOUS
 62
    7
370
   -1
100
AcDbLine
 10
-0.6000000000000085
 20
1.000000000000057
 11
0.86666666666666
 21
1.000000000000057
  0
ENDBLK
  5
6D
330
6B
100
AcDbEntity
  8
0
100
AcDbBlockEnd
  0
BLOCK
  5
6F
330
6E
100
AcDbEntity
  8
0
100
AcDbBlockBegin
  2
Luchtleiding
 70
    0
 10
0
 20
0
  3
Luchtleiding
  1

  0
LINE
  5
23B
100
AcDbEntity
  8
0
  6
CONTINUOUS
 62
    7
370
   -1
100
AcDbLine
 10
-9.5
 20
0
 11
9.5
 21
-1.4210854715202e-014
  0
CIRCLE
  5
23C
100
AcDbEntity
  8
0
  6
ByLayer
 62
  256
370
   -1
100
AcDbCircle
 10
0
 20
0
 40
1
  0
ENDBLK
  5
70
330
6E
100
AcDbEntity
  8
0
100
AcDbBlockEnd
  0
BLOCK
  5
72
330
71
100
AcDbEntity
  8
0
100
AcDbBlockBegin
  2
LeidingInBuis
 70
    0
 10
0
 20
0
  3
LeidingInBuis
  1

  0
LINE
  5
23D
100
AcDbEntity
  8
0
  6
CONTINUOUS
 62
    7
370
   -1
100
AcDbLine
 10
-9.5
 20
0
 11
9.5
 21
-1.4210854715202e-014
  0
CIRCLE
  5
23E
100
AcDbEntity
  8
0
  6
CONTINUOUS
 62
    7
370
   -1
100
AcDbCircle
 10
2.549999999999955
 20
1.59999999999998
 40
0.5999999999999978
  0
ENDBLK
  5
73
330
71
100
AcDbEntity
  8
0
100
AcDbBlockEnd
  0
BLOCK
  5
75
330
74
100
AcDbEntity
  8
0
100
AcDbBlockBegin
  2
LeidingInWand
 70
    0
 10
0
 20
0
  3
LeidingInWand
  1

  0
LINE
  5
23F
100
AcDbEntity
  8
0
  6
CONTINUOUS
 62
    7
370
   -1
100
AcDbLine
 10
-9.5
 20
0
 11
9.5
 21
0
  0
LWPOLYLINE
  5
240
100
AcDbEntity
  8
0
  6
CONTINUOUS
 62
    7
370
   -1
100
AcDbPolyline
 90
    4
 70
    0
 43
0
 10
-6.025000000000048
 20
1.000000000000185
 10
-6.025000000000048
 20
2.200000000000159
 10
-3.27500000000002
 20
2.200000000000159
 10
-3.27500000000002
 20
1.000000000000185
  0
LINE
  5
241
100
AcDbEntity
  8
0
  6
CONTINUOUS
 62
    7
370
   -1
100
AcDbLine
 10
-4.674999999999969
 20
2.200000000000173
 11
-4.674999999999969
 21
1.000000000000185
  0
LWPOLYLINE
  5
242
100
AcDbEntity
  8
0
  6
CONTINUOUS
 62
    7
370
   -1
100
AcDbPolyline
 90
    4
 70
    0
 43
0
 10
3.27500000000002
 20
1.000000000000185
 10
3.27500000000002
 20
2.200000000000287
 10
6.325000000000003
 20
2.200000000000287
 10
6.325000000000003
 20
1.000000000000185
  0
LINE
  5
243
100
AcDbEntity
  8
0
  6
CONTINUOUS
 62
    7
370
   -1
100
AcDbLine
 10
4.82500000000006
 20
2.200000000000315
 11
4.82500000000006
 21
1.000000000000199
  0
ENDBLK
  5
76
330
74
100
AcDbEntity
  8
0
100
AcDbBlockEnd
  0
BLOCK
  5
78
330
77
100
AcDbEntity
  8
0
100
AcDbBlockBegin
  2
LeidingOpWand
 70
    0
 10
0
 20
0
  3
LeidingOpWand
  1

  0
LINE
  5
244
100
AcDbEntity
  8
0
  6
CONTINUOUS
 62
    7
370
   -1
100
AcDbLine
 10
-9.5
 20
0
 11
9.5
 21
0
  0
LWPOLYLINE
  5
245
100
AcDbEntity
  8
0
  6
CONTINUOUS
 62
    7
370
   -1
100
AcDbPolyline
 90
    4
 70
    0
 43
0
 10
-6.025000000000048
 20
-2.199999999999712
 10
-6.025000000000048
 20
-0.9999999999997371
 10
-3.27500000000002
 20
-0.9999999999997371
 10
-3.27500000000002
 20
-2.199999999999712
  0
LINE
  5
246
100
AcDbEntity
  8
0
  6
CONTINUOUS
 62
    7
370
   -1
100
AcDbLine
 10
-4.674999999999969
 20
-0.9999999999997229
 11
-4.674999999999969
 21
-2.199999999999712
  0
LWPOLYLINE
  5
247
100
AcDbEntity
  8
0
  6
CONTINUOUS
 62
    7
370
   -1
100
AcDbPolyline
 90
    4
 70
    0
 43
0
 10
3.27500000000002
 20
-2.199999999999712
 10
3.27500000000002
 20
-0.9999999999996092
 10
6.325000000000003
 20
-0.9999999999996092
 10
6.325000000000003
 20
-2.199999999999712
  0
LINE
  5
248
100
AcDbEntity
  8
0
  6
CONTINUOUS
 62
    7
370
   -1
100
AcDbLine
 10
4.82500000000006
 20
-0.9999999999995808
 11
4.82500000000006
 21
-2.199999999999697
  0
ENDBLK
  5
79
330
77
100
AcDbEntity
  8
0
100
AcDbBlockEnd
  0
BLOCK
  5
7B
330
7A
100
AcDbEntity
  8
0
100
AcDbBlockBegin
  2
LeidingInBuisInWand
 70
    0
 10
0
 20
0
  3
LeidingInBuisInWand
  1

  0
LINE
  5
249
100
AcDbEntity
  8
0
  6
CONTINUOUS
 62
    7
370
   -1
100
AcDbLine
 10
-9.5
 20
7.105427357601002e-015
 11
9.5
 21
-7.105427357601002e-015
  0
CIRCLE
  5
24A
100
AcDbEntity
  8
0
  6
CONTINUOUS
 62
    7
370
   -1
100
AcDbCircle
 10
2.549999999999955
 20
1.599999999999987
 40
0.5999999999999978
  0
LWPOLYLINE
  5
24B
100
AcDbEntity
  8
0
  6
CONTINUOUS
 62
    7
370
   -1
100
AcDbPolyline
 90
    4
 70
    0
 43
0
 10
-6.025000000000048
 20
1.000000000000192
 10
-6.025000000000048
 20
2.200000000000166
 10
-3.27500000000002
 20
2.200000000000166
 10
-3.27500000000002
 20
1.000000000000192
  0
LINE
  5
24C
100
AcDbEntity
  8
0
  6
CONTINUOUS
 62
    7
370
   -1
100
AcDbLine
 10
-4.674999999999969
 20
2.20000000000018
 11
-4.674999999999969
 21
1.000000000000192
  0
ENDBLK
  5
7C
330
7A
100
AcDbEntity
  8
0
100
AcDbBlockEnd
  0
BLOCK
  5
7E
330
7D
100
AcDbEntity
  8
0
100
AcDbBlockBegin
  2
TweeLeidingen
 70
    0
 10
0
 20
0
  3
TweeLeidingen
  1

  0
LINE
  5
24D
100
AcDbEntity
  8
0
  6
CONTINUOUS
 62
    7
370
   -1
100
AcDbLine
 10
-9.500000000000007
 20
0
 11
9.500000000000007
 21
0
  0
LINE
  5
24E
100
AcDbEntity
  8
0
  6
CONTINUOUS
 62
    7
370
   -1
100
AcDbLine
 10
0.7750000000001833
 20
1.999999999999943
 11
0.7750000000001833
 21
-2.000000000000085
  0
LINE
  5
24F
100
AcDbEntity
  8
0
  6
CONTINUOUS
 62
    7
370
   -1
100
AcDbLine
 10
-0.5749999999998963
 20
1.999999999999943
 11
-0.5749999999998963
 21
-2.000000000000085
  0
ENDBLK
  5
7F
330
7D
100
AcDbEntity
  8
0
100
AcDbBlockEnd
  0
BLOCK
  5
81
330
80
100
AcDbEntity
  8
0
100
AcDbBlockBegin
  2
nLeidingen
 70
    0
 10
0
 20
0
  3
nLeidingen
  1

  0
LINE
  5
250
100
AcDbEntity
  8
0
  6
CONTINUOUS
 62
    7
370
   -1
100
AcDbLine
 10
-9.500000000000007
 20
0
 11
9.500000000000007
 21
0
  0
LINE
  5
251
100
AcDbEntity
  8
0
  6
CONTINUOUS
 62
    7
370
   -1
100
AcDbLine
 10
0.1000000000001435
 20
1.999999999999943
 11
0.1000000000001435
 21
-2.000000000000085
  0
MTEXT
  5
252
100
AcDbEntity
  8
0
  6
ByLayer
 62
  256
370
   -1
100
AcDbMText
 10
-2.499999999999879
 20
1.999999999999943
 30
0
 40
1.540967697277665
 41
36.38395951905648
 71
    5
 72
    5
  1
\C7;\fArial|b0|i0|;\H1.5409676972777;n
  7
standard
210
0
220
0
230
1
 50
0
 73
    1
 44
1
  0
ENDBLK
  5
82
330
80
100
AcDbEntity
  8
0
100
AcDbBlockEnd
  0
BLOCK
  5
84
330
83
100
AcDbEntity
  8
0
100
AcDbBlockBegin
  2
LeidingMet3Geleiders
 70
    0
 10
0
 20
0
  3
LeidingMet3Geleiders
  1

  0
LINE
  5
253
100
AcDbEntity
  8
0
  6
CONTINUOUS
 62
    7
370
   -1
100
AcDbLine
 10
9.500000000000007
 20
0
 11
-9.500000000000007
 21
0
  0
LINE
  5
254
100
AcDbEntity
  8
0
  6
CONTINUOUS
 62
    7
370
   -1
100
AcDbLine
 10
-0.9000000000001549
 20
-1.999999999999972
 11
1.099999999999916
 21
2.000000000000071
  0
LINE
  5
255
100
AcDbEntity
  8
0
  6
CONTINUOUS
 62
    7
370
   -1
100
AcDbLine
 10
0.4499999999999247
 20
-1.999999999999972
 11
2.449999999999996
 21
2.000000000000071
  0
LINE
  5
256
100
AcDbEntity
  8
0
  6
CONTINUOUS
 62
    7
370
   -1
100
AcDbLine
 10
-2.250000000000234
 20
-1.999999999999972
 11
-0.2500000000001634
 21
2.000000000000071
  0
ENDBLK
  5
85
330
83
100
AcDbEntity
  8
0
100
AcDbBlockEnd
  0
BLOCK
  5
87
330
86
100
AcDbEntity
  8
0
100
AcDbBlockBegin
  2
LeidingMetnGeleiders
 70
    0
 10
0
 20
0
  3
LeidingMetnGeleiders
  1

  0
LINE
  5
257
100
AcDbEntity
  8
0
  6
CONTINUOUS
 62
    7
370
   -1
100
AcDbLine
 10
9.500000000000007
 20
0
 11
-9.500000000000007
 21
0
  0
LINE
  5
258
100
AcDbEntity
  8
0
  6
CONTINUOUS
 62
    7
370
   -1
100
AcDbLine
 10
-0.9000000000001549
 20
-1.999999999999972
 11
1.099999999999916
 21
2.000000000000071
  0
MTEXT
  5
259
100
AcDbEntity
  8
0
  6
ByLayer
 62
  256
370
   -1
100
AcDbMText
 10
-2.85000000000003
 20
2.000000000000028
 30
0
 40
1.540967697277665
 41
36.38395951905648
 71
    5
 72
    5
  1
\C7;\fArial|b0|i0|;\H1.5409676972777;n
  7
standard
210
0
220
0
230
1
 50
0
 73
    1
 44
1
  0
ENDBLK
  5
88
330
86
100
AcDbEntity
  8
0
100
AcDbBlockEnd
  0
BLOCK
  5
8A
330
89
100
AcDbEntity
  8
0
100
AcDbBlockBegin
  2
Aardelektrode
 70
    0
 10
0
 20
0
  3
Aardelektrode
  1

  0
LINE
  5
25A
100
AcDbEntity
  8
0
  6
CONTINUOUS
 62
    7
370
   -1
100
AcDbLine
 10
-3
 20
-5.684341886080801e-014
 11
3
 21
-5.684341886080801e-014
  0
LINE
  5
25B
100
AcDbEntity
  8
0
  6
CONTINUOUS
 62
    7
370
   -1
100
AcDbLine
 10
-2
 20
-1.000000000000171
 11
2
 21
-1.000000000000171
  0
LINE
  5
25C
100
AcDbEntity
  8
0
  6
CONTINUOUS
 62
    7
370
   -1
100
AcDbLine
 10
-0.5999999999999943
 20
-2
 11
0.8666666666666742
 21
-2
  0
LINE
  5
25D
100
AcDbEntity
  8
0
  6
CONTINUOUS
 62
    7
370
   -1
100
AcDbLine
 10
0
 20
4
 11
0
 21
0
  0
ENDBLK
  5
8B
330
89
100
AcDbEntity
  8
0
100
AcDbBlockEnd
  0
BLOCK
  5
8D
330
8C
100
AcDbEntity
  8
0
100
AcDbBlockBegin
  2
Smeltveiligheid
 70
    0
 10
0
 20
0
  3
Smeltveiligheid
  1

  0
LINE
  5
25E
100
AcDbEntity
  8
0
  6
CONTINUOUS
 62
    7
370
   -1
100
AcDbLine
 10
0
 20
-5
 11
0
 21
5
  0
LWPOLYLINE
  5
25F
100
AcDbEntity
  8
0
  6
CONTINUOUS
 62
    7
370
   -1
100
AcDbPolyline
 90
    4
 70
    1
 43
0
 10
9.947598300641403e-014
 20
-3.000000000000057
 10
9.947598300641403e-014
 20
3
 10
-0.9999999999999432
 20
3
 10
-0.9999999999999432
 20
-3.000000000000057
  0
LWPOLYLINE
  5
260
100
AcDbEntity
  8
0
  6
CONTINUOUS
 62
    7
370
   -1
100
AcDbPolyline
 90
    4
 70
    1
 43
0
 10
1.000000000000014
 20
-3.000000000000057
 10
1.000000000000014
 20
3
 10
1.13686837721616e-013
 20
3
 10
1.13686837721616e-013
 20
-3.000000000000057
  0
HATCH
  5
261
100
AcDbEntity
  8
0
  6
ByLayer
 62
  256
370
   -1
100
AcDbHatch
 10
0
 20
0
 30
0
210
0
220
0
230
1
  2
SOLID
 70
    1
 71
    0
 91
    1
 92
    0
 93
    4
 72
    1
 10
1.13686837721616e-013
 20
3
 11
-0.9999999999999432
 21
3
 72
    1
 10
-0.9999999999999432
 20
3
 11
-0.9999999999999432
 21
-3.000000000000057
 72
    1
 10
-0.9999999999999432
 20
-3.000000000000057
 11
1.13686837721616e-013
 21
-3.000000000000057
 72
    1
 10
1.13686837721616e-013
 20
-3.000000000000057
 11
1.13686837721616e-013
 21
3
 97
    0
 75
    0
 76
    1
 98
    0
  0
ENDBLK
  5
8E
330
8C
100
AcDbEntity
  8
0
100
AcDbBlockEnd
  0
BLOCK
  5
90
330
8F
100
AcDbEntity
  8
0
100
AcDbBlockBegin
  2
SmeltveiligheidxAmp
 70
    0
 10
0
 20
0
  3
SmeltveiligheidxAmp
  1

  0
LINE
  5
262
100
AcDbEntity
  8
0
  6
CONTINUOUS
 62
    7
370
   -1
100
AcDbLine
 10
-1.13686837721616e-013
 20
-4.999999999999972
 11
-1.13686837721616e-013
 21
5.000000000000028
  0
LWPOLYLINE
  5
263
100
AcDbEntity
  8
0
  6
CONTINUOUS
 62
    7
370
   -1
100
AcDbPolyline
 90
    4
 70
    1
 43
0
 10
-1.4210854715202e-014
 20
-3.000000000000028
 10
-1.4210854715202e-014
 20
3.000000000000028
 10
-1.000000000000057
 20
3.000000000000028
 10
-1.000000000000057
 20
-3.000000000000028
  0
LWPOLYLINE
  5
264
100
AcDbEntity
  8
0
  6
CONTINUOUS
 62
    7
370
   -1
100
AcDbPolyline
 90
    4
 70
    1
 43
0
 10
0.9999999999999005
 20
-3.000000000000028
 10
0.9999999999999005
 20
3.000000000000028
 10
0
 20
3.000000000000028
 10
0
 20
-3.000000000000028
  0
MTEXT
  5
265
100
AcDbEntity
  8
0
  6
ByLayer
 62
  256
370
   -1
100
AcDbMText
 10
-3.000000000000043
 20
2.842170943040401e-014
 30
0
 40
1.540967697277665
 41
37.92492721633407
 71
    5
 72
    5
  1
\C7;\fArial|b0|i0|;\H1.5409676972777;xA
  7
standard
210
0
220
0
230
1
 50
0
 73
    1
 44
1
  0
HATCH
  5
266
100
AcDbEntity
  8
0
  6
ByLayer
 62
  256
370
   -1
100
AcDbHatch
 10
0
 20
0
 30
0
210
0
220
0
230
1
  2
SOLID
 70
    1
 71
    0
 91
    1
 92
    0
 93
    4
 72
    1
 10
0
 20
3.000000000000028
 11
-1.000000000000057
 21
3.000000000000028
 72
    1
 10
-1.000000000000057
 20
3.000000000000028
 11
-1.000000000000057
 21
-3.000000000000028
 72
    1
 10
-1.000000000000057
 20
-3.000000000000028
 11
0
 21
-3.000000000000028
 72
    1
 10
0
 20
-3.000000000000028
 11
0
 21
3.000000000000028
 97
    0
 75
    0
 76
    1
 98
    0
  0
ENDBLK
  5
91
330
8F
100
AcDbEntity
  8
0
100
AcDbBlockEnd
  0
BLOCK
  5
93
330
92
100
AcDbEntity
  8
0
100
AcDbBlockBegin
  2
schakelaar
 70
    0
 10
0
 20
0
  3
schakelaar
  1

  0
CIRCLE
  5
267
100
AcDbEntity
  8
0
  6
CONTINUOUS
 62
    7
370
   -1
100
AcDbCircle
 10
0
 20
0
 40
1.000000000000021
  0
LINE
  5
268
100
AcDbEntity
  8
0
  6
CONTINUOUS
 62
    7
370
   -1
100
AcDbLine
 10
0.4039326788378901
 20
0.9147887138387318
 11
1.399999999999977
 21
3.599999999999909
  0
ENDBLK
  5
94
330
92
100
AcDbEntity
  8
0
100
AcDbBlockEnd
  0
BLOCK
  5
96
330
95
100
AcDbEntity
  8
0
100
AcDbBlockBegin
  2
SchakelaarMetPermanentBrandendeVerklikkerlamp
 70
    0
 10
0
 20
0
  3
SchakelaarMetPermanentBrandendeVerklikkerlamp
  1

  0
CIRCLE
  5
269
100
AcDbEntity
  8
0
  6
CONTINUOUS
 62
    7
370
   -1
100
AcDbCircle
 10
-8.526512829121202e-014
 20
-2.842170943040401e-014
 40
1.000000000000021
  0
LINE
  5
26A
100
AcDbEntity
  8
0
  6
CONTINUOUS
 62
    7
370
   -1
100
AcDbLine
 10
0.4039326788378048
 20
0.9147887138387318
 11
1.39999999999992
 21
3.599999999999909
  0
LINE
  5
26B
100
AcDbEntity
  8
0
  6
CONTINUOUS
 62
    7
370
   -1
100
AcDbLine
 10
-0.7071067811866669
 20
0.707106781186468
 11
0.7071067811864964
 21
-0.7071067811866385
  0
LINE
  5
26C
100
AcDbEntity
  8
0
  6
CONTINUOUS
 62
    7
370
   -1
100
AcDbLine
 10
-0.7071067811866385
 20
-0.7071067811866385
 11
0.707106781186468
 21
0.707106781186468
  0
ENDBLK
  5
97
330
95
100
AcDbEntity
  8
0
100
AcDbBlockEnd
  0
BLOCK
  5
99
330
98
100
AcDbEntity
  8
0
100
AcDbBlockBegin
  2
EnkelpoligeSchakelaarMetVertraagdeOpening
 70
    0
 10
0
 20
0
  3
EnkelpoligeSchakelaarMetVertraagdeOpening
  1

  0
CIRCLE
  5
26D
100
AcDbEntity
  8
0
  6
CONTINUOUS
 62
    7
370
   -1
100
AcDbCircle
 10
2.842170943040401e-014
 20
0
 40
1.000000000000021
  0
LINE
  5
26E
100
AcDbEntity
  8
0
  6
CONTINUOUS
 62
    7
370
   -1
100
AcDbLine
 10
0.4039326788378901
 20
0.9147887138388171
 11
1.401057632804694
 21
3.602851180320372
  0
LINE
  5
26F
100
AcDbEntity
  8
0
  6
CONTINUOUS
 62
    7
370
   -1
100
AcDbLine
 10
1.401057632804694
 20
3.602851180320372
 11
2.120000000000005
 21
3.300000000000011
  0
TEXT
  5
270
100
AcDbEntity
  8
0
  6
ByLayer
 62
  256
370
   -1
100
AcDbText
 10
1.43893830690634
 20
1.34894771963594
 30
0
 40
1.3
  1
t
 50
0
 41
1
 51
0
  7
fibrocit_100
 71
    0
210
0
220
0
230
1
100
AcDbText
  0
ENDBLK
  5
9A
330
98
100
AcDbEntity
  8
0
100
AcDbBlockEnd
  0
BLOCK
  5
9C
330
9B
100
AcDbEntity
  8
0
100
AcDbBlockBegin
  2
EnkelpoligeSchakelaar
 70
    0
 10
0
 20
0
  3
EnkelpoligeSchakelaar
  1

  0
CIRCLE
  5
271
100
AcDbEntity
  8
0
  6
CONTINUOUS
 62
    7
370
   -1
100
AcDbCircle
 10
0
 20
0
 40
1.000000000000021
  0
LINE
  5
272
100
AcDbEntity
  8
0
  6
CONTINUOUS
 62
    7
370
   -1
100
AcDbLine
 10
0.4039326788378617
 20
0.9147887138387887
 11
1.399999999999977
 21
3.599999999999966
  0
LINE
  5
273
100
AcDbEntity
  8
0
  6
CONTINUOUS
 62
    7
370
   -1
100
AcDbLine
 10
1.437499999999943
 20
3.587500000000006
 11
2.119999999999976
 21
3.299999999999983
  0
ENDBLK
  5
9D
330
9B
100
AcDbEntity
  8
0
100
AcDbBlockEnd
  0
BLOCK
  5
9F
330
9E
100
AcDbEntity
  8
0
100
AcDbBlockBegin
  2
TweepoligeSchakelaar
 70
    0
 10
0
 20
0
  3
TweepoligeSchakelaar
  1

  0
CIRCLE
  5
274
100
AcDbEntity
  8
0
  6
CONTINUOUS
 62
    7
370
   -1
100
AcDbCircle
 10
0
 20
0
 40
1.000000000000021
  0
LINE
  5
275
100
AcDbEntity
  8
0
  6
CONTINUOUS
 62
    7
370
   -1
100
AcDbLine
 10
0.4039326788378617
 20
0.9147887138387887
 11
1.399999999999949
 21
3.599999999999994
  0
LINE
  5
276
100
AcDbEntity
  8
0
  6
CONTINUOUS
 62
    7
370
   -1
100
AcDbLine
 10
1.437499999999972
 20
3.587500000000006
 11
2.119999999999976
 21
3.299999999999983
  0
LINE
  5
277
100
AcDbEntity
  8
0
  6
CONTINUOUS
 62
    7
370
   -1
100
AcDbLine
 10
1.120205227634131
 20
2.845725600465329
 11
1.802705227634164
 21
2.558225600465335
  0
ENDBLK
  5
A0
330
9E
100
AcDbEntity
  8
0
100
AcDbBlockEnd
  0
BLOCK
  5
A2
330
A1
100
AcDbEntity
  8
0
100
AcDbBlockBegin
  2
DriepoligeSchakelaar
 70
    0
 10
0
 20
0
  3
DriepoligeSchakelaar
  1

  0
CIRCLE
  5
278
100
AcDbEntity
  8
0
  6
CONTINUOUS
 62
    7
370
   -1
100
AcDbCircle
 10
0
 20
0
 40
1.000000000000021
  0
LINE
  5
279
100
AcDbEntity
  8
0
  6
CONTINUOUS
 62
    7
370
   -1
100
AcDbLine
 10
0.4039326788378901
 20
0.9147887138387887
 11
1.399999999999977
 21
3.599999999999994
  0
LINE
  5
27A
100
AcDbEntity
  8
0
  6
CONTINUOUS
 62
    7
370
   -1
100
AcDbLine
 10
1.437499999999972
 20
3.587500000000006
 11
2.119999999999976
 21
3.300000000000011
  0
LINE
  5
27B
100
AcDbEntity
  8
0
  6
CONTINUOUS
 62
    7
370
   -1
100
AcDbLine
 10
1.120205227634131
 20
2.845725600465329
 11
1.802705227634135
 21
2.558225600465335
  0
LINE
  5
27C
100
AcDbEntity
  8
0
  6
CONTINUOUS
 62
    7
370
   -1
100
AcDbLine
 10
0.8311202120140138
 20
2.066406441899233
 11
1.513620212014047
 21
1.778906441899238
  0
ENDBLK
  5
A3
330
A1
100
AcDbEntity
  8
0
100
AcDbBlockEnd
  0
BLOCK
  5
A5
330
A4
100
AcDbEntity
  8
0
100
AcDbBlockBegin
  2
EnkelpoligeOmschakelaar
 70
    0
 10
0
 20
0
  3
EnkelpoligeOmschakelaar
  1

  0
CIRCLE
  5
27D
100
AcDbEntity
  8
0
  6
CONTINUOUS
 62
    7
370
   -1
100
AcDbCircle
 10
0
 20
0
 40
1.000000000000021
  0
LINE
  5
27E
100
AcDbEntity
  8
0
  6
CONTINUOUS
 62
    7
370
   -1
100
AcDbLine
 10
0.4039326788378901
 20
0.9147887138387887
 11
1.399999999999977
 21
3.599999999999994
  0
LINE
  5
27F
100
AcDbEntity
  8
0
  6
CONTINUOUS
 62
    7
370
   -1
100
AcDbLine
 10
1.437499999999972
 20
3.587499999999977
 11
2.119999999999976
 21
3.299999999999983
  0
LINE
  5
280
100
AcDbEntity
  8
0
  6
CONTINUOUS
 62
    7
370
   -1
100
AcDbLine
 10
-0.2839326788379424
 20
0.9147887138387887
 11
-1.280000000000001
 21
3.599999999999994
  0
LINE
  5
281
100
AcDbEntity
  8
0
  6
CONTINUOUS
 62
    7
370
   -1
100
AcDbLine
 10
-1.317499999999995
 20
3.587500000000006
 11
-2.000000000000028
 21
3.300000000000011
  0
ENDBLK
  5
A6
330
A4
100
AcDbEntity
  8
0
100
AcDbBlockEnd
  0
BLOCK
  5
A8
330
A7
100
AcDbEntity
  8
0
100
AcDbBlockBegin
  2
EnkelpoligeWisselschakelaar
 70
    0
 10
0
 20
0
  3
EnkelpoligeWisselschakelaar
  1

  0
CIRCLE
  5
282
100
AcDbEntity
  8
0
  6
CONTINUOUS
 62
    7
370
   -1
100
AcDbCircle
 10
0
 20
0
 40
1.000000000000021
  0
LINE
  5
283
100
AcDbEntity
  8
0
  6
CONTINUOUS
 62
    7
370
   -1
100
AcDbLine
 10
0.4039326788378617
 20
0.9573943569193943
 11
1.399999999999963
 21
3.642605643080572
  0
LINE
  5
284
100
AcDbEntity
  8
0
  6
CONTINUOUS
 62
    7
370
   -1
100
AcDbLine
 10
1.437499999999943
 20
3.630105643080412
 11
2.119999999999976
 21
3.342605643080446
  0
LINE
  5
285
100
AcDbEntity
  8
0
  6
CONTINUOUS
 62
    7
370
   -1
100
AcDbLine
 10
-0.1800000000000637
 20
-1.000000000000227
 11
-1.176067321162094
 21
-3.685211286161405
  0
LINE
  5
286
100
AcDbEntity
  8
0
  6
CONTINUOUS
 62
    7
370
   -1
100
AcDbLine
 10
-1.213567321162103
 20
-3.672711286161359
 11
-1.896067321162135
 21
-3.385211286161393
  0
ENDBLK
  5
A9
330
A7
100
AcDbEntity
  8
0
100
AcDbBlockEnd
  0
BLOCK
  5
AB
330
AA
100
AcDbEntity
  8
0
100
AcDbBlockBegin
  2
TweepoligeWisselschakelaar
 70
    0
 10
0
 20
0
  3
TweepoligeWisselschakelaar
  1

  0
CIRCLE
  5
287
100
AcDbEntity
  8
0
  6
CONTINUOUS
 62
    7
370
   -1
100
AcDbCircle
 10
0
 20
0
 40
1.000000000000021
  0
LINE
  5
288
100
AcDbEntity
  8
0
  6
CONTINUOUS
 62
    7
370
   -1
100
AcDbLine
 10
0.4039326788378759
 20
0.914788713838675
 11
1.399999999999977
 21
3.599999999999852
  0
LINE
  5
289
100
AcDbEntity
  8
0
  6
CONTINUOUS
 62
    7
370
   -1
100
AcDbLine
 10
1.437499999999972
 20
3.587500000000034
 11
2.120000000000005
 21
3.300000000000011
  0
LINE
  5
28A
100
AcDbEntity
  8
0
  6
CONTINUOUS
 62
    7
370
   -1
100
AcDbLine
 10
1.120205227634131
 20
2.845725600465187
 11
1.802705227634149
 21
2.558225600465164
  0
LINE
  5
28B
100
AcDbEntity
  8
0
  6
CONTINUOUS
 62
    7
370
   -1
100
AcDbLine
 10
-0.2839326788379282
 20
-1.057394356919474
 11
-1.279999999999987
 21
-3.742605643080651
  0
LINE
  5
28C
100
AcDbEntity
  8
0
  6
CONTINUOUS
 62
    7
370
   -1
100
AcDbLine
 10
-1.317499999999995
 20
-3.730105643080549
 11
-2
 21
-3.442605643080526
  0
LINE
  5
28D
100
AcDbEntity
  8
0
  6
CONTINUOUS
 62
    7
370
   -1
100
AcDbLine
 10
-1.000205227634154
 20
-2.988331243545986
 11
-1.682705227634173
 21
-2.700831243545963
  0
ENDBLK
  5
AC
330
AA
100
AcDbEntity
  8
0
100
AcDbBlockEnd
  0
BLOCK
  5
AE
330
AD
100
AcDbEntity
  8
0
100
AcDbBlockBegin
  2
Kruisschakelaar
 70
    0
 10
0
 20
0
  3
Kruisschakelaar
  1

  0
CIRCLE
  5
28E
100
AcDbEntity
  8
0
  6
CONTINUOUS
 62
    7
370
   -1
100
AcDbCircle
 10
0
 20
0
 40
1.000000000000021
  0
LINE
  5
28F
100
AcDbEntity
  8
0
  6
CONTINUOUS
 62
    7
370
   -1
100
AcDbLine
 10
0.4039326788378759
 20
0.9147887138387318
 11
1.399999999999991
 21
3.599999999999909
  0
LINE
  5
290
100
AcDbEntity
  8
0
  6
CONTINUOUS
 62
    7
370
   -1
100
AcDbLine
 10
1.437499999999986
 20
3.587500000000091
 11
2.120000000000019
 21
3.300000000000068
  0
LINE
  5
291
100
AcDbEntity
  8
0
  6
CONTINUOUS
 62
    7
370
   -1
100
AcDbLine
 10
-0.5219663394189666
 20
-0.8573943569194853
 11
-1.518033660580997
 21
-3.542605643080663
  0
LINE
  5
292
100
AcDbEntity
  8
0
  6
CONTINUOUS
 62
    7
370
   -1
100
AcDbLine
 10
-1.55553366058102
 20
-3.530105643080617
 11
-2.238033660581024
 21
-3.242605643080594
  0
LINE
  5
293
100
AcDbEntity
  8
0
  6
CONTINUOUS
 62
    7
370
   -1
100
AcDbLine
 10
-0.3799999999999812
 20
0.9573943569193375
 11
-1.376067321162097
 21
3.642605643080572
  0
LINE
  5
294
100
AcDbEntity
  8
0
  6
CONTINUOUS
 62
    7
370
   -1
100
AcDbLine
 10
-1.413567321162091
 20
3.630105643080526
 11
-2.096067321162096
 21
3.342605643080503
  0
LINE
  5
295
100
AcDbEntity
  8
0
  6
CONTINUOUS
 62
    7
370
   -1
100
AcDbLine
 10
0.4200000000000017
 20
-0.9000000000001478
 11
1.416067321162117
 21
-3.585211286161325
  0
LINE
  5
296
100
AcDbEntity
  8
0
  6
CONTINUOUS
 62
    7
370
   -1
100
AcDbLine
 10
1.453567321162083
 20
-3.572711286161223
 11
2.136067321162088
 21
-3.285211286161257
  0
ENDBLK
  5
AF
330
AD
100
AcDbEntity
  8
0
100
AcDbBlockEnd
  0
BLOCK
  5
B1
330
B0
100
AcDbEntity
  8
0
100
AcDbBlockBegin
  2
EnkelpoligeSchakelaarMetSignalisatielamp
 70
    0
 10
0
 20
0
  3
EnkelpoligeSchakelaarMetSignalisatielamp
  1

  0
CIRCLE
  5
297
100
AcDbEntity
  8
0
  6
CONTINUOUS
 62
    7
370
   -1
100
AcDbCircle
 10
-3.000000000000028
 20
0
 40
1.000000000000021
  0
LINE
  5
298
100
AcDbEntity
  8
0
  6
CONTINUOUS
 62
    7
370
   -1
100
AcDbLine
 10
-3.70710678118661
 20
0.7071067811864964
 11
-2.292893218813447
 21
-0.7071067811865532
  0
LINE
  5
299
100
AcDbEntity
  8
0
  6
CONTINUOUS
 62
    7
370
   -1
100
AcDbLine
 10
-3.707106781186582
 20
-0.7071067811865532
 11
-2.292893218813489
 21
0.7071067811864964
  0
CIRCLE
  5
29A
100
AcDbEntity
  8
0
  6
CONTINUOUS
 62
    7
370
   -1
100
AcDbCircle
 10
0
 20
0
 40
1.000000000000021
  0
LINE
  5
29B
100
AcDbEntity
  8
0
  6
CONTINUOUS
 62
    7
370
   -1
100
AcDbLine
 10
0.4039326788378901
 20
0.9147887138386182
 11
1.399999999999977
 21
3.599999999999852
  0
LINE
  5
29C
100
AcDbEntity
  8
0
  6
CONTINUOUS
 62
    7
370
   -1
100
AcDbLine
 10
1.437499999999972
 20
3.587499999999977
 11
2.11999999999999
 21
3.300000000000011
  0
LINE
  5
29D
100
AcDbEntity
  8
CONNECTOR
  6
CONTINUOUS
 62
  256
370
   -1
100
AcDbLine
 10
-2.000000000000014
 20
0
 11
-0.9999198942603158
 21
0
  0
ENDBLK
  5
B2
330
B0
100
AcDbEntity
  8
0
100
AcDbBlockEnd
  0
BLOCK
  5
B4
330
B3
100
AcDbEntity
  8
0
100
AcDbBlockBegin
  2
Dimmer
 70
    0
 10
0
 20
0
  3
Dimmer
  1

  0
CIRCLE
  5
29E
100
AcDbEntity
  8
0
  6
CONTINUOUS
 62
    7
370
   -1
100
AcDbCircle
 10
0
 20
0
 40
1.000000000000021
  0
LINE
  5
29F
100
AcDbEntity
  8
0
  6
CONTINUOUS
 62
    7
370
   -1
100
AcDbLine
 10
0.4039326788378901
 20
0.9147887138387887
 11
1.400000000000006
 21
3.600000000000023
  0
LINE
  5
2A0
100
AcDbEntity
  8
0
  6
CONTINUOUS
 62
    7
370
   -1
100
AcDbLine
 10
1.4375
 20
3.587499999999977
 11
2.120000000000005
 21
3.300000000000011
  0
LWPOLYLINE
  5
2A1
100
AcDbEntity
  8
0
  6
CONTINUOUS
 62
    7
370
   -1
100
AcDbPolyline
 90
    3
 70
    1
 43
0
 10
-1.350000000000023
 20
1.799999999999955
 10
2.349999999999966
 20
1.799999999999955
 10
2.349999999999966
 20
2.786666666666633
  0
HATCH
  5
2A2
100
AcDbEntity
  8
0
  6
ByLayer
 62
  256
370
   -1
100
AcDbHatch
 10
0
 20
0
 30
0
210
0
220
0
230
1
  2
SOLID
 70
    1
 71
    0
 91
    1
 92
    0
 93
    3
 72
    1
 10
-1.350000000000023
 20
1.799999999999955
 11
2.349999999999966
 21
1.799999999999955
 72
    1
 10
2.349999999999966
 20
1.799999999999955
 11
2.349999999999966
 21
2.786666666666633
 72
    1
 10
2.349999999999966
 20
2.786666666666633
 11
-1.350000000000023
 21
1.799999999999955
 97
    0
 75
    0
 76
    1
 98
    0
  0
ENDBLK
  5
B5
330
B3
100
AcDbEntity
  8
0
100
AcDbBlockEnd
  0
BLOCK
  5
B7
330
B6
100
AcDbEntity
  8
0
100
AcDbBlockBegin
  2
Drukknop
 70
    0
 10
0
 20
0
  3
Drukknop
  1

  0
CIRCLE
  5
2A3
100
AcDbEntity
  8
0
  6
CONTINUOUS
 62
    7
370
   -1
100
AcDbCircle
 10
0
 20
0
 40
1.499999999999996
  0
CIRCLE
  5
2A4
100
AcDbEntity
  8
0
  6
CONTINUOUS
 62
    7
370
   -1
100
AcDbCircle
 10
0
 20
0
 40
0.7499999999999967
  0
ENDBLK
  5
B8
330
B6
100
AcDbEntity
  8
0
100
AcDbBlockEnd
  0
BLOCK
  5
BA
330
B9
100
AcDbEntity
  8
0
100
AcDbBlockBegin
  2
DrukknopMetVerklikkerlamp
 70
    0
 10
0
 20
0
  3
DrukknopMetVerklikkerlamp
  1

  0
CIRCLE
  5
2A5
100
AcDbEntity
  8
0
  6
CONTINUOUS
 62
    7
370
   -1
100
AcDbCircle
 10
0
 20
0
 40
1.499999999999996
  0
CIRCLE
  5
2A6
100
AcDbEntity
  8
0
  6
CONTINUOUS
 62
    7
370
   -1
100
AcDbCircle
 10
0
 20
0
 40
0.7499999999999967
  0
LINE
  5
2A7
100
AcDbEntity
  8
0
  6
CONTINUOUS
 62
    7
370
   -1
100
AcDbLine
 10
-0.5303300858899433
 20
0.5303300858899433
 11
0.5303300858899433
 21
-0.5303300858898865
  0
LINE
  5
2A8
100
AcDbEntity
  8
0
  6
CONTINUOUS
 62
    7
370
   -1
100
AcDbLine
 10
-0.5303300858898865
 20
-0.5303300858898865
 11
0.5303300858899433
 21
0.5303300858898865
  0
ENDBLK
  5
BB
330
B9
100
AcDbEntity
  8
0
100
AcDbBlockEnd
  0
BLOCK
  5
BD
330
BC
100
AcDbEntity
  8
0
100
AcDbBlockBegin
  2
DrukknopMetAfgeschermdeToegang
 70
    0
 10
0
 20
0
  3
DrukknopMetAfgeschermdeToegang
  1

  0
CIRCLE
  5
2A9
100
AcDbEntity
  8
0
  6
CONTINUOUS
 62
    7
370
   -1
100
AcDbCircle
 10
0
 20
0
 40
1.499999999999996
  0
CIRCLE
  5
2AA
100
AcDbEntity
  8
0
  6
CONTINUOUS
 62
    7
370
   -1
100
AcDbCircle
 10
0
 20
0
 40
0.7499999999999967
  0
LWPOLYLINE
  5
2AB
100
AcDbEntity
  8
0
  6
CONTINUOUS
 62
    7
370
   -1
100
AcDbPolyline
 90
    6
 70
    0
 43
0
 10
2.842170943040401e-014
 20
3.499999999999943
 10
2.842170943040401e-014
 20
2.566666666666606
 10
2.000000000000014
 20
2.566666666666606
 10
2.000000000000014
 20
-2.5
 10
2.842170943040401e-014
 20
-2.5
 10
2.842170943040401e-014
 20
-3.566666666666663
  0
ENDBLK
  5
BE
330
BC
100
AcDbEntity
  8
0
100
AcDbBlockEnd
  0
BLOCK
  5
C0
330
BF
100
AcDbEntity
  8
0
100
AcDbBlockBegin
  2
Minuterie
 70
    0
 10
0
 20
0
  3
Minuterie
  1

  0
LWPOLYLINE
  5
2AC
100
AcDbEntity
  8
0
  6
CONTINUOUS
 62
    7
370
   -1
100
AcDbPolyline
 90
    4
 70
    1
 43
0
 10
-3.5
 20
-1.499999999999943
 10
3.5
 20
-1.499999999999943
 10
3.5
 20
1.499999999999943
 10
-3.5
 20
1.499999999999943
  0
MTEXT
  5
2AD
100
AcDbEntity
  8
0
  6
ByLayer
 62
  256
370
   -1
100
AcDbMText
 10
2.842170943040401e-014
 20
0
 30
0
 40
1.540967697277665
 41
36.21274088602555
 71
    5
 72
    5
  1
\C7;\fArial|b0|i0|;\H1.5409676972777;t
  7
standard
210
0
220
0
230
1
 50
0
 73
    1
 44
1
  0
ENDBLK
  5
C1
330
BF
100
AcDbEntity
  8
0
100
AcDbBlockEnd
  0
BLOCK
  5
C3
330
C2
100
AcDbEntity
  8
0
100
AcDbBlockBegin
  2
Schakelklok
 70
    0
 10
0
 20
0
  3
Schakelklok
  1

  0
LWPOLYLINE
  5
2AE
100
AcDbEntity
  8
0
  6
CONTINUOUS
 62
    7
370
   -1
100
AcDbPolyline
 90
    4
 70
    1
 43
0
 10
-4.415384615384653
 20
-1.892307692307668
 10
2.584615384615347
 20
-1.892307692307668
 10
2.584615384615347
 20
1.107692307692275
 10
-4.415384615384653
 20
1.107692307692275
  0
CIRCLE
  5
2AF
100
AcDbEntity
  8
0
  6
CONTINUOUS
 62
    7
370
   -1
100
AcDbCircle
 10
-2.815384615384659
 20
-0.4423076923076223
 40
0.7000000000000185
  0
ELLIPSE
  5
2B0
100
AcDbEntity
  8
0
  6
CONTINUOUS
 62
    7
370
   -1
100
AcDbEllipse
 10
-2.815384615384659
 20
-0.4423076923076223
 30
0
 11
0.1050000000000036
 21
0
 31
0
 40
0.9166666666666682
 41
0
 42
6.283185307179586
  0
LINE
  5
2B1
100
AcDbEntity
  8
0
  6
CONTINUOUS
 62
    7
370
   -1
100
AcDbLine
 10
-2.815384615384659
 20
0.08269230769241176
 11
-2.815384615384659
 21
-0.3460576923076246
  0
LINE
  5
2B2
100
AcDbEntity
  8
0
  6
CONTINUOUS
 62
    7
370
   -1
100
AcDbLine
 10
-2.77239155145736
 20
-0.4423076923076223
 11
-2.422391551457366
 21
-0.4423076923076223
  0
LINE
  5
2B3
100
AcDbEntity
  8
0
  6
CONTINUOUS
 62
    7
370
   -1
100
AcDbLine
 10
-2.115384615384642
 20
-0.4423076923076792
 11
-1.115384615384642
 21
-0.4423076923076792
  0
LINE
  5
2B4
100
AcDbEntity
  8
0
  6
CONTINUOUS
 62
    7
370
   -1
100
AcDbLine
 10
1.884615384615358
 20
-0.4423076923076792
 11
0.8846153846153584
 21
-0.4423076923076792
  0
LINE
  5
2B5
100
AcDbEntity
  8
0
  6
CONTINUOUS
 62
    7
370
   -1
100
AcDbLine
 10
0.8846153846153584
 20
-0.4423076923076792
 11
-1.115384615384642
 21
0.5576923076923208
  0
ENDBLK
  5
C4
330
C2
100
AcDbEntity
  8
0
100
AcDbBlockEnd
  0
BLOCK
  5
C6
330
C5
100
AcDbEntity
  8
0
100
AcDbBlockBegin
  2
Impulsschakelaar
 70
    0
 10
0
 20
0
  3
Impulsschakelaar
  1

  0
LWPOLYLINE
  5
2B6
100
AcDbEntity
  8
0
  6
CONTINUOUS
 62
    7
370
   -1
100
AcDbPolyline
 90
    4
 70
    1
 43
0
 10
-3.5
 20
-1.499999999999943
 10
3.5
 20
-1.499999999999943
 10
3.5
 20
1.5
 10
-3.5
 20
1.5
  0
LINE
  5
2B7
100
AcDbEntity
  8
0
  6
CONTINUOUS
 62
    7
370
   -1
100
AcDbLine
 10
-2.5
 20
-0.4999999999998863
 11
-0.5
 21
-0.4999999999998863
  0
LINE
  5
2B8
100
AcDbEntity
  8
0
  6
CONTINUOUS
 62
    7
370
   -1
100
AcDbLine
 10
-0.5
 20
0.5000000000001137
 11
-0.5
 21
-0.4999999999998863
  0
LWPOLYLINE
  5
2B9
100
AcDbEntity
  8
0
  6
CONTINUOUS
 62
    7
370
   -1
100
AcDbPolyline
 90
    3
 70
    0
 43
0
 10
0.5
 20
0.5000000000001137
 10
0.5
 20
-0.4333333333332803
 10
2.5
 20
-0.4333333333332803
  0
ENDBLK
  5
C7
330
C5
100
AcDbEntity
  8
0
100
AcDbBlockEnd
  0
BLOCK
  5
C9
330
C8
100
AcDbEntity
  8
0
100
AcDbBlockBegin
  2
Thermostaat
 70
    0
 10
0
 20
0
  3
Thermostaat
  1

  0
LWPOLYLINE
  5
2BA
100
AcDbEntity
  8
0
  6
CONTINUOUS
 62
    7
370
   -1
100
AcDbPolyline
 90
    4
 70
    1
 43
0
 10
-3.500000000000057
 20
-1.5
 10
3.499999999999943
 20
-1.5
 10
3.499999999999943
 20
1.5
 10
-3.500000000000057
 20
1.5
  0
CIRCLE
  5
2BB
100
AcDbEntity
  8
0
  6
CONTINUOUS
 62
    7
370
   -1
100
AcDbCircle
 10
0
 20
0
 40
0.6999999999999988
  0
HATCH
  5
2BC
100
AcDbEntity
  8
0
  6
ByLayer
 62
  256
370
   -1
100
AcDbHatch
 10
0
 20
0
 30
0
210
0
220
0
230
1
  2
SOLID
 70
    1
 71
    0
 91
    1
 92
    0
 93
    1
 72
    2
 10
0
 20
0
 40
0.6999999999999988
 50
0
 51
360
 73
    1
 97
    0
 75
    0
 76
    1
 98
    0
  0
ENDBLK
  5
CA
330
C8
100
AcDbEntity
  8
0
100
AcDbBlockEnd
  0
BLOCK
  5
CC
330
CB
100
AcDbEntity
  8
0
100
AcDbBlockBegin
  2
Rondecontrole
 70
    0
 10
0
 20
0
  3
Rondecontrole
  1

  0
LWPOLYLINE
  5
2BD
100
AcDbEntity
  8
0
  6
CONTINUOUS
 62
    7
370
   -1
100
AcDbPolyline
 90
    4
 70
    1
 43
0
 10
-3.5
 20
-1.5
 10
3.5
 20
-1.5
 10
3.5
 20
1.5
 10
-3.5
 20
1.5
  0
ELLIPSE
  5
2BE
100
AcDbEntity
  8
0
  6
CONTINUOUS
 62
    7
370
   -1
100
AcDbEllipse
 10
0.06666666666671972
 20
0.5132148853420517
 30
0
 11
0.7000000000000095
 21
0
 31
0
 40
0.9775784753363088
 41
5.293403481012643
 42
10.34317039882189
  0
LWPOLYLINE
  5
2BF
100
AcDbEntity
  8
0
  6
CONTINUOUS
 62
    7
370
   -1
100
AcDbPolyline
 90
    4
 70
    0
 43
0
 10
0.450877239226287
 20
-0.05879988410788428
 10
0.660505529225901
 20
-1.100000000000023
 10
-0.5736176935229196
 20
-1.100000000000023
 10
-0.3583021798631307
 20
-0.03055208447125324
  0
HATCH
  5
2C0
100
AcDbEntity
  8
0
  6
ByLayer
 62
  256
370
   -1
100
AcDbHatch
 10
0
 20
0
 30
0
210
0
220
0
230
1
  2
SOLID
 70
    1
 71
    0
 91
    1
 92
    0
 93
    4
 72
    1
 10
-0.3583021798631271
 20
-0.0305520844712351
 11
-0.5736176935229196
 21
-1.100000000000023
 72
    1
 10
-0.5736176935229196
 20
-1.100000000000023
 11
0.660505529225901
 21
-1.100000000000023
 72
    1
 10
0.660505529225901
 20
-1.100000000000023
 11
0.450877239226291
 21
-0.05879988410790382
 72
    3
 10
0.06666666666671972
 20
0.5132148853420517
 11
0.7000000000000095
 21
0
 40
0.9775784753363088
 50
303.2896787218828
 51
232.6200106371384
 73
    1
 97
    0
 75
    0
 76
    1
 98
    0
  0
ENDBLK
  5
CD
330
CB
100
AcDbEntity
  8
0
100
AcDbBlockEnd
  0
BLOCK
  5
CF
330
CE
100
AcDbEntity
  8
0
100
AcDbBlockBegin
  2
Stopcontact
 70
    0
 10
0
 20
0
  3
Stopcontact
  1

  0
LWPOLYLINE
  5
2C1
100
AcDbEntity
  8
0
  6
CONTINUOUS
 62
    7
370
   -1
100
AcDbPolyline
 90
    3
 70
    0
 43
0
 10
2.999235298575371
 20
1.666284315954156
 42
0.4142135623730923
 10
1.332568631908715
 20
-0.0003823507125193705
 42
0.4142135623730973
 10
2.999235298575369
 20
-1.667049017379156
 42
0.4142135623730973
  0
LINE
  5
2C2
100
AcDbEntity
  8
0
  6
CONTINUOUS
 62
    7
370
   -1
100
AcDbLine
 10
1.333333333333073
 20
0
 11
0
 21
0
  0
ENDBLK
  5
D0
330
CE
100
AcDbEntity
  8
0
100
AcDbBlockEnd
  0
BLOCK
  5
D2
330
D1
100
AcDbEntity
  8
0
100
AcDbBlockBegin
  2
MeervoudigStopcontact3
 70
    0
 10
0
 20
0
  3
MeervoudigStopcontact3
  1

  0
LWPOLYLINE
  5
2C3
100
AcDbEntity
  8
0
  6
CONTINUOUS
 62
    7
370
   -1
100
AcDbPolyline
 90
    3
 70
    0
 43
0
 10
4.331803930484085
 20
1.66590196524163
 42
0.4142135623730923
 10
2.665137263817432
 20
-0.0007647014250471609
 42
0.4142135623730974
 10
4.331803930484083
 20
-1.667431368091686
 42
0.4142135623730974
  0
LINE
  5
2C4
100
AcDbEntity
  8
0
  6
CONTINUOUS
 62
    7
370
   -1
100
AcDbLine
 10
2.665901965241787
 20
-0.0003823507125275682
 11
1.332568631908714
 21
-0.0003823507125275682
  0
LWPOLYLINE
  5
2C5
100
AcDbEntity
  8
0
  6
CONTINUOUS
 62
    7
370
   -1
100
AcDbPolyline
 90
    3
 70
    0
 43
0
 10
5.665137263817158
 20
1.66590196524163
 42
0.4142135623730923
 10
3.998470597150501
 20
-0.0007647014250472348
 42
0.4142135623730973
 10
5.665137263817154
 20
-1.667431368091687
 42
0.4142135623730973
  0
LINE
  5
2C6
100
AcDbEntity
  8
0
  6
CONTINUOUS
 62
    7
370
   -1
100
AcDbLine
 10
3.99923529857486
 20
-0.0003823507125275682
 11
2.665901965241787
 21
-0.0003823507125275682
  0
LWPOLYLINE
  5
2C7
100
AcDbEntity
  8
0
  6
CONTINUOUS
 62
    7
370
   -1
100
AcDbPolyline
 90
    3
 70
    0
 43
0
 10
2.999235298575371
 20
1.666284315954156
 42
0.4142135623730923
 10
1.332568631908715
 20
-0.0003823507125193705
 42
0.4142135623730973
 10
2.999235298575369
 20
-1.667049017379156
 42
0.4142135623730973
  0
LINE
  5
2C8
100
AcDbEntity
  8
0
  6
CONTINUOUS
 62
    7
370
   -1
100
AcDbLine
 10
1.333333333333073
 20
0
 11
0
 21
0
  0
ENDBLK
  5
D3
330
D1
100
AcDbEntity
  8
0
100
AcDbBlockEnd
  0
BLOCK
  5
D5
330
D4
100
AcDbEntity
  8
0
100
AcDbBlockBegin
  2
WaterdichtStopcontact
 70
    0
 10
0
 20
0
  3
WaterdichtStopcontact
  1

  0
LWPOLYLINE
  5
2C9
100
AcDbEntity
  8
0
  6
CONTINUOUS
 62
    7
370
   -1
100
AcDbPolyline
 90
    3
 70
    0
 43
0
 10
2.999235298575385
 20
1.666284315954328
 42
0.4142135623730923
 10
1.332568631908716
 20
-0.0003823507123538363
 42
0.4142135623730976
 10
2.999235298575382
 20
-1.667049017378988
 42
0.4142135623730976
  0
LINE
  5
2CA
100
AcDbEntity
  8
0
  6
CONTINUOUS
 62
    7
370
   -1
100
AcDbLine
 10
1.333333333333073
 20
0
 11
0
 21
0
  0
MTEXT
  5
2CB
100
AcDbEntity
  8
0
  6
ByLayer
 62
  256
370
   -1
100
AcDbMText
 10
-1.000000000000014
 20
-1.000382350712414
 30
0
 40
1.28412799090147
 41
29.74896512255098
 71
    5
 72
    5
  1
\C7;\fArial|b0|i0|;\H1.2841279909015;h
  7
standard
210
0
220
0
230
1
 50
0
 73
    1
 44
1
  0
ENDBLK
  5
D6
330
D4
100
AcDbEntity
  8
0
100
AcDbBlockEnd
  0
BLOCK
  5
D8
330
D7
100
AcDbEntity
  8
0
100
AcDbBlockBegin
  2
StopcontactMetKinderbescherming
 70
    0
 10
0
 20
0
  3
StopcontactMetKinderbescherming
  1

  0
LWPOLYLINE
  5
2CC
100
AcDbEntity
  8
0
  6
CONTINUOUS
 62
    7
370
   -1
100
AcDbPolyline
 90
    3
 70
    0
 43
0
 10
3.000000000000142
 20
1.666666666666629
 42
0.4142135623730924
 10
1.333333333333485
 20
9.442497420538297e-016
 42
0.4142135623730971
 10
3.000000000000142
 20
-1.666666666666686
 42
0.4142135623730971
  0
LINE
  5
2CD
100
AcDbEntity
  8
0
  6
CONTINUOUS
 62
    7
370
   -1
100
AcDbLine
 10
1.333333333333087
 20
0
 11
0
 21
0
  0
LINE
  5
2CE
100
AcDbEntity
  8
0
  6
CONTINUOUS
 62
    7
370
   -1
100
AcDbLine
 10
2.999999999999972
 20
2
 11
2.999999999999972
 21
1.666666666666686
  0
LINE
  5
2CF
100
AcDbEntity
  8
0
  6
CONTINUOUS
 62
    7
370
   -1
100
AcDbLine
 10
2.988814569583184
 20
-1.666629132087962
 11
2.988814569583184
 21
-2
  0
ENDBLK
  5
D9
330
D7
100
AcDbEntity
  8
0
100
AcDbBlockEnd
  0
BLOCK
  5
DB
330
DA
100
AcDbEntity
  8
0
100
AcDbBlockBegin
  2
StopcontactMetContactVoorBeschermgeleider
 70
    0
 10
0
 20
0
  3
StopcontactMetContactVoorBeschermgeleider
  1

  0
LWPOLYLINE
  5
2D0
100
AcDbEntity
  8
0
  6
CONTINUOUS
 62
    7
370
   -1
100
AcDbPolyline
 90
    3
 70
    0
 43
0
 10
3.000000000000171
 20
1.666666666666685
 42
0.4142135623730924
 10
1.333333333333484
 20
3.608785001154306e-015
 42
0.4142135623730976
 10
3.000000000000143
 20
-1.666666666666629
 42
0.4142135623730976
  0
LINE
  5
2D1
100
AcDbEntity
  8
0
  6
CONTINUOUS
 62
    7
370
   -1
100
AcDbLine
 10
1.333333333333087
 20
2
 11
1.333333333333087
 21
-2
  0
LINE
  5
2D2
100
AcDbEntity
  8
0
  6
CONTINUOUS
 62
    7
370
   -1
100
AcDbLine
 10
1.333333333333087
 20
0
 11
0
 21
0
  0
ENDBLK
  5
DC
330
DA
100
AcDbEntity
  8
0
100
AcDbBlockEnd
  0
BLOCK
  5
DE
330
DD
100
AcDbEntity
  8
0
100
AcDbBlockBegin
  2
StopcontactMetContactVoorBeschermingsgeleiderEnKinderbescherming
 70
    0
 10
0
 20
0
  3
StopcontactMetContactVoorBeschermingsgeleiderEnKinderbescherming
  1

  0
LWPOLYLINE
  5
2D3
100
AcDbEntity
  8
0
  6
CONTINUOUS
 62
    7
370
   -1
100
AcDbPolyline
 90
    3
 70
    0
 43
0
 10
3.000000000000156
 20
1.666666666666684
 42
0.4142135623730925
 10
1.333333333333483
 20
3.867837040233548e-015
 42
0.4142135623730973
 10
3.000000000000153
 20
-1.666666666666631
 42
0.4142135623730973
  0
LINE
  5
2D4
100
AcDbEntity
  8
0
  6
CONTINUOUS
 62
    7
370
   -1
100
AcDbLine
 10
1.333333333333087
 20
2
 11
1.333333333333087
 21
-2
  0
LINE
  5
2D5
100
AcDbEntity
  8
0
  6
CONTINUOUS
 62
    7
370
   -1
100
AcDbLine
 10
1.333333333333087
 20
0
 11
0
 21
0
  0
LINE
  5
2D6
100
AcDbEntity
  8
0
  6
CONTINUOUS
 62
    7
370
   -1
100
AcDbLine
 10
2.999999999999972
 20
2.000000000000057
 11
2.999999999999972
 21
1.666666666666686
  0
LINE
  5
2D7
100
AcDbEntity
  8
0
  6
CONTINUOUS
 62
    7
370
   -1
100
AcDbLine
 10
2.988814569583184
 20
-1.666629132087962
 11
2.988814569583184
 21
-2
  0
ENDBLK
  5
DF
330
DD
100
AcDbEntity
  8
0
100
AcDbBlockEnd
  0
BLOCK
  5
E1
330
E0
100
AcDbEntity
  8
0
100
AcDbBlockBegin
  2
StopcontactMetTweepoligeSchakelaar
 70
    0
 10
0
 20
0
  3
StopcontactMetTweepoligeSchakelaar
  1

  0
LWPOLYLINE
  5
2D8
100
AcDbEntity
  8
0
  6
CONTINUOUS
 62
    7
370
   -1
100
AcDbPolyline
 90
    3
 70
    0
 43
0
 10
3.000000000000114
 20
1.666666666666627
 42
0.4142135623730924
 10
1.333333333333485
 20
-1.289658484174852e-016
 42
0.4142135623730971
 10
3.000000000000112
 20
-1.666666666666687
 42
0.4142135623730971
  0
LINE
  5
2D9
100
AcDbEntity
  8
0
  6
CONTINUOUS
 62
    7
370
   -1
100
AcDbLine
 10
1.333333333333059
 20
2
 11
1.333333333333059
 21
-2
  0
LINE
  5
2DA
100
AcDbEntity
  8
0
  6
CONTINUOUS
 62
    7
370
   -1
100
AcDbLine
 10
1.333333333333059
 20
0
 11
0
 21
0
  0
LINE
  5
2DB
100
AcDbEntity
  8
0
  6
CONTINUOUS
 62
    7
370
   -1
100
AcDbLine
 10
2.999999999999943
 20
2
 11
2.999999999999943
 21
1.666666666666629
  0
LINE
  5
2DC
100
AcDbEntity
  8
0
  6
CONTINUOUS
 62
    7
370
   -1
100
AcDbLine
 10
2.988814569583212
 20
-1.666629132087905
 11
2.988814569583212
 21
-2
  0
LINE
  5
2DD
100
AcDbEntity
  8
0
  6
CONTINUOUS
 62
    7
370
   -1
100
AcDbLine
 10
1.309701954761522
 20
0.01177777974953642
 11
-1.909701954761204
 21
-1.260003148593853
  0
LINE
  5
2DE
100
AcDbEntity
  8
0
  6
CONTINUOUS
 62
    7
370
   -1
100
AcDbLine
 10
-1.909701954760976
 20
-1.260003148593853
 11
-1.518036600008372
 21
-2.200000000000045
  0
LINE
  5
2DF
100
AcDbEntity
  8
0
  6
CONTINUOUS
 62
    7
370
   -1
100
AcDbLine
 10
-0.9489241779692179
 20
-0.8740492483743196
 11
-0.5572588232166709
 21
-1.814046099780512
  0
ENDBLK
  5
E2
330
E0
100
AcDbEntity
  8
0
100
AcDbBlockEnd
  0
BLOCK
  5
E4
330
E3
100
AcDbEntity
  8
0
100
AcDbBlockBegin
  2
StopcontactMetBeschermingstransformator
 70
    0
 10
0
 20
0
  3
StopcontactMetBeschermingstransformator
  1

  0
LWPOLYLINE
  5
2E0
100
AcDbEntity
  8
0
  6
CONTINUOUS
 62
    7
370
   -1
100
AcDbPolyline
 90
    3
 70
    0
 43
0
 10
5.192137796574542
 20
1.666666666666685
 42
0.4142135623730921
 10
3.525471129907884
 20
6.680402035950519e-015
 42
0.4142135623730971
 10
5.192137796574539
 20
-1.666666666666631
 42
0.4142135623730971
  0
LINE
  5
2E1
100
AcDbEntity
  8
0
  6
CONTINUOUS
 62
    7
370
   -1
100
AcDbLine
 10
1.333333333333087
 20
2
 11
1.333333333333087
 21
-2
  0
LINE
  5
2E2
100
AcDbEntity
  8
0
  6
CONTINUOUS
 62
    7
370
   -1
100
AcDbLine
 10
1.333333333333087
 20
0
 11
0
 21
0
  0
LWPOLYLINE
  5
2E3
100
AcDbEntity
  8
0
  6
CONTINUOUS
 62
    7
370
   -1
100
AcDbPolyline
 90
    3
 70
    0
 43
0
 10
2.999999999999694
 20
1.666666666666627
 42
0.4142135623730924
 10
1.333333333333035
 20
-4.879374176115316e-014
 42
0.4142135623730974
 10
2.99999999999969
 20
-1.666666666666688
 42
0.4142135623730974
  0
LWPOLYLINE
  5
2E4
100
AcDbEntity
  8
0
  6
CONTINUOUS
 62
    7
370
   -1
100
AcDbPolyline
 90
    3
 70
    0
 43
0
 10
2.999999999999588
 20
1.666666666666629
 42
-0.4142135623730924
 10
4.666666666666273
 20
-5.684291289979433e-014
 42
-0.4142135623730971
 10
2.999999999999643
 20
-1.666666666666686
 42
-0.4142135623730971
  0
ENDBLK
  5
E5
330
E3
100
AcDbEntity
  8
0
100
AcDbBlockEnd
  0
BLOCK
  5
E7
330
E6
100
AcDbEntity
  8
0
100
AcDbBlockBegin
  2
StopcontactMetTweepoligeVergrendelingsschakelaar
 70
    0
 10
0
 20
0
  3
StopcontactMetTweepoligeVergrendelingsschakelaar
  1

  0
LWPOLYLINE
  5
2E5
100
AcDbEntity
  8
0
  6
CONTINUOUS
 62
    7
370
   -1
100
AcDbPolyline
 90
    3
 70
    0
 43
0
 10
3.000000000000142
 20
1.666666666666629
 42
0.4142135623730924
 10
1.333333333333485
 20
9.442497420538297e-016
 42
0.4142135623730971
 10
3.000000000000142
 20
-1.666666666666686
 42
0.4142135623730971
  0
LINE
  5
2E6
100
AcDbEntity
  8
0
  6
CONTINUOUS
 62
    7
370
   -1
100
AcDbLine
 10
1.333333333333087
 20
0
 11
0
 21
0
  0
LINE
  5
2E7
100
AcDbEntity
  8
0
  6
CONTINUOUS
 62
    7
370
   -1
100
AcDbLine
 10
1.30970195476155
 20
0.01177777974953642
 11
-1.909701954761175
 21
-1.260003148593853
  0
LINE
  5
2E8
100
AcDbEntity
  8
0
  6
CONTINUOUS
 62
    7
370
   -1
100
AcDbLine
 10
-1.909701954761005
 20
-1.260003148593853
 11
-1.518036600008372
 21
-2.200000000000045
  0
LINE
  5
2E9
100
AcDbEntity
  8
0
  6
CONTINUOUS
 62
    7
370
   -1
100
AcDbLine
 10
-0.9489241779691895
 20
-0.8740492483743196
 11
-0.5572588232166424
 21
-1.814046099780512
  0
CIRCLE
  5
2EA
100
AcDbEntity
  8
0
  6
CONTINUOUS
 62
    7
370
   -1
100
AcDbCircle
 10
1.366666666667243
 20
0
 40
0.3999999999999991
  0
HATCH
  5
2EB
100
AcDbEntity
  8
0
  6
ByLayer
 62
  256
370
   -1
100
AcDbHatch
 10
0
 20
0
 30
0
210
0
220
0
230
1
  2
SOLID
 70
    1
 71
    0
 91
    1
 92
    0
 93
    1
 72
    2
 10
1.366666666667243
 20
0
 40
0.3999999999999991
 50
0
 51
360
 73
    1
 97
    0
 75
    0
 76
    1
 98
    0
  0
ENDBLK
  5
E8
330
E6
100
AcDbEntity
  8
0
100
AcDbBlockEnd
  0
BLOCK
  5
EA
330
E9
100
AcDbEntity
  8
0
100
AcDbBlockBegin
  2
AansluitpuntVoorVerlichtingstoestel
 70
    0
 10
0
 20
0
  3
AansluitpuntVoorVerlichtingstoestel
  1

  0
LINE
  5
2EC
100
AcDbEntity
  8
0
  6
CONTINUOUS
 62
    7
370
   -1
100
AcDbLine
 10
-2
 20
2
 11
2.000000000000057
 21
-2
  0
LINE
  5
2ED
100
AcDbEntity
  8
0
  6
CONTINUOUS
 62
    7
370
   -1
100
AcDbLine
 10
2
 20
2.000000000000114
 11
-1.999999999999943
 21
-2
  0
ENDBLK
  5
EB
330
E9
100
AcDbEntity
  8
0
100
AcDbBlockEnd
  0
BLOCK
  5
ED
330
EC
100
AcDbEntity
  8
0
100
AcDbBlockBegin
  2
AansluitpuntVoorWandverlichtingstoestel
 70
    0
 10
0
 20
0
  3
AansluitpuntVoorWandverlichtingstoestel
  1

  0
LINE
  5
2EE
100
AcDbEntity
  8
0
  6
CONTINUOUS
 62
    7
370
   -1
100
AcDbLine
 10
1.999999999999972
 20
2
 11
-1.999999999999972
 21
-2
  0
LINE
  5
2EF
100
AcDbEntity
  8
0
  6
CONTINUOUS
 62
    7
370
   -1
100
AcDbLine
 10
1.999999999999986
 20
-2
 11
-1.999999999999986
 21
2
  0
LINE
  5
2F0
100
AcDbEntity
  8
0
  6
CONTINUOUS
 62
    7
370
   -1
100
AcDbLine
 10
3.999999999999972
 20
-3
 11
-4.000000000000071
 21
-3
  0
ENDBLK
  5
EE
330
EC
100
AcDbEntity
  8
0
100
AcDbBlockEnd
  0
BLOCK
  5
F0
330
EF
100
AcDbEntity
  8
0
100
AcDbBlockBegin
  2
Fluorecentiearmatuur
 70
    0
 10
0
 20
0
  3
Fluorecentiearmatuur
  1

  0
LINE
  5
2F1
100
AcDbEntity
  8
0
  6
CONTINUOUS
 62
    7
370
   -1
100
AcDbLine
 10
-4
 20
1
 11
-4
 21
-1
  0
LINE
  5
2F2
100
AcDbEntity
  8
0
  6
CONTINUOUS
 62
    7
370
   -1
100
AcDbLine
 10
4
 20
1
 11
4
 21
-1
  0
LINE
  5
2F3
100
AcDbEntity
  8
0
  6
CONTINUOUS
 62
    7
370
   -1
100
AcDbLine
 10
-4
 20
0
 11
4
 21
0
  0
ENDBLK
  5
F1
330
EF
100
AcDbEntity
  8
0
100
AcDbBlockEnd
  0
BLOCK
  5
F3
330
F2
100
AcDbEntity
  8
0
100
AcDbBlockBegin
  2
ArmatuurMet3Buislampen
 70
    0
 10
0
 20
0
  3
ArmatuurMet3Buislampen
  1

  0
LINE
  5
2F4
100
AcDbEntity
  8
0
  6
CONTINUOUS
 62
    7
370
   -1
100
AcDbLine
 10
-4
 20
1
 11
-4
 21
-1
  0
LINE
  5
2F5
100
AcDbEntity
  8
0
  6
CONTINUOUS
 62
    7
370
   -1
100
AcDbLine
 10
4
 20
1
 11
4
 21
-1
  0
LINE
  5
2F6
100
AcDbEntity
  8
0
  6
CONTINUOUS
 62
    7
370
   -1
100
AcDbLine
 10
-4
 20
0
 11
4
 21
0
  0
LINE
  5
2F7
100
AcDbEntity
  8
0
  6
CONTINUOUS
 62
    7
370
   -1
100
AcDbLine
 10
-4
 20
3
 11
-4
 21
1
  0
LINE
  5
2F8
100
AcDbEntity
  8
0
  6
CONTINUOUS
 62
    7
370
   -1
100
AcDbLine
 10
4
 20
3
 11
4
 21
1
  0
LINE
  5
2F9
100
AcDbEntity
  8
0
  6
CONTINUOUS
 62
    7
370
   -1
100
AcDbLine
 10
-4
 20
2
 11
4
 21
2
  0
LINE
  5
2FA
100
AcDbEntity
  8
0
  6
CONTINUOUS
 62
    7
370
   -1
100
AcDbLine
 10
-4
 20
-1
 11
-4
 21
-3
  0
LINE
  5
2FB
100
AcDbEntity
  8
0
  6
CONTINUOUS
 62
    7
370
   -1
100
AcDbLine
 10
4
 20
-1
 11
4
 21
-3
  0
LINE
  5
2FC
100
AcDbEntity
  8
0
  6
CONTINUOUS
 62
    7
370
   -1
100
AcDbLine
 10
-4
 20
-2
 11
4
 21
-2
  0
ENDBLK
  5
F4
330
F2
100
AcDbEntity
  8
0
100
AcDbBlockEnd
  0
BLOCK
  5
F6
330
F5
100
AcDbEntity
  8
0
100
AcDbBlockBegin
  2
Projector
 70
    0
 10
0
 20
0
  3
Projector
  1

  0
ELLIPSE
  5
2FD
100
AcDbEntity
  8
0
  6
CONTINUOUS
 62
    7
370
   -1
100
AcDbEllipse
 10
-2.842170943040401e-014
 20
1.13686837721616e-013
 30
0
 11
0
 21
-1.999999999999996
 31
0
 40
0.9750000000000003
 41
0
 42
6.283185307179586
  0
LWPOLYLINE
  5
2FE
100
AcDbEntity
  8
0
  6
CONTINUOUS
 62
    7
370
   -1
100
AcDbPolyline
 90
    3
 70
    0
 43
0
 10
4.057355579981891e-016
 20
3.000000000000114
 42
0.4142135623730894
 10
-3.000000000000001
 20
1.231580484296881e-013
 42
0.4142135623730844
 10
-5.880143377422096e-015
 20
-2.999999999999892
 42
0.4142135623730844
  0
ENDBLK
  5
F7
330
F5
100
AcDbEntity
  8
0
100
AcDbBlockEnd
  0
BLOCK
  5
F9
330
F8
100
AcDbEntity
  8
0
100
AcDbBlockBegin
  2
ProjectorMetWeinigDevergerendeLichtbundel
 70
    0
 10
0
 20
0
  3
ProjectorMetWeinigDevergerendeLichtbundel
  1

  0
ELLIPSE
  5
2FF
100
AcDbEntity
  8
0
  6
CONTINUOUS
 62
    7
370
   -1
100
AcDbEllipse
 10
-21.53139970628546
 20
-568.5935221513209
 30
0
 11
0
 21
-1.999999999999996
 31
0
 40
0.9750000000000003
 41
0
 42
6.283185307179586
  0
LWPOLYLINE
  5
300
100
AcDbEntity
  8
0
  6
CONTINUOUS
 62
    7
370
   -1
100
AcDbPolyline
 90
    3
 70
    0
 43
0
 10
-21.53139970628544
 20
-565.5935221513208
 42
0.4142135623730842
 10
-24.53139970628544
 20
-568.5935221513209
 42
0.4142135623730728
 10
-21.53139970628544
 20
-571.5935221513209
 42
0.4142135623730728
  0
LINE
  5
301
100
AcDbEntity
  8
0
  6
CONTINUOUS
 62
    7
370
   -1
100
AcDbLine
 10
-19.53139970628547
 20
-566.5935221513209
 11
-16.53139970628546
 21
-566.5935221513209
  0
LINE
  5
302
100
AcDbEntity
  8
0
  6
CONTINUOUS
 62
    7
370
   -1
100
AcDbLine
 10
-19.53139970628547
 20
-570.5935221513209
 11
-16.53139970628546
 21
-570.5935221513209
  0
LINE
  5
303
100
AcDbEntity
  8
0
  6
CONTINUOUS
 62
    7
370
   -1
100
AcDbLine
 10
-17.5138868730287
 20
-566.2359260670778
 11
-16.53139970628547
 21
-566.5935221513209
  0
LINE
  5
304
100
AcDbEntity
  8
0
  6
CONTINUOUS
 62
    7
370
   -1
100
AcDbLine
 10
-17.5138868730287
 20
-566.9511182355641
 11
-16.53139970628547
 21
-566.5935221513209
  0
LINE
  5
305
100
AcDbEntity
  8
0
  6
CONTINUOUS
 62
    7
370
   -1
100
AcDbLine
 10
-17.5138868730287
 20
-570.2359260670778
 11
-16.53139970628547
 21
-570.5935221513209
  0
LINE
  5
306
100
AcDbEntity
  8
0
  6
CONTINUOUS
 62
    7
370
   -1
100
AcDbLine
 10
-17.5138868730287
 20
-570.9511182355641
 11
-16.53139970628547
 21
-570.5935221513209
  0
ENDBLK
  5
FA
330
F8
100
AcDbEntity
  8
0
100
AcDbBlockEnd
  0
BLOCK
  5
FC
330
FB
100
AcDbEntity
  8
0
100
AcDbBlockBegin
  2
ProjectorMetDevergerendeLichtbundel
 70
    0
 10
0
 20
0
  3
ProjectorMetDevergerendeLichtbundel
  1

  0
ELLIPSE
  5
307
100
AcDbEntity
  8
0
  6
CONTINUOUS
 62
    7
370
   -1
100
AcDbEllipse
 10
2.842170943040401e-014
 20
1.13686837721616e-013
 30
0
 11
0
 21
-1.999999999999996
 31
0
 40
0.9750000000000003
 41
0
 42
6.283185307179586
  0
LWPOLYLINE
  5
308
100
AcDbEntity
  8
0
  6
CONTINUOUS
 62
    7
370
   -1
100
AcDbPolyline
 90
    3
 70
    0
 43
0
 10
4.057355579981891e-016
 20
3.000000000000114
 42
0.4142135623730894
 10
-3.000000000000001
 20
1.231580484296881e-013
 42
0.4142135623730844
 10
-5.880143377422096e-015
 20
-2.999999999999892
 42
0.4142135623730844
  0
LINE
  5
309
100
AcDbEntity
  8
0
  6
CONTINUOUS
 62
    7
370
   -1
100
AcDbLine
 10
2.000000000000028
 20
2.000000000000114
 11
4.846049894151459
 21
2.948683298050696
  0
LINE
  5
30A
100
AcDbEntity
  8
0
  6
CONTINUOUS
 62
    7
370
   -1
100
AcDbLine
 10
3.800898917656696
 20
2.97723900874098
 11
4.846049894151548
 21
2.948683298050696
  0
LINE
  5
30B
100
AcDbEntity
  8
0
  6
CONTINUOUS
 62
    7
370
   -1
100
AcDbLine
 10
4.027062539369894
 20
2.298748143601529
 11
4.846049894151548
 21
2.948683298050696
  0
LINE
  5
30C
100
AcDbEntity
  8
0
  6
CONTINUOUS
 62
    7
370
   -1
100
AcDbLine
 10
2.000000000000028
 20
-1.999999999999886
 11
4.846049894151459
 21
-2.948683298050469
  0
LINE
  5
30D
100
AcDbEntity
  8
0
  6
CONTINUOUS
 62
    7
370
   -1
100
AcDbLine
 10
3.800898917656696
 20
-2.977239008740753
 11
4.846049894151548
 21
-2.948683298050469
  0
LINE
  5
30E
100
AcDbEntity
  8
0
  6
CONTINUOUS
 62
    7
370
   -1
100
AcDbLine
 10
4.027062539369894
 20
-2.298748143601301
 11
4.846049894151548
 21
-2.948683298050469
  0
ENDBLK
  5
FD
330
FB
100
AcDbEntity
  8
0
100
AcDbBlockEnd
  0
BLOCK
  5
FF
330
FE
100
AcDbEntity
  8
0
100
AcDbBlockBegin
  2
VerlichtingsarmatuurMetIngebouwdeEnkelpoligeSchakelaar
 70
    0
 10
0
 20
0
  3
VerlichtingsarmatuurMetIngebouwdeEnkelpoligeSchakelaar
  1

  0
LINE
  5
30F
100
AcDbEntity
  8
0
  6
CONTINUOUS
 62
    7
370
   -1
100
AcDbLine
 10
-2.000000000000078
 20
2
 11
1.999999999999979
 21
-1.999999999999886
  0
LINE
  5
310
100
AcDbEntity
  8
0
  6
CONTINUOUS
 62
    7
370
   -1
100
AcDbLine
 10
1.999999999999908
 20
2.000000000000114
 11
-2.000000000000021
 21
-1.999999999999886
  0
LINE
  5
311
100
AcDbEntity
  8
0
  6
CONTINUOUS
 62
    7
370
   -1
100
AcDbLine
 10
1.999999999999936
 20
2.000000000000114
 11
2.966666666666605
 21
1.033333333333417
  0
ENDBLK
  5
100
330
FE
100
AcDbEntity
  8
0
100
AcDbBlockEnd
  0
BLOCK
  5
102
330
101
100
AcDbEntity
  8
0
100
AcDbBlockBegin
  2
NoodverlichtingstoestelAangeslotenOpEenSpecialeStroombaan
 70
    0
 10
0
 20
0
  3
NoodverlichtingstoestelAangeslotenOpEenSpecialeStroombaan
  1

  0
CIRCLE
  5
312
100
AcDbEntity
  8
0
  6
CONTINUOUS
 62
    7
370
   -1
100
AcDbCircle
 10
5.329070518200751e-014
 20
0
 40
1.000000000000021
  0
LINE
  5
313
100
AcDbEntity
  8
0
  6
CONTINUOUS
 62
    7
370
   -1
100
AcDbLine
 10
-1.999999999999975
 20
1.999999999999886
 11
2.000000000000053
 21
-2
  0
LINE
  5
314
100
AcDbEntity
  8
0
  6
CONTINUOUS
 62
    7
370
   -1
100
AcDbLine
 10
1.999999999999996
 20
2
 11
-1.999999999999947
 21
-2
  0
HATCH
  5
315
100
AcDbEntity
  8
0
  6
ByLayer
 62
  256
370
   -1
100
AcDbHatch
 10
0
 20
0
 30
0
210
0
220
0
230
1
  2
SOLID
 70
    1
 71
    0
 91
    1
 92
    0
 93
    1
 72
    2
 10
5.329070518200751e-014
 20
0
 40
1.000000000000021
 50
0
 51
360
 73
    1
 97
    0
 75
    0
 76
    1
 98
    0
  0
ENDBLK
  5
103
330
101
100
AcDbEntity
  8
0
100
AcDbBlockEnd
  0
BLOCK
  5
105
330
104
100
AcDbEntity
  8
0
100
AcDbBlockBegin
  2
AutonoomNoodverlichtingstoestel
 70
    0
 10
0
 20
0
  3
AutonoomNoodverlichtingstoestel
  1

  0
CIRCLE
  5
316
100
AcDbEntity
  8
0
  6
ByLayer
 62
  256
370
   -1
100
AcDbCircle
 10
0
 20
0
 40
1.000000000000021
  0
LINE
  5
317
100
AcDbEntity
  8
0
  6
ByLayer
 62
  256
370
   -1
100
AcDbLine
 10
-2.000000000000028
 20
1.999999999999886
 11
2
 21
-2
  0
LINE
  5
318
100
AcDbEntity
  8
0
  6
ByLayer
 62
  256
370
   -1
100
AcDbLine
 10
1.999999999999943
 20
2
 11
-2
 21
-2
  0
LWPOLYLINE
  5
319
100
AcDbEntity
  8
0
  6
ByLayer
 62
  256
370
   -1
100
AcDbPolyline
 90
    4
 70
    1
 43
0
 10
-2.879999999999985
 20
-2.879999999999995
 10
2.879999999999932
 20
-2.879999999999995
 10
2.879999999999932
 20
2.879999999999995
 10
-2.879999999999985
 20
2.879999999999995
  0
HATCH
  5
31A
100
AcDbEntity
  8
0
  6
ByLayer
 62
  256
370
   -1
100
AcDbHatch
 10
0
 20
0
 30
0
210
0
220
0
230
1
  2
SOLID
 70
    1
 71
    0
 91
    1
 92
    0
 93
    1
 72
    2
 10
0
 20
0
 40
1.000000000000021
 50
0
 51
360
 73
    1
 97
    0
 75
    0
 76
    1
 98
    0
  0
ENDBLK
  5
106
330
104
100
AcDbEntity
  8
0
100
AcDbBlockEnd
  0
BLOCK
  5
108
330
107
100
AcDbEntity
  8
0
100
AcDbBlockBegin
  2
VoorschakeltoestelVoorOntladingslamp
 70
    0
 10
0
 20
0
  3
VoorschakeltoestelVoorOntladingslamp
  1

  0
LWPOLYLINE
  5
31B
100
AcDbEntity
  8
0
  6
CONTINUOUS
 62
    7
370
   -1
100
AcDbPolyline
 90
    4
 70
    1
 43
0
 10
-3.5
 20
-1.499999999999886
 10
3.5
 20
-1.499999999999886
 10
3.5
 20
1.5
 10
-3.5
 20
1.5
  0
LWPOLYLINE
  5
31C
100
AcDbEntity
  8
0
  6
CONTINUOUS
 62
    7
370
   -1
100
AcDbPolyline
 90
    4
 70
    1
 43
0
 10
-2.5
 20
-0.5
 10
2.5
 20
-0.5
 10
2.5
 20
0.5
 10
-2.5
 20
0.5
  0
ENDBLK
  5
109
330
107
100
AcDbEntity
  8
0
100
AcDbBlockEnd
  0
BLOCK
  5
10B
330
10A
100
AcDbEntity
  8
0
100
AcDbBlockBegin
  2
Bel
 70
    0
 10
0
 20
0
  3
Bel
  1

  0
LWPOLYLINE
  5
31D
100
AcDbEntity
  8
0
  6
CONTINUOUS
 62
    7
370
   -1
100
AcDbPolyline
 90
    3
 70
    0
 43
0
 10
1.333333333333457
 20
-1.666666666666629
 42
0.4142135623730914
 10
3.000000000000114
 20
-5.404097308536841e-015
 42
0.4142135623730971
 10
1.333333333333456
 20
1.666666666666629
 42
0.4142135623730971
  0
LINE
  5
31E
100
AcDbEntity
  8
0
  6
CONTINUOUS
 62
    7
370
   -1
100
AcDbLine
 10
1.333333333333087
 20
0
 11
0
 21
0
  0
LINE
  5
31F
100
AcDbEntity
  8
0
  6
CONTINUOUS
 62
    7
370
   -1
100
AcDbLine
 10
1.333333333333485
 20
-1.666666666666629
 11
1.333333333333485
 21
1.666666666666629
  0
ENDBLK
  5
10C
330
10A
100
AcDbEntity
  8
0
100
AcDbBlockEnd
  0
BLOCK
  5
10E
330
10D
100
AcDbEntity
  8
0
100
AcDbBlockBegin
  2
Zoemer
 70
    0
 10
0
 20
0
  3
Zoemer
  1

  0
LWPOLYLINE
  5
320
100
AcDbEntity
  8
0
  6
CONTINUOUS
 62
    7
370
   -1
100
AcDbPolyline
 90
    3
 70
    0
 43
0
 10
3.000000000000171
 20
1.666666666666629
 42
0.4142135623730924
 10
1.333333333333513
 20
-9.195841426216056e-017
 42
0.414213562373097
 10
3.000000000000171
 20
-1.666666666666743
 42
0.414213562373097
  0
LINE
  5
321
100
AcDbEntity
  8
0
  6
CONTINUOUS
 62
    7
370
   -1
100
AcDbLine
 10
1.333333333333087
 20
0
 11
0
 21
0
  0
LINE
  5
322
100
AcDbEntity
  8
0
  6
CONTINUOUS
 62
    7
370
   -1
100
AcDbLine
 10
3.000000000000171
 20
1.666666666666629
 11
3.000000000000171
 21
-1.666666666666629
  0
ENDBLK
  5
10F
330
10D
100
AcDbEntity
  8
0
100
AcDbBlockEnd
  0
BLOCK
  5
111
330
110
100
AcDbEntity
  8
0
100
AcDbBlockBegin
  2
Sirene
 70
    0
 10
0
 20
0
  3
Sirene
  1

  0
LWPOLYLINE
  5
323
100
AcDbEntity
  8
0
  6
CONTINUOUS
 62
    7
370
   -1
100
AcDbPolyline
 90
    3
 70
    1
 43
0
 10
5
 20
-1.13686837721616e-013
 10
2
 20
1.499999999999886
 10
2
 20
-1.500000000000114
  0
LINE
  5
324
100
AcDbEntity
  8
0
  6
CONTINUOUS
 62
    7
370
   -1
100
AcDbLine
 10
0
 20
0
 11
2
 21
0
  0
ENDBLK
  5
112
330
110
100
AcDbEntity
  8
0
100
AcDbBlockEnd
  0
BLOCK
  5
114
330
113
100
AcDbEntity
  8
0
100
AcDbBlockBegin
  2
Hoorn
 70
    0
 10
0
 20
0
  3
Hoorn
  1

  0
LWPOLYLINE
  5
325
100
AcDbEntity
  8
0
  6
CONTINUOUS
 62
    7
370
   -1
100
AcDbPolyline
 90
    4
 70
    1
 43
0
 10
0.8999999999999773
 20
-1
 10
2.899999999999977
 20
-1
 10
2.899999999999977
 20
1
 10
0.8999999999999773
 20
1
  0
LWPOLYLINE
  5
326
100
AcDbEntity
  8
0
  6
CONTINUOUS
 62
    7
370
   -1
100
AcDbPolyline
 90
    4
 70
    0
 43
0
 10
2.900000000000034
 20
0.6000000000000227
 10
6.900000000000034
 20
1
 10
5.900000000000034
 20
-1
 10
2.900000000000034
 20
-0.6000000000000227
  0
LINE
  5
327
100
AcDbEntity
  8
0
  6
CONTINUOUS
 62
    7
370
   -1
100
AcDbLine
 10
0
 20
0
 11
0.8999999999999773
 21
0
  0
ENDBLK
  5
115
330
113
100
AcDbEntity
  8
0
100
AcDbBlockEnd
  0
BLOCK
  5
117
330
116
100
AcDbEntity
  8
0
100
AcDbBlockBegin
  2
Horloge
 70
    0
 10
0
 20
0
  3
Horloge
  1

  0
CIRCLE
  5
328
100
AcDbEntity
  8
0
  6
CONTINUOUS
 62
    7
370
   -1
100
AcDbCircle
 10
0
 20
0
 40
1.999999999999991
  0
ELLIPSE
  5
329
100
AcDbEntity
  8
0
  6
CONTINUOUS
 62
    7
370
   -1
100
AcDbEllipse
 10
0
 20
1.13686837721616e-013
 30
0
 11
0.3000000000000009
 21
0
 31
0
 40
0.9166666666666676
 41
0
 42
6.283185307179586
  0
LINE
  5
32A
100
AcDbEntity
  8
0
  6
CONTINUOUS
 62
    7
370
   -1
100
AcDbLine
 10
0
 20
1.5
 11
0
 21
0.2750000000000909
  0
LINE
  5
32B
100
AcDbEntity
  8
0
  6
CONTINUOUS
 62
    7
370
   -1
100
AcDbLine
 10
0.122837325506481
 20
1.13686837721616e-013
 11
1.122837325506481
 21
1.13686837721616e-013
  0
ENDBLK
  5
118
330
116
100
AcDbEntity
  8
0
100
AcDbBlockEnd
  0
BLOCK
  5
11A
330
119
100
AcDbEntity
  8
0
100
AcDbBlockBegin
  2
Moederklok
 70
    0
 10
0
 20
0
  3
Moederklok
  1

  0
CIRCLE
  5
32C
100
AcDbEntity
  8
0
  6
CONTINUOUS
 62
    7
370
   -1
100
AcDbCircle
 10
0
 20
0
 40
1.999999999999991
  0
ELLIPSE
  5
32D
100
AcDbEntity
  8
0
  6
CONTINUOUS
 62
    7
370
   -1
100
AcDbEllipse
 10
0
 20
0
 30
0
 11
0.3000000000000009
 21
0
 31
0
 40
0.9166666666666676
 41
0
 42
6.283185307179586
  0
LINE
  5
32E
100
AcDbEntity
  8
0
  6
CONTINUOUS
 62
    7
370
   -1
100
AcDbLine
 10
0
 20
1.5
 11
0
 21
0.2749999999999773
  0
LINE
  5
32F
100
AcDbEntity
  8
0
  6
CONTINUOUS
 62
    7
370
   -1
100
AcDbLine
 10
0.122837325506481
 20
0
 11
1.122837325506453
 21
0
  0
CIRCLE
  5
330
100
AcDbEntity
  8
0
  6
CONTINUOUS
 62
    7
370
   -1
100
AcDbCircle
 10
-2.842170943040401e-014
 20
0
 40
2.599999999999996
  0
ENDBLK
  5
11B
330
119
100
AcDbEntity
  8
0
100
AcDbBlockEnd
  0
BLOCK
  5
11D
330
11C
100
AcDbEntity
  8
0
100
AcDbBlockBegin
  2
ElektrischDeurslot
 70
    0
 10
0
 20
0
  3
ElektrischDeurslot
  1

  0
LWPOLYLINE
  5
331
100
AcDbEntity
  8
0
  6
CONTINUOUS
 62
    7
370
   -1
100
AcDbPolyline
 90
    4
 70
    1
 43
0
 10
-3.5
 20
-1.5
 10
3.5
 20
-1.5
 10
3.5
 20
1.5
 10
-3.5
 20
1.5
  0
LWPOLYLINE
  5
332
100
AcDbEntity
  8
0
  6
CONTINUOUS
 62
    7
370
   -1
100
AcDbPolyline
 90
    3
 70
    0
 43
0
 10
3.499999999999972
 20
-1.5
 10
5.499999999999972
 20
-1.5
 10
3.499999999999972
 20
1.5
  0
ELLIPSE
  5
333
100
AcDbEntity
  8
0
  6
CONTINUOUS
 62
    7
370
   -1
100
AcDbEllipse
 10
-0.6249999999999716
 20
-0.3999999999999773
 30
0
 11
0
 21
-0.9999999999999777
 31
0
 40
0.625
 41
3.141592653589767
 42
4.7123889803847
  0
ELLIPSE
  5
334
100
AcDbEntity
  8
0
  6
CONTINUOUS
 62
    7
370
   -1
100
AcDbEllipse
 10
-1.874999999999943
 20
-0.4000000000000909
 30
0
 11
-1.437166900243603e-014
 21
-1.000000000000008
 31
0
 40
0.6250000000000067
 41
-4.712388980384675
 42
-3.14159265358979
  0
ELLIPSE
  5
335
100
AcDbEntity
  8
0
  6
CONTINUOUS
 62
    7
370
   -1
100
AcDbEllipse
 10
-1.874999999999943
 20
-0.3999999999999773
 30
0
 11
-1.437166900243563e-014
 21
-0.9999999999999802
 31
0
 40
0.6250000000000001
 41
-3.14159265358979
 42
-1.57079632679488
  0
ELLIPSE
  5
336
100
AcDbEntity
  8
0
  6
CONTINUOUS
 62
    7
370
   -1
100
AcDbEllipse
 10
-0.8834727410239509
 20
-0.6740454631399189
 30
0
 11
-0.6322978357684714
 21
-1.259141988307976
 31
0
 40
0.5312967871591354
 41
2.043392703789607
 42
3.614189030584503
  0
ELLIPSE
  5
337
100
AcDbEntity
  8
0
  6
CONTINUOUS
 62
    7
370
   -1
100
AcDbEllipse
 10
1.875000000000028
 20
-0.3999999999999773
 30
0
 11
0
 21
-0.9999999999999777
 31
0
 40
0.625
 41
3.141592653589767
 42
4.7123889803847
  0
ELLIPSE
  5
338
100
AcDbEntity
  8
0
  6
CONTINUOUS
 62
    7
370
   -1
100
AcDbEllipse
 10
0.6250000000000284
 20
-0.4000000000000909
 30
0
 11
-1.437166900243603e-014
 21
-1.000000000000008
 31
0
 40
0.6250000000000067
 41
-4.712388980384675
 42
-3.14159265358979
  0
ELLIPSE
  5
339
100
AcDbEntity
  8
0
  6
CONTINUOUS
 62
    7
370
   -1
100
AcDbEllipse
 10
0.6250000000000284
 20
-0.3999999999999773
 30
0
 11
-1.437166900243563e-014
 21
-0.9999999999999802
 31
0
 40
0.6250000000000001
 41
-3.14159265358979
 42
-1.57079632679488
  0
ELLIPSE
  5
33A
100
AcDbEntity
  8
0
  6
CONTINUOUS
 62
    7
370
   -1
100
AcDbEllipse
 10
1.616527258976049
 20
-0.6740454631399189
 30
0
 11
-0.6322978357684502
 21
-1.259141988307986
 31
0
 40
0.5312967871591354
 41
2.043392703789607
 42
3.614189030584503
  0
LINE
  5
33B
100
AcDbEntity
  8
0
  6
CONTINUOUS
 62
    7
370
   -1
100
AcDbLine
 10
-2.499999999999972
 20
-0.3999999999999773
 11
-3.500000000000028
 21
-0.3999999999999773
  0
LINE
  5
33C
100
AcDbEntity
  8
0
  6
CONTINUOUS
 62
    7
370
   -1
100
AcDbLine
 10
2.5
 20
-0.3999999999999773
 11
3.5
 21
-0.3999999999999773
  0
ENDBLK
  5
11E
330
11C
100
AcDbEntity
  8
0
100
AcDbBlockEnd
  0
BLOCK
  5
120
330
11F
100
AcDbEntity
  8
0
100
AcDbBlockBegin
  2
Ventilator
 70
    0
 10
0
 20
0
  3
Ventilator
  1

  0
LWPOLYLINE
  5
33D
100
AcDbEntity
  8
0
  6
CONTINUOUS
 62
    7
370
   -1
100
AcDbPolyline
 90
    4
 70
    1
 43
0
 10
-2
 20
-2
 10
2
 20
-2
 10
2
 20
2
 10
-2
 20
2
  0
ELLIPSE
  5
33E
100
AcDbEntity
  8
0
  6
CONTINUOUS
 62
    7
370
   -1
100
AcDbEllipse
 10
-0.6333333333333258
 20
0
 30
0
 11
0
 21
-0.7333333333333469
 31
0
 40
0.8636363636363512
 41
0
 42
6.283185307179586
  0
ELLIPSE
  5
33F
100
AcDbEntity
  8
0
  6
CONTINUOUS
 62
    7
370
   -1
100
AcDbEllipse
 10
0.6333333333333258
 20
0
 30
0
 11
0
 21
-0.7333333333333469
 31
0
 40
0.8636363636363512
 41
0
 42
6.283185307179586
  0
ENDBLK
  5
121
330
11F
100
AcDbEntity
  8
0
100
AcDbBlockEnd
  0
BLOCK
  5
123
330
122
100
AcDbEntity
  8
0
100
AcDbBlockBegin
  2
Verwarmingstoestel
 70
    0
 10
0
 20
0
  3
Verwarmingstoestel
  1

  0
LINE
  5
340
100
AcDbEntity
  8
0
  6
CONTINUOUS
 62
    7
370
   -1
100
AcDbLine
 10
0
 20
-2
 11
7.999999999999915
 21
-2
  0
LINE
  5
341
100
AcDbEntity
  8
0
  6
CONTINUOUS
 62
    7
370
   -1
100
AcDbLine
 10
7.999999999999915
 20
-2
 11
7.999999999999915
 21
2.000000000000114
  0
LINE
  5
342
100
AcDbEntity
  8
0
  6
CONTINUOUS
 62
    7
370
   -1
100
AcDbLine
 10
7.999999999999915
 20
2.000000000000114
 11
0
 21
2.000000000000114
  0
LINE
  5
343
100
AcDbEntity
  8
0
  6
CONTINUOUS
 62
    7
370
   -1
100
AcDbLine
 10
0
 20
2.000000000000114
 11
0
 21
-2
  0
LINE
  5
344
100
AcDbEntity
  8
0
  6
CONTINUOUS
 62
    7
370
   -1
100
AcDbLine
 10
1
 20
2.000000000000114
 11
1
 21
-2
  0
LINE
  5
345
100
AcDbEntity
  8
0
  6
CONTINUOUS
 62
    7
370
   -1
100
AcDbLine
 10
2
 20
2.000000000000114
 11
2
 21
-2
  0
LINE
  5
346
100
AcDbEntity
  8
0
  6
CONTINUOUS
 62
    7
370
   -1
100
AcDbLine
 10
3
 20
2.000000000000114
 11
3
 21
-2
  0
LINE
  5
347
100
AcDbEntity
  8
0
  6
CONTINUOUS
 62
    7
370
   -1
100
AcDbLine
 10
4
 20
2.000000000000114
 11
4
 21
-2
  0
LINE
  5
348
100
AcDbEntity
  8
0
  6
CONTINUOUS
 62
    7
370
   -1
100
AcDbLine
 10
5
 20
2.000000000000114
 11
5
 21
-2
  0
LINE
  5
349
100
AcDbEntity
  8
0
  6
CONTINUOUS
 62
    7
370
   -1
100
AcDbLine
 10
6
 20
2.000000000000114
 11
6
 21
-2
  0
LINE
  5
34A
100
AcDbEntity
  8
0
  6
CONTINUOUS
 62
    7
370
   -1
100
AcDbLine
 10
7
 20
2.000000000000114
 11
7
 21
-2
  0
ENDBLK
  5
124
330
122
100
AcDbEntity
  8
0
100
AcDbBlockEnd
  0
BLOCK
  5
126
330
125
100
AcDbEntity
  8
0
100
AcDbBlockBegin
  2
VerwarmingstoestelMetAccumulatie
 70
    0
 10
0
 20
0
  3
VerwarmingstoestelMetAccumulatie
  1

  0
LINE
  5
34B
100
AcDbEntity
  8
0
  6
CONTINUOUS
 62
    7
370
   -1
100
AcDbLine
 10
1.000000000000028
 20
-1
 11
7.000000000000028
 21
-1
  0
LINE
  5
34C
100
AcDbEntity
  8
0
  6
CONTINUOUS
 62
    7
370
   -1
100
AcDbLine
 10
7.000000000000028
 20
-1
 11
7.000000000000028
 21
1
  0
LINE
  5
34D
100
AcDbEntity
  8
0
  6
CONTINUOUS
 62
    7
370
   -1
100
AcDbLine
 10
7.000000000000028
 20
1
 11
1.000000000000028
 21
1
  0
LINE
  5
34E
100
AcDbEntity
  8
0
  6
CONTINUOUS
 62
    7
370
   -1
100
AcDbLine
 10
1.000000000000028
 20
1
 11
1.000000000000028
 21
-1
  0
LINE
  5
34F
100
AcDbEntity
  8
0
  6
CONTINUOUS
 62
    7
370
   -1
100
AcDbLine
 10
2.000000000000028
 20
1
 11
2.000000000000028
 21
-1
  0
LINE
  5
350
100
AcDbEntity
  8
0
  6
CONTINUOUS
 62
    7
370
   -1
100
AcDbLine
 10
3.000000000000028
 20
1
 11
3.000000000000028
 21
-1
  0
LINE
  5
351
100
AcDbEntity
  8
0
  6
CONTINUOUS
 62
    7
370
   -1
100
AcDbLine
 10
4.000000000000028
 20
1
 11
4.000000000000028
 21
-1
  0
LINE
  5
352
100
AcDbEntity
  8
0
  6
CONTINUOUS
 62
    7
370
   -1
100
AcDbLine
 10
5.000000000000028
 20
1
 11
5.000000000000028
 21
-1
  0
LINE
  5
353
100
AcDbEntity
  8
0
  6
CONTINUOUS
 62
    7
370
   -1
100
AcDbLine
 10
6.000000000000028
 20
1
 11
6.000000000000028
 21
-1
  0
LWPOLYLINE
  5
354
100
AcDbEntity
  8
0
  6
CONTINUOUS
 62
    7
370
   -1
100
AcDbPolyline
 90
    4
 70
    1
 43
0
 10
0
 20
-2
 10
8.000000000000028
 20
-2
 10
8.000000000000028
 20
2
 10
0
 20
2
  0
ENDBLK
  5
127
330
125
100
AcDbEntity
  8
0
100
AcDbBlockEnd
  0
BLOCK
  5
129
330
128
100
AcDbEntity
  8
0
100
AcDbBlockBegin
  2
VerwarmingstoestelMetAccumulatieEnIngebouwdeVentilator
 70
    0
 10
0
 20
0
  3
VerwarmingstoestelMetAccumulatieEnIngebouwdeVentilator
  1

  0
LINE
  5
355
100
AcDbEntity
  8
0
  6
CONTINUOUS
 62
    7
370
   -1
100
AcDbLine
 10
0.5333333333333599
 20
-0.7999999999999545
 11
4
 21
-0.7999999999999545
  0
LINE
  5
356
100
AcDbEntity
  8
0
  6
CONTINUOUS
 62
    7
370
   -1
100
AcDbLine
 10
4
 20
-0.7999999999999545
 11
4
 21
0.7857142857143344
  0
LINE
  5
357
100
AcDbEntity
  8
0
  6
CONTINUOUS
 62
    7
370
   -1
100
AcDbLine
 10
4
 20
0.7857142857143344
 11
0.5333333333333599
 21
0.7857142857143344
  0
LINE
  5
358
100
AcDbEntity
  8
0
  6
CONTINUOUS
 62
    7
370
   -1
100
AcDbLine
 10
0.5333333333333599
 20
0.7857142857143344
 11
0.5333333333333599
 21
-0.7999999999999545
  0
LINE
  5
359
100
AcDbEntity
  8
0
  6
CONTINUOUS
 62
    7
370
   -1
100
AcDbLine
 10
1.26666666666668
 20
0.7857142857143344
 11
1.26666666666668
 21
-0.7999999999999545
  0
LINE
  5
35A
100
AcDbEntity
  8
0
  6
CONTINUOUS
 62
    7
370
   -1
100
AcDbLine
 10
2.26666666666668
 20
0.7857142857143344
 11
2.26666666666668
 21
-0.7999999999999545
  0
LINE
  5
35B
100
AcDbEntity
  8
0
  6
CONTINUOUS
 62
    7
370
   -1
100
AcDbLine
 10
3.26666666666668
 20
0.7857142857143344
 11
3.26666666666668
 21
-0.7999999999999545
  0
LWPOLYLINE
  5
35C
100
AcDbEntity
  8
0
  6
CONTINUOUS
 62
    7
370
   -1
100
AcDbPolyline
 90
    4
 70
    1
 43
0
 10
0
 20
-2
 10
8.000000000000028
 20
-2
 10
8.000000000000028
 20
2
 10
0
 20
2
  0
CIRCLE
  5
35D
100
AcDbEntity
  8
0
  6
CONTINUOUS
 62
    7
370
   -1
100
AcDbCircle
 10
5.216666666666697
 20
-0.04999999999995453
 40
0.7499999999999987
  0
CIRCLE
  5
35E
100
AcDbEntity
  8
0
  6
CONTINUOUS
 62
    7
370
   -1
100
AcDbCircle
 10
6.716666666666697
 20
-0.04999999999995453
 40
0.7499999999999987
  0
ENDBLK
  5
12A
330
128
100
AcDbEntity
  8
0
100
AcDbBlockEnd
  0
BLOCK
  5
12C
330
12B
100
AcDbEntity
  8
0
100
AcDbBlockBegin
  2
Boiler
 70
    0
 10
0
 20
0
  3
Boiler
  1

  0
ELLIPSE
  5
35F
100
AcDbEntity
  8
0
  6
CONTINUOUS
 62
    7
370
   -1
100
AcDbEllipse
 10
-0.1574082137558399
 20
-0.05246940458516747
 30
0
 11
0
 21
-1.999999999999996
 31
0
 40
0.9750000000000003
 41
0
 42
6.283185307179586
  0
HATCH
  5
360
100
AcDbEntity
  8
0
  6
ByLayer
 62
    9
370
   -1
100
AcDbHatch
 10
0
 20
0
 30
0
210
0
220
0
230
1
  2
SOLID
 70
    1
 71
    0
 91
    1
 92
    0
 93
    1
 72
    3
 10
-0.1574082137558399
 20
-0.05246940458516747
 11
0
 21
-1.999999999999996
 40
0.9750000000000003
 50
0
 51
360
 73
    1
 97
    0
 75
    0
 76
    1
 98
    0
  0
ENDBLK
  5
12D
330
12B
100
AcDbEntity
  8
0
100
AcDbBlockEnd
  0
BLOCK
  5
12F
330
12E
100
AcDbEntity
  8
0
100
AcDbBlockBegin
  2
BoilerMetAccumulatie
 70
    0
 10
0
 20
0
  3
BoilerMetAccumulatie
  1

  0
ELLIPSE
  5
361
100
AcDbEntity
  8
0
  6
CONTINUOUS
 62
    7
370
   -1
100
AcDbEllipse
 10
0
 20
0
 30
0
 11
0
 21
-1.999999999999996
 31
0
 40
0.9750000000000003
 41
0
 42
6.283185307179586
  0
CIRCLE
  5
362
100
AcDbEntity
  8
0
  6
CONTINUOUS
 62
    7
370
   -1
100
AcDbCircle
 10
0.05000000000006821
 20
0
 40
2.999999999999996
  0
HATCH
  5
363
100
AcDbEntity
  8
0
  6
ByLayer
 62
    9
370
   -1
100
AcDbHatch
 10
0
 20
0
 30
0
210
0
220
0
230
1
  2
SOLID
 70
    1
 71
    0
 91
    1
 92
    0
 93
    1
 72
    3
 10
0
 20
0
 11
0
 21
-1.999999999999996
 40
0.9750000000000003
 50
0
 51
360
 73
    1
 97
    0
 75
    0
 76
    1
 98
    0
  0
ENDBLK
  5
130
330
12E
100
AcDbEntity
  8
0
100
AcDbBlockEnd
  0
BLOCK
  5
132
330
131
100
AcDbEntity
  8
0
100
AcDbBlockBegin
  2
VastElektrischToestel
 70
    0
 10
0
 20
0
  3
VastElektrischToestel
  1

  0
LWPOLYLINE
  5
364
100
AcDbEntity
  8
0
  6
CONTINUOUS
 62
    7
370
   -1
100
AcDbPolyline
 90
    4
 70
    1
 43
0
 10
1.000000000000057
 20
-3
 10
7.000000000000057
 20
-3
 10
7.000000000000057
 20
3
 10
1.000000000000057
 20
3
  0
LINE
  5
365
100
AcDbEntity
  8
0
  6
CONTINUOUS
 62
    7
370
   -1
100
AcDbLine
 10
0
 20
0
 11
1.000000000000057
 21
0
  0
ENDBLK
  5
133
330
131
100
AcDbEntity
  8
0
100
AcDbBlockEnd
  0
BLOCK
  5
135
330
134
100
AcDbEntity
  8
0
100
AcDbBlockBegin
  2
Kookfornuis
 70
    0
 10
0
 20
0
  3
Kookfornuis
  1

  0
LWPOLYLINE
  5
366
100
AcDbEntity
  8
0
  6
CONTINUOUS
 62
    7
370
   -1
100
AcDbPolyline
 90
    4
 70
    1
 43
0
 10
1
 20
-3
 10
7
 20
-3
 10
7
 20
3
 10
1
 20
3
  0
LINE
  5
367
100
AcDbEntity
  8
0
  6
CONTINUOUS
 62
    7
370
   -1
100
AcDbLine
 10
0
 20
0
 11
1
 21
0
  0
CIRCLE
  5
368
100
AcDbEntity
  8
0
  6
CONTINUOUS
 62
    7
370
   -1
100
AcDbCircle
 10
2.799999999999955
 20
-1.200000000000045
 40
0.8000000000000075
  0
CIRCLE
  5
369
100
AcDbEntity
  8
0
  6
CONTINUOUS
 62
    7
370
   -1
100
AcDbCircle
 10
5.199999999999989
 20
-1.200000000000045
 40
0.8000000000000075
  0
CIRCLE
  5
36A
100
AcDbEntity
  8
0
  6
CONTINUOUS
 62
    7
370
   -1
100
AcDbCircle
 10
5.199999999999989
 20
1.200000000000045
 40
0.8000000000000075
  0
HATCH
  5
36B
100
AcDbEntity
  8
0
  6
ByLayer
 62
  256
370
   -1
100
AcDbHatch
 10
0
 20
0
 30
0
210
0
220
0
230
1
  2
SOLID
 70
    1
 71
    0
 91
    3
 92
    0
 93
    1
 72
    2
 10
5.199999999999989
 20
1.200000000000045
 40
0.8000000000000075
 50
0
 51
360
 73
    1
 97
    0
 92
    0
 93
    1
 72
    2
 10
5.199999999999989
 20
-1.200000000000045
 40
0.8000000000000075
 50
0
 51
360
 73
    1
 97
    0
 92
    0
 93
    1
 72
    2
 10
2.799999999999955
 20
-1.200000000000045
 40
0.8000000000000075
 50
0
 51
360
 73
    1
 97
    0
 75
    0
 76
    1
 98
    0
  0
ENDBLK
  5
136
330
134
100
AcDbEntity
  8
0
100
AcDbBlockEnd
  0
BLOCK
  5
138
330
137
100
AcDbEntity
  8
0
100
AcDbBlockBegin
  2
Microgolfoven
 70
    0
 10
0
 20
0
  3
Microgolfoven
  1

  0
LWPOLYLINE
  5
36C
100
AcDbEntity
  8
0
  6
CONTINUOUS
 62
    7
370
   -1
100
AcDbPolyline
 90
    4
 70
    1
 43
0
 10
0.9999999999999432
 20
-3
 10
6.999999999999943
 20
-3
 10
6.999999999999943
 20
3
 10
0.9999999999999432
 20
3
  0
LINE
  5
36D
100
AcDbEntity
  8
0
  6
CONTINUOUS
 62
    7
370
   -1
100
AcDbLine
 10
0
 20
0
 11
1
 21
0
  0
LWPOLYLINE
  5
36E
100
AcDbEntity
  8
0
  6
CONTINUOUS
 62
    7
370
   -1
100
AcDbPolyline
 90
    3
 70
    0
 43
0
 10
2.5
 20
1.25
 42
-0.4142135623731004
 10
3.249999999999886
 20
2
 42
-0.4142135623731575
 10
3.999999999999886
 20
1.25
 42
-0.4142135623731575
  0
ELLIPSE
  5
36F
100
AcDbEntity
  8
0
  6
CONTINUOUS
 62
    7
370
   -1
100
AcDbEllipse
 10
5.117008601048781
 20
1.90947914452795
 30
0
 11
-0.665071866002391
 21
-1.332925681536194
 31
0
 40
0.6935411446737079
 41
-0.7511221210290374
 42
0.2955217115343589
  0
ELLIPSE
  5
370
100
AcDbEntity
  8
0
  6
CONTINUOUS
 62
    7
370
   -1
100
AcDbEllipse
 10
4.624999999999886
 20
1.375
 30
0
 11
-0.7071067811866073
 21
0.7071067811865263
 31
0
 40
0.749999999999994
 41
-3.926990816987264
 42
-2.356194490192456
  0
LWPOLYLINE
  5
371
100
AcDbEntity
  8
0
  6
CONTINUOUS
 62
    7
370
   -1
100
AcDbPolyline
 90
    3
 70
    0
 43
0
 10
2.5
 20
-0.05000000000017992
 42
-0.4142135623731006
 10
3.249999999999886
 20
0.6999999999998185
 42
-0.4142135623731575
 10
3.999999999999886
 20
-0.05000000000018313
 42
-0.4142135623731575
  0
ELLIPSE
  5
372
100
AcDbEntity
  8
0
  6
CONTINUOUS
 62
    7
370
   -1
100
AcDbEllipse
 10
5.117008601048781
 20
0.6094791445279952
 30
0
 11
-0.665071866002391
 21
-1.332925681536194
 31
0
 40
0.6935411446737079
 41
-0.7511221210290374
 42
0.2955217115343589
  0
ELLIPSE
  5
373
100
AcDbEntity
  8
0
  6
CONTINUOUS
 62
    7
370
   -1
100
AcDbEllipse
 10
4.624999999999886
 20
0.07499999999993179
 30
0
 11
-0.7071067811866073
 21
0.7071067811865263
 31
0
 40
0.749999999999994
 41
-3.926990816987264
 42
-2.356194490192456
  0
LWPOLYLINE
  5
374
100
AcDbEntity
  8
0
  6
CONTINUOUS
 62
    7
370
   -1
100
AcDbPolyline
 90
    3
 70
    0
 43
0
 10
2.5
 20
-1.250000000000113
 42
-0.4142135623731008
 10
3.249999999999886
 20
-0.5000000000001138
 42
-0.4142135623731575
 10
3.999999999999886
 20
-1.250000000000114
 42
-0.4142135623731575
  0
ELLIPSE
  5
375
100
AcDbEntity
  8
0
  6
CONTINUOUS
 62
    7
370
   -1
100
AcDbEllipse
 10
5.117008601048781
 20
-0.5905208554720502
 30
0
 11
-0.665071866002391
 21
-1.332925681536194
 31
0
 40
0.6935411446737079
 41
-0.7511221210290374
 42
0.2955217115343589
  0
ELLIPSE
  5
376
100
AcDbEntity
  8
0
  6
CONTINUOUS
 62
    7
370
   -1
100
AcDbEllipse
 10
4.624999999999886
 20
-1.125
 30
0
 11
-0.7071067811866073
 21
0.7071067811865263
 31
0
 40
0.749999999999994
 41
-3.926990816987264
 42
-2.356194490192456
  0
ENDBLK
  5
139
330
137
100
AcDbEntity
  8
0
100
AcDbBlockEnd
  0
BLOCK
  5
13B
330
13A
100
AcDbEntity
  8
0
100
AcDbBlockBegin
  2
ElektrischeOven
 70
    0
 10
0
 20
0
  3
ElektrischeOven
  1

  0
LWPOLYLINE
  5
377
100
AcDbEntity
  8
0
  6
CONTINUOUS
 62
    7
370
   -1
100
AcDbPolyline
 90
    4
 70
    1
 43
0
 10
1
 20
-3
 10
7
 20
-3
 10
7
 20
3
 10
1
 20
3
  0
LINE
  5
378
100
AcDbEntity
  8
0
  6
CONTINUOUS
 62
    7
370
   -1
100
AcDbLine
 10
0
 20
0
 11
1
 21
0
  0
CIRCLE
  5
379
100
AcDbEntity
  8
0
  6
CONTINUOUS
 62
    7
370
   -1
100
AcDbCircle
 10
4
 20
-0.8000000000000682
 40
0.8000000000000075
  0
LINE
  5
37A
100
AcDbEntity
  8
0
  6
CONTINUOUS
 62
    7
370
   -1
100
AcDbLine
 10
1
 20
1
 11
7
 21
1
  0
HATCH
  5
37B
100
AcDbEntity
  8
0
  6
ByLayer
 62
  256
370
   -1
100
AcDbHatch
 10
0
 20
0
 30
0
210
0
220
0
230
1
  2
SOLID
 70
    1
 71
    0
 91
    1
 92
    0
 93
    1
 72
    2
 10
4
 20
-0.8000000000000682
 40
0.8000000000000075
 50
0
 51
360
 73
    1
 97
    0
 75
    0
 76
    1
 98
    0
  0
ENDBLK
  5
13C
330
13A
100
AcDbEntity
  8
0
100
AcDbBlockEnd
  0
BLOCK
  5
13E
330
13D
100
AcDbEntity
  8
0
100
AcDbBlockBegin
  2
Wasmashine
 70
    0
 10
0
 20
0
  3
Wasmashine
  1

  0
LWPOLYLINE
  5
37C
100
AcDbEntity
  8
0
  6
CONTINUOUS
 62
    7
370
   -1
100
AcDbPolyline
 90
    4
 70
    1
 43
0
 10
1.000000000000284
 20
-3
 10
7.000000000000284
 20
-3
 10
7.000000000000284
 20
3
 10
1.000000000000284
 20
3
  0
LINE
  5
37D
100
AcDbEntity
  8
0
  6
CONTINUOUS
 62
    7
370
   -1
100
AcDbLine
 10
0
 20
0
 11
1.000000000000057
 21
0
  0
CIRCLE
  5
37E
100
AcDbEntity
  8
0
  6
CONTINUOUS
 62
    7
370
   -1
100
AcDbCircle
 10
4
 20
0
 40
0.8000000000000075
  0
CIRCLE
  5
37F
100
AcDbEntity
  8
0
  6
CONTINUOUS
 62
    7
370
   -1
100
AcDbCircle
 10
4.000000000000284
 20
0
 40
1.999999999999996
  0
HATCH
  5
380
100
AcDbEntity
  8
0
  6
ByLayer
 62
  256
370
   -1
100
AcDbHatch
 10
0
 20
0
 30
0
210
0
220
0
230
1
  2
SOLID
 70
    1
 71
    0
 91
    1
 92
    0
 93
    1
 72
    2
 10
4
 20
0
 40
0.8000000000000075
 50
0
 51
360
 73
    1
 97
    0
 75
    0
 76
    1
 98
    0
  0
ENDBLK
  5
13F
330
13D
100
AcDbEntity
  8
0
100
AcDbBlockEnd
  0
BLOCK
  5
141
330
140
100
AcDbEntity
  8
0
100
AcDbBlockBegin
  2
Droogkast
 70
    0
 10
0
 20
0
  3
Droogkast
  1

  0
LWPOLYLINE
  5
381
100
AcDbEntity
  8
0
  6
CONTINUOUS
 62
    7
370
   -1
100
AcDbPolyline
 90
    4
 70
    1
 43
0
 10
1
 20
-3
 10
6.999999999999943
 20
-3
 10
6.999999999999943
 20
3
 10
1
 20
3
  0
LINE
  5
382
100
AcDbEntity
  8
0
  6
CONTINUOUS
 62
    7
370
   -1
100
AcDbLine
 10
0
 20
0
 11
1
 21
0
  0
CIRCLE
  5
383
100
AcDbEntity
  8
0
  6
CONTINUOUS
 62
    7
370
   -1
100
AcDbCircle
 10
3.999999999999943
 20
-0.8000000000000682
 40
0.8000000000000075
  0
CIRCLE
  5
384
100
AcDbEntity
  8
0
  6
CONTINUOUS
 62
    7
370
   -1
100
AcDbCircle
 10
3.249999999999886
 20
1.25
 40
0.7499999999999987
  0
CIRCLE
  5
385
100
AcDbEntity
  8
0
  6
CONTINUOUS
 62
    7
370
   -1
100
AcDbCircle
 10
4.75
 20
1.25
 40
0.7499999999999987
  0
HATCH
  5
386
100
AcDbEntity
  8
0
  6
ByLayer
 62
  256
370
   -1
100
AcDbHatch
 10
0
 20
0
 30
0
210
0
220
0
230
1
  2
SOLID
 70
    1
 71
    0
 91
    1
 92
    0
 93
    1
 72
    2
 10
3.999999999999943
 20
-0.8000000000000682
 40
0.8000000000000075
 50
0
 51
360
 73
    1
 97
    0
 75
    0
 76
    1
 98
    0
  0
ENDBLK
  5
142
330
140
100
AcDbEntity
  8
0
100
AcDbBlockEnd
  0
BLOCK
  5
144
330
143
100
AcDbEntity
  8
0
100
AcDbBlockBegin
  2
Vaatwasmashine
 70
    0
 10
0
 20
0
  3
Vaatwasmashine
  1

  0
LWPOLYLINE
  5
387
100
AcDbEntity
  8
0
  6
CONTINUOUS
 62
    7
370
   -1
100
AcDbPolyline
 90
    4
 70
    1
 43
0
 10
1
 20
-3
 10
7
 20
-3
 10
7
 20
3
 10
1
 20
3
  0
LINE
  5
388
100
AcDbEntity
  8
0
  6
CONTINUOUS
 62
    7
370
   -1
100
AcDbLine
 10
0
 20
0
 11
1
 21
0
  0
CIRCLE
  5
389
100
AcDbEntity
  8
0
  6
CONTINUOUS
 62
    7
370
   -1
100
AcDbCircle
 10
4
 20
0
 40
0.9999999999999981
  0
LINE
  5
38A
100
AcDbEntity
  8
0
  6
CONTINUOUS
 62
    7
370
   -1
100
AcDbLine
 10
1.000000000000057
 20
3
 11
3.29289321881356
 21
0.7071067811865532
  0
LINE
  5
38B
100
AcDbEntity
  8
0
  6
CONTINUOUS
 62
    7
370
   -1
100
AcDbLine
 10
6.999999999999886
 20
3
 11
4.70710678118644
 21
0.7071067811864395
  0
LINE
  5
38C
100
AcDbEntity
  8
0
  6
CONTINUOUS
 62
    7
370
   -1
100
AcDbLine
 10
1.000000000000057
 20
-3
 11
3.292893218813504
 21
-0.7071067811865532
  0
LINE
  5
38D
100
AcDbEntity
  8
0
  6
CONTINUOUS
 62
    7
370
   -1
100
AcDbLine
 10
6.999999999999886
 20
-3
 11
4.70710678118644
 21
-0.7071067811866669
  0
ENDBLK
  5
145
330
143
100
AcDbEntity
  8
0
100
AcDbBlockEnd
  0
BLOCK
  5
147
330
146
100
AcDbEntity
  8
0
100
AcDbBlockBegin
  2
Koelkast
 70
    0
 10
0
 20
0
  3
Koelkast
  1

  0
MTEXT
  5
38E
100
AcDbEntity
  8
0
  6
ByLayer
 62
  256
370
   -1
100
AcDbMText
 10
4.043069399289038
 20
-1.92430695334906
 30
0
 40
4.40283203125
 41
137.808644842447
 71
    5
 72
    5
  1
\C7;\fTimes New Roman|b0|i0|;\H4.40283203125;*
  7
standard
210
0
220
0
230
1
 50
0
 73
    1
 44
1
  0
LWPOLYLINE
  5
38F
100
AcDbEntity
  8
0
  6
CONTINUOUS
 62
    7
370
   -1
100
AcDbPolyline
 90
    4
 70
    1
 43
0
 10
1
 20
-3
 10
7
 20
-3
 10
7
 20
3
 10
1
 20
3
  0
LINE
  5
390
100
AcDbEntity
  8
0
  6
CONTINUOUS
 62
    7
370
   -1
100
AcDbLine
 10
0
 20
0
 11
1.000000000000114
 21
0
  0
ENDBLK
  5
148
330
146
100
AcDbEntity
  8
0
100
AcDbBlockEnd
  0
BLOCK
  5
14A
330
149
100
AcDbEntity
  8
0
100
AcDbBlockBegin
  2
Diepvriezer
 70
    0
 10
0
 20
0
  3
Diepvriezer
  1

  0
LWPOLYLINE
  5
391
100
AcDbEntity
  8
0
  6
CONTINUOUS
 62
    7
370
   -1
100
AcDbPolyline
 90
    4
 70
    1
 43
0
 10
1
 20
-3
 10
7
 20
-3
 10
7
 20
3
 10
1
 20
3
  0
LINE
  5
392
100
AcDbEntity
  8
0
  6
CONTINUOUS
 62
    7
370
   -1
100
AcDbLine
 10
0
 20
0
 11
1
 21
0
  0
MTEXT
  5
393
100
AcDbEntity
  8
0
  6
ByLayer
 62
  256
370
   -1
100
AcDbMText
 10
1.511111111111063
 20
-0.6000000000000227
 30
0
 40
2.446025259792805
 41
85.63806340915082
 71
    4
 72
    5
  1
\C7;\fTimes New Roman|b0|i0|;\H2.4460252597928;***
  7
standard
210
0
220
0
230
1
 50
0
 73
    1
 44
1
  0
ENDBLK
  5
14B
330
149
100
AcDbEntity
  8
0
100
AcDbBlockEnd
  0
BLOCK
  5
14D
330
14C
100
AcDbEntity
  8
0
100
AcDbBlockBegin
  2
Transformator
 70
    0
 10
0
 20
0
  3
Transformator
  1

  0
CIRCLE
  5
394
100
AcDbEntity
  8
0
  6
CONTINUOUS
 62
    7
370
   -1
100
AcDbCircle
 10
0
 20
-3
 40
1.999999999999996
  0
CIRCLE
  5
395
100
AcDbEntity
  8
0
  6
CONTINUOUS
 62
    7
370
   -1
100
AcDbCircle
 10
0
 20
-6
 40
1.999999999999991
  0
LINE
  5
396
100
AcDbEntity
  8
0
  6
CONTINUOUS
 62
    7
370
   -1
100
AcDbLine
 10
0
 20
-1
 11
0
 21
0
  0
LINE
  5
397
100
AcDbEntity
  8
0
  6
CONTINUOUS
 62
    7
370
   -1
100
AcDbLine
 10
0
 20
-8
 11
0
 21
-9
  0
ENDBLK
  5
14E
330
14C
100
AcDbEntity
  8
0
100
AcDbBlockEnd
  0
BLOCK
  5
150
330
14F
100
AcDbEntity
  8
0
100
AcDbBlockBegin
  2
Motor
 70
    0
 10
0
 20
0
  3
Motor
  1

  0
CIRCLE
  5
398
100
AcDbEntity
  8
0
  6
CONTINUOUS
 62
    7
370
   -1
100
AcDbCircle
 10
0
 20
0
 40
1.999999999999991
  0
MTEXT
  5
399
100
AcDbEntity
  8
0
  6
ByLayer
 62
  256
370
   -1
100
AcDbMText
 10
-0.1016268132932794
 20
-0.02690283153367545
 30
0
 40
1.956806771457195
 41
63.70493256602362
 71
    5
 72
    5
  1
\C7;\fTimes New Roman|b0|i0|;\H1.9568067714572;M
  7
standard
210
0
220
0
230
1
 50
0
 73
    1
 44
1
  0
ENDBLK
  5
151
330
14F
100
AcDbEntity
  8
0
100
AcDbBlockEnd
  0
BLOCK
  5
153
330
152
100
AcDbEntity
  8
0
100
AcDbBlockBegin
  2
kWhTeller
 70
    0
 10
0
 20
0
  3
kWhTeller
  1

  0
LWPOLYLINE
  5
39A
100
AcDbEntity
  8
0
  6
CONTINUOUS
 62
    7
370
   -1
100
AcDbPolyline
 90
    4
 70
    1
 43
0
 10
1
 20
-3
 10
6.999999999999886
 20
-3
 10
6.999999999999886
 20
3
 10
1
 20
3
  0
LINE
  5
39B
100
AcDbEntity
  8
0
  6
CONTINUOUS
 62
    7
370
   -1
100
AcDbLine
 10
0
 20
0
 11
1
 21
0
  0
LINE
  5
39C
100
AcDbEntity
  8
0
  6
CONTINUOUS
 62
    7
370
   -1
100
AcDbLine
 10
1
 20
1
 11
6.999999999999886
 21
1
  0
MTEXT
  5
39D
100
AcDbEntity
  8
0
  6
ByLayer
 62
  256
370
   -1
100
AcDbMText
 10
4.105555555555384
 20
-1.198611111111063
 30
0
 40
1.79780740365386
 41
46.04384517135788
 71
    5
 72
    5
  1
\C7;\fArial|b0|i0|;\H1.7978074036539;kWh
  7
standard
210
0
220
0
230
1
 50
0
 73
    1
 44
1
  0
ENDBLK
  5
154
330
152
100
AcDbEntity
  8
0
100
AcDbBlockEnd
  0
BLOCK
  5
156
330
155
100
AcDbEntity
  8
0
100
AcDbBlockBegin
  2
AansluitpuntVoorVerlichtingstoestel-0
 70
    0
 10
0
 20
0
  3
AansluitpuntVoorVerlichtingstoestel-0
  1

  0
LINE
  5
39E
100
AcDbEntity
  8
0
  6
CONTINUOUS
 62
    7
370
   -1
100
AcDbLine
 10
66.47856245158057
 20
356.6009062085965
 11
70.47856245158063
 21
352.6009062085965
  0
LINE
  5
39F
100
AcDbEntity
  8
0
  6
CONTINUOUS
 62
    7
370
   -1
100
AcDbLine
 10
70.47856245158057
 20
356.6009062085967
 11
66.47856245158063
 21
352.6009062085965
  0
ENDBLK
  5
157
330
155
100
AcDbEntity
  8
0
100
AcDbBlockEnd
  0
BLOCK
  5
159
330
158
100
AcDbEntity
  8
0
100
AcDbBlockBegin
  2
AansluitpuntVoorWandverlichtingstoestel-0
 70
    0
 10
0
 20
0
  3
AansluitpuntVoorWandverlichtingstoestel-0
  1

  0
LINE
  5
3A0
100
AcDbEntity
  8
0
  6
CONTINUOUS
 62
    7
370
   -1
100
AcDbLine
 10
70.47856245158054
 20
346.6009062085965
 11
66.4785624515806
 21
342.6009062085965
  0
LINE
  5
3A1
100
AcDbEntity
  8
0
  6
CONTINUOUS
 62
    7
370
   -1
100
AcDbLine
 10
70.47856245158056
 20
342.6009062085965
 11
66.47856245158059
 21
346.6009062085965
  0
LINE
  5
3A2
100
AcDbEntity
  8
0
  6
CONTINUOUS
 62
    7
370
   -1
100
AcDbLine
 10
72.47856245158054
 20
341.6009062085965
 11
64.4785624515805
 21
341.6009062085965
  0
ENDBLK
  5
15A
330
158
100
AcDbEntity
  8
0
100
AcDbBlockEnd
  0
BLOCK
  5
15C
330
15B
100
AcDbEntity
  8
0
100
AcDbBlockBegin
  2
Fluorecentiearmatuur-0
 70
    0
 10
0
 20
0
  3
Fluorecentiearmatuur-0
  1

  0
LINE
  5
3A3
100
AcDbEntity
  8
0
  6
CONTINUOUS
 62
    7
370
   -1
100
AcDbLine
 10
64.47856245158057
 20
335.6009062085965
 11
64.47856245158057
 21
333.6009062085965
  0
LINE
  5
3A4
100
AcDbEntity
  8
0
  6
CONTINUOUS
 62
    7
370
   -1
100
AcDbLine
 10
72.47856245158057
 20
335.6009062085965
 11
72.47856245158057
 21
333.6009062085965
  0
LINE
  5
3A5
100
AcDbEntity
  8
0
  6
CONTINUOUS
 62
    7
370
   -1
100
AcDbLine
 10
64.47856245158057
 20
334.6009062085965
 11
72.47856245158057
 21
334.6009062085965
  0
ENDBLK
  5
15D
330
15B
100
AcDbEntity
  8
0
100
AcDbBlockEnd
  0
BLOCK
  5
15F
330
15E
100
AcDbEntity
  8
0
100
AcDbBlockBegin
  2
ArmatuurMet3Buislampen-0
 70
    0
 10
0
 20
0
  3
ArmatuurMet3Buislampen-0
  1

  0
LINE
  5
3A6
100
AcDbEntity
  8
0
  6
CONTINUOUS
 62
    7
370
   -1
100
AcDbLine
 10
64.47856245158057
 20
325.6009062085965
 11
64.47856245158057
 21
323.6009062085965
  0
LINE
  5
3A7
100
AcDbEntity
  8
0
  6
CONTINUOUS
 62
    7
370
   -1
100
AcDbLine
 10
72.47856245158057
 20
325.6009062085965
 11
72.47856245158057
 21
323.6009062085965
  0
LINE
  5
3A8
100
AcDbEntity
  8
0
  6
CONTINUOUS
 62
    7
370
   -1
100
AcDbLine
 10
64.47856245158057
 20
324.6009062085965
 11
72.47856245158057
 21
324.6009062085965
  0
LINE
  5
3A9
100
AcDbEntity
  8
0
  6
CONTINUOUS
 62
    7
370
   -1
100
AcDbLine
 10
64.47856245158057
 20
327.6009062085965
 11
64.47856245158057
 21
325.6009062085965
  0
LINE
  5
3AA
100
AcDbEntity
  8
0
  6
CONTINUOUS
 62
    7
370
   -1
100
AcDbLine
 10
72.47856245158057
 20
327.6009062085965
 11
72.47856245158057
 21
325.6009062085965
  0
LINE
  5
3AB
100
AcDbEntity
  8
0
  6
CONTINUOUS
 62
    7
370
   -1
100
AcDbLine
 10
64.47856245158057
 20
326.6009062085965
 11
72.47856245158057
 21
326.6009062085965
  0
LINE
  5
3AC
100
AcDbEntity
  8
0
  6
CONTINUOUS
 62
    7
370
   -1
100
AcDbLine
 10
64.47856245158057
 20
323.6009062085965
 11
64.47856245158057
 21
321.6009062085965
  0
LINE
  5
3AD
100
AcDbEntity
  8
0
  6
CONTINUOUS
 62
    7
370
   -1
100
AcDbLine
 10
72.47856245158057
 20
323.6009062085965
 11
72.47856245158057
 21
321.6009062085965
  0
LINE
  5
3AE
100
AcDbEntity
  8
0
  6
CONTINUOUS
 62
    7
370
   -1
100
AcDbLine
 10
64.47856245158057
 20
322.6009062085965
 11
72.47856245158057
 21
322.6009062085965
  0
ENDBLK
  5
160
330
15E
100
AcDbEntity
  8
0
100
AcDbBlockEnd
  0
BLOCK
  5
162
330
161
100
AcDbEntity
  8
0
100
AcDbBlockBegin
  2
Projector-0
 70
    0
 10
0
 20
0
  3
Projector-0
  1

  0
ELLIPSE
  5
3AF
100
AcDbEntity
  8
0
  6
CONTINUOUS
 62
    7
370
   -1
100
AcDbEllipse
 10
68.47856245158059
 20
314.6009062085965
 30
0
 11
0
 21
-1.999999999999996
 31
0
 40
0.9750000000000003
 41
0
 42
6.283185307179586
  0
LWPOLYLINE
  5
3B0
100
AcDbEntity
  8
0
  6
CONTINUOUS
 62
    7
370
   -1
100
AcDbPolyline
 90
    3
 70
    0
 43
0
 10
68.47856245158061
 20
317.6009062085965
 42
0.414213562373095
 10
65.47856245158061
 20
314.6009062085965
 42
0.4142135623730838
 10
68.47856245158061
 20
311.6009062085965
 42
0.4142135623730838
  0
ENDBLK
  5
163
330
161
100
AcDbEntity
  8
0
100
AcDbBlockEnd
  0
BLOCK
  5
165
330
164
100
AcDbEntity
  8
0
100
AcDbBlockBegin
  2
ProjectorMetWeinigDevergerendeLichtbundel-0
 70
    0
 10
0
 20
0
  3
ProjectorMetWeinigDevergerendeLichtbundel-0
  1

  0
ELLIPSE
  5
3B1
100
AcDbEntity
  8
0
  6
CONTINUOUS
 62
    7
370
   -1
100
AcDbEllipse
 10
68.4785624515807
 20
304.6009062085967
 30
0
 11
0
 21
-1.999999999999996
 31
0
 40
0.9750000000000003
 41
0
 42
6.283185307179586
  0
LWPOLYLINE
  5
3B2
100
AcDbEntity
  8
0
  6
CONTINUOUS
 62
    7
370
   -1
100
AcDbPolyline
 90
    3
 70
    0
 43
0
 10
68.47856245158071
 20
307.6009062085968
 42
0.4142135623730853
 10
65.4785624515807
 20
304.6009062085967
 42
0.4142135623730741
 10
68.47856245158071
 20
301.6009062085967
 42
0.4142135623730741
  0
LINE
  5
3B3
100
AcDbEntity
  8
0
  6
CONTINUOUS
 62
    7
370
   -1
100
AcDbLine
 10
70.47856245158069
 20
306.6009062085967
 11
73.4785624515807
 21
306.6009062085967
  0
LINE
  5
3B4
100
AcDbEntity
  8
0
  6
CONTINUOUS
 62
    7
370
   -1
100
AcDbLine
 10
70.47856245158069
 20
302.6009062085967
 11
73.4785624515807
 21
302.6009062085967
  0
LINE
  5
3B5
100
AcDbEntity
  8
0
  6
CONTINUOUS
 62
    7
370
   -1
100
AcDbLine
 10
72.49607528483746
 20
306.9585022928399
 11
73.47856245158069
 21
306.6009062085967
  0
LINE
  5
3B6
100
AcDbEntity
  8
0
  6
CONTINUOUS
 62
    7
370
   -1
100
AcDbLine
 10
72.49607528483746
 20
306.2433101243536
 11
73.47856245158069
 21
306.6009062085967
  0
LINE
  5
3B7
100
AcDbEntity
  8
0
  6
CONTINUOUS
 62
    7
370
   -1
100
AcDbLine
 10
72.49607528483746
 20
302.9585022928399
 11
73.47856245158069
 21
302.6009062085967
  0
LINE
  5
3B8
100
AcDbEntity
  8
0
  6
CONTINUOUS
 62
    7
370
   -1
100
AcDbLine
 10
72.49607528483746
 20
302.2433101243536
 11
73.47856245158069
 21
302.6009062085967
  0
ENDBLK
  5
166
330
164
100
AcDbEntity
  8
0
100
AcDbBlockEnd
  0
BLOCK
  5
168
330
167
100
AcDbEntity
  8
0
100
AcDbBlockBegin
  2
ProjectorMetDevergerendeLichtbundel-0
 70
    0
 10
0
 20
0
  3
ProjectorMetDevergerendeLichtbundel-0
  1

  0
ELLIPSE
  5
3B9
100
AcDbEntity
  8
0
  6
CONTINUOUS
 62
    7
370
   -1
100
AcDbEllipse
 10
68.47856245158063
 20
294.6009062085965
 30
0
 11
0
 21
-1.999999999999996
 31
0
 40
0.9750000000000003
 41
0
 42
6.283185307179586
  0
LWPOLYLINE
  5
3BA
100
AcDbEntity
  8
0
  6
CONTINUOUS
 62
    7
370
   -1
100
AcDbPolyline
 90
    3
 70
    0
 43
0
 10
68.4785624515806
 20
297.6009062085965
 42
0.4142135623730936
 10
65.4785624515806
 20
294.6009062085965
 42
0.4142135623730838
 10
68.4785624515806
 20
291.6009062085965
 42
0.4142135623730838
  0
LINE
  5
3BB
100
AcDbEntity
  8
0
  6
CONTINUOUS
 62
    7
370
   -1
100
AcDbLine
 10
70.47856245158063
 20
296.6009062085965
 11
73.32461234573206
 21
297.5495895066471
  0
LINE
  5
3BC
100
AcDbEntity
  8
0
  6
CONTINUOUS
 62
    7
370
   -1
100
AcDbLine
 10
72.2794613692373
 20
297.5781452173374
 11
73.32461234573215
 21
297.5495895066471
  0
LINE
  5
3BD
100
AcDbEntity
  8
0
  6
CONTINUOUS
 62
    7
370
   -1
100
AcDbLine
 10
72.50562499095049
 20
296.899654352198
 11
73.32461234573215
 21
297.5495895066471
  0
LINE
  5
3BE
100
AcDbEntity
  8
0
  6
CONTINUOUS
 62
    7
370
   -1
100
AcDbLine
 10
70.47856245158063
 20
292.6009062085965
 11
73.32461234573206
 21
291.652222910546
  0
LINE
  5
3BF
100
AcDbEntity
  8
0
  6
CONTINUOUS
 62
    7
370
   -1
100
AcDbLine
 10
72.2794613692373
 20
291.6236671998557
 11
73.32461234573215
 21
291.652222910546
  0
LINE
  5
3C0
100
AcDbEntity
  8
0
  6
CONTINUOUS
 62
    7
370
   -1
100
AcDbLine
 10
72.50562499095049
 20
292.3021580649951
 11
73.32461234573215
 21
291.652222910546
  0
ENDBLK
  5
169
330
167
100
AcDbEntity
  8
0
100
AcDbBlockEnd
  0
BLOCK
  5
16B
330
16A
100
AcDbEntity
  8
0
100
AcDbBlockBegin
  2
VerlichtingsarmatuurMetIngebouwdeEnkelpoligeSchakelaar-0
 70
    0
 10
0
 20
0
  3
VerlichtingsarmatuurMetIngebouwdeEnkelpoligeSchakelaar-0
  1

  0
LINE
  5
3C1
100
AcDbEntity
  8
0
  6
CONTINUOUS
 62
    7
370
   -1
100
AcDbLine
 10
66.47856245158053
 20
286.6009062085965
 11
70.47856245158059
 21
282.6009062085967
  0
LINE
  5
3C2
100
AcDbEntity
  8
0
  6
CONTINUOUS
 62
    7
370
   -1
100
AcDbLine
 10
70.47856245158052
 20
286.6009062085967
 11
66.47856245158059
 21
282.6009062085967
  0
LINE
  5
3C3
100
AcDbEntity
  8
0
  6
CONTINUOUS
 62
    7
370
   -1
100
AcDbLine
 10
70.47856245158053
 20
286.6009062085967
 11
71.44522911824721
 21
285.63423954193
  0
ENDBLK
  5
16C
330
16A
100
AcDbEntity
  8
0
100
AcDbBlockEnd
  0
BLOCK
  5
16E
330
16D
100
AcDbEntity
  8
0
100
AcDbBlockBegin
  2
NoodverlichtingstoestelAangeslotenOpEenSpecialeStroombaan-0
 70
    0
 10
0
 20
0
  3
NoodverlichtingstoestelAangeslotenOpEenSpecialeStroombaan-0
  1

  0
HATCH
  5
3C4
100
AcDbEntity
  8
0
  6
ByLayer
 62
  256
370
   -1
100
AcDbHatch
 10
0
 20
0
 30
0
210
0
220
0
230
1
  2
SOLID
 70
    1
 71
    0
 91
    1
 92
    0
 93
    1
 72
    2
 10
68.47856245158059
 20
274.6009062085965
 40
1.000000000000021
 50
0
 51
360
 73
    1
 97
    0
 75
    0
 76
    1
 98
    0
  0
CIRCLE
  5
3C5
100
AcDbEntity
  8
0
  6
CONTINUOUS
 62
    7
370
   -1
100
AcDbCircle
 10
68.47856245158059
 20
274.6009062085965
 40
1.000000000000021
  0
LINE
  5
3C6
100
AcDbEntity
  8
0
  6
CONTINUOUS
 62
    7
370
   -1
100
AcDbLine
 10
66.47856245158056
 20
276.6009062085964
 11
70.47856245158059
 21
272.6009062085965
  0
LINE
  5
3C7
100
AcDbEntity
  8
0
  6
CONTINUOUS
 62
    7
370
   -1
100
AcDbLine
 10
70.47856245158053
 20
276.6009062085965
 11
66.47856245158059
 21
272.6009062085965
  0
ENDBLK
  5
16F
330
16D
100
AcDbEntity
  8
0
100
AcDbBlockEnd
  0
BLOCK
  5
171
330
170
100
AcDbEntity
  8
0
100
AcDbBlockBegin
  2
AutonoomNoodverlichtingstoestel-0
 70
    0
 10
0
 20
0
  3
AutonoomNoodverlichtingstoestel-0
  1

  0
HATCH
  5
3C8
100
AcDbEntity
  8
0
  6
ByLayer
 62
  256
370
   -1
100
AcDbHatch
 10
0
 20
0
 30
0
210
0
220
0
230
1
  2
SOLID
 70
    1
 71
    0
 91
    1
 92
    0
 93
    1
 72
    2
 10
68.47856245158057
 20
264.6009062085965
 40
1.000000000000021
 50
0
 51
360
 73
    1
 97
    0
 75
    0
 76
    1
 98
    0
  0
CIRCLE
  5
3C9
100
AcDbEntity
  8
0
  6
ByLayer
 62
  256
370
   -1
100
AcDbCircle
 10
68.47856245158057
 20
264.6009062085965
 40
1.000000000000021
  0
LINE
  5
3CA
100
AcDbEntity
  8
0
  6
ByLayer
 62
  256
370
   -1
100
AcDbLine
 10
66.47856245158054
 20
266.6009062085964
 11
70.47856245158057
 21
262.6009062085965
  0
LINE
  5
3CB
100
AcDbEntity
  8
0
  6
ByLayer
 62
  256
370
   -1
100
AcDbLine
 10
70.47856245158052
 20
266.6009062085965
 11
66.47856245158057
 21
262.6009062085965
  0
LWPOLYLINE
  5
3CC
100
AcDbEntity
  8
0
  6
ByLayer
 62
  256
370
   -1
100
AcDbPolyline
 90
    4
 70
    1
 43
0
 10
65.59856245158059
 20
261.7209062085965
 10
71.35856245158051
 20
261.7209062085965
 10
71.35856245158051
 20
267.4809062085965
 10
65.59856245158059
 20
267.4809062085965
  0
ENDBLK
  5
172
330
170
100
AcDbEntity
  8
0
100
AcDbBlockEnd
  0
BLOCK
  5
174
330
173
100
AcDbEntity
  8
0
100
AcDbBlockBegin
  2
VoorschakeltoestelVoorOntladingslamp-0
 70
    0
 10
0
 20
0
  3
VoorschakeltoestelVoorOntladingslamp-0
  1

  0
LWPOLYLINE
  5
3CD
100
AcDbEntity
  8
0
  6
CONTINUOUS
 62
    7
370
   -1
100
AcDbPolyline
 90
    4
 70
    1
 43
0
 10
64.97856245158057
 20
253.1009062085967
 10
71.97856245158057
 20
253.1009062085967
 10
71.97856245158057
 20
256.1009062085965
 10
64.97856245158057
 20
256.1009062085965
  0
LWPOLYLINE
  5
3CE
100
AcDbEntity
  8
0
  6
CONTINUOUS
 62
    7
370
   -1
100
AcDbPolyline
 90
    4
 70
    1
 43
0
 10
65.97856245158057
 20
254.1009062085965
 10
70.97856245158057
 20
254.1009062085965
 10
70.97856245158057
 20
255.1009062085965
 10
65.97856245158057
 20
255.1009062085965
  0
ENDBLK
  5
175
330
173
100
AcDbEntity
  8
0
100
AcDbBlockEnd
  0
BLOCK
  5
177
330
176
100
AcDbEntity
  8
0
100
AcDbBlockBegin
  2
Bel-0
 70
    0
 10
0
 20
0
  3
Bel-0
  1

  0
LWPOLYLINE
  5
3CF
100
AcDbEntity
  8
0
  6
CONTINUOUS
 62
    7
370
   -1
100
AcDbPolyline
 90
    3
 70
    0
 43
0
 10
68.47856245158056
 20
242.9342395419299
 42
0.4142135623730802
 10
70.14522911824719
 20
244.6009062085965
 42
0.4142135623730976
 10
68.47856245158054
 20
246.2675728752632
 42
0.4142135623730976
  0
LINE
  5
3D0
100
AcDbEntity
  8
0
  6
CONTINUOUS
 62
    7
370
   -1
100
AcDbLine
 10
68.47856245158017
 20
244.6009062085965
 11
67.14522911824709
 21
244.6009062085965
  0
LINE
  5
3D1
100
AcDbEntity
  8
0
  6
CONTINUOUS
 62
    7
370
   -1
100
AcDbLine
 10
68.47856245158057
 20
242.9342395419299
 11
68.47856245158057
 21
246.2675728752632
  0
ENDBLK
  5
178
330
176
100
AcDbEntity
  8
0
100
AcDbBlockEnd
  0
BLOCK
  5
17A
330
179
100
AcDbEntity
  8
0
100
AcDbBlockBegin
  2
Zoemer-0
 70
    0
 10
0
 20
0
  3
Zoemer-0
  1

  0
LWPOLYLINE
  5
3D2
100
AcDbEntity
  8
0
  6
CONTINUOUS
 62
    7
370
   -1
100
AcDbPolyline
 90
    3
 70
    0
 43
0
 10
70.14522911824723
 20
236.2675728752632
 42
0.4142135623730925
 10
68.47856245158056
 20
234.6009062085965
 42
0.4142135623730776
 10
70.14522911824723
 20
232.9342395419298
 42
0.4142135623730776
  0
LINE
  5
3D3
100
AcDbEntity
  8
0
  6
CONTINUOUS
 62
    7
370
   -1
100
AcDbLine
 10
68.47856245158015
 20
234.6009062085965
 11
67.14522911824706
 21
234.6009062085965
  0
LINE
  5
3D4
100
AcDbEntity
  8
0
  6
CONTINUOUS
 62
    7
370
   -1
100
AcDbLine
 10
70.14522911824723
 20
236.2675728752632
 11
70.14522911824723
 21
232.9342395419299
  0
ENDBLK
  5
17B
330
179
100
AcDbEntity
  8
0
100
AcDbBlockEnd
  0
BLOCK
  5
17D
330
17C
100
AcDbEntity
  8
0
100
AcDbBlockBegin
  2
Sirene-0
 70
    0
 10
0
 20
0
  3
Sirene-0
  1

  0
LWPOLYLINE
  5
3D5
100
AcDbEntity
  8
0
  6
CONTINUOUS
 62
    7
370
   -1
100
AcDbPolyline
 90
    3
 70
    1
 43
0
 10
71.47856245158057
 20
224.6009062085965
 10
68.47856245158057
 20
226.1009062085965
 10
68.47856245158057
 20
223.1009062085965
  0
LINE
  5
3D6
100
AcDbEntity
  8
0
  6
CONTINUOUS
 62
    7
370
   -1
100
AcDbLine
 10
66.47856245158057
 20
224.6009062085967
 11
68.47856245158057
 21
224.6009062085967
  0
ENDBLK
  5
17E
330
17C
100
AcDbEntity
  8
0
100
AcDbBlockEnd
  0
BLOCK
  5
180
330
17F
100
AcDbEntity
  8
0
100
AcDbBlockBegin
  2
Hoorn-0
 70
    0
 10
0
 20
0
  3
Hoorn-0
  1

  0
LWPOLYLINE
  5
3D7
100
AcDbEntity
  8
0
  6
CONTINUOUS
 62
    7
370
   -1
100
AcDbPolyline
 90
    4
 70
    1
 43
0
 10
66.280797678958
 20
213.6009062085965
 10
68.280797678958
 20
213.6009062085965
 10
68.280797678958
 20
215.6009062085965
 10
66.280797678958
 20
215.6009062085965
  0
LWPOLYLINE
  5
3D8
100
AcDbEntity
  8
0
  6
CONTINUOUS
 62
    7
370
   -1
100
AcDbPolyline
 90
    4
 70
    0
 43
0
 10
68.28079767895805
 20
215.2009062085966
 10
72.28079767895805
 20
215.6009062085965
 10
71.28079767895805
 20
213.6009062085965
 10
68.28079767895805
 20
214.0009062085965
  0
LINE
  5
3D9
100
AcDbEntity
  8
0
  6
CONTINUOUS
 62
    7
370
   -1
100
AcDbLine
 10
65.38079767895802
 20
214.6009062085965
 11
66.280797678958
 21
214.6009062085965
  0
ENDBLK
  5
181
330
17F
100
AcDbEntity
  8
0
100
AcDbBlockEnd
  0
BLOCK
  5
183
330
182
100
AcDbEntity
  8
0
100
AcDbBlockBegin
  2
Horloge-0
 70
    0
 10
0
 20
0
  3
Horloge-0
  1

  0
CIRCLE
  5
3DA
100
AcDbEntity
  8
0
  6
CONTINUOUS
 62
    7
370
   -1
100
AcDbCircle
 10
68.47856245158057
 20
204.6009062085965
 40
1.999999999999991
  0
ELLIPSE
  5
3DB
100
AcDbEntity
  8
0
  6
CONTINUOUS
 62
    7
370
   -1
100
AcDbEllipse
 10
68.47856245158057
 20
204.6009062085967
 30
0
 11
0.3000000000000009
 21
0
 31
0
 40
0.9166666666666676
 41
0
 42
6.283185307179586
  0
LINE
  5
3DC
100
AcDbEntity
  8
0
  6
CONTINUOUS
 62
    7
370
   -1
100
AcDbLine
 10
68.47856245158057
 20
206.1009062085965
 11
68.47856245158057
 21
204.8759062085966
  0
LINE
  5
3DD
100
AcDbEntity
  8
0
  6
CONTINUOUS
 62
    7
370
   -1
100
AcDbLine
 10
68.60139977708705
 20
204.6009062085967
 11
69.60139977708705
 21
204.6009062085967
  0
ENDBLK
  5
184
330
182
100
AcDbEntity
  8
0
100
AcDbBlockEnd
  0
BLOCK
  5
186
330
185
100
AcDbEntity
  8
0
100
AcDbBlockBegin
  2
Moederklok-0
 70
    0
 10
0
 20
0
  3
Moederklok-0
  1

  0
CIRCLE
  5
3DE
100
AcDbEntity
  8
0
  6
CONTINUOUS
 62
    7
370
   -1
100
AcDbCircle
 10
68.4785624515806
 20
194.6009062085965
 40
1.999999999999991
  0
ELLIPSE
  5
3DF
100
AcDbEntity
  8
0
  6
CONTINUOUS
 62
    7
370
   -1
100
AcDbEllipse
 10
68.4785624515806
 20
194.6009062085965
 30
0
 11
0.3000000000000009
 21
0
 31
0
 40
0.9166666666666676
 41
0
 42
6.283185307179586
  0
LINE
  5
3E0
100
AcDbEntity
  8
0
  6
CONTINUOUS
 62
    7
370
   -1
100
AcDbLine
 10
68.4785624515806
 20
196.1009062085965
 11
68.4785624515806
 21
194.8759062085965
  0
LINE
  5
3E1
100
AcDbEntity
  8
0
  6
CONTINUOUS
 62
    7
370
   -1
100
AcDbLine
 10
68.60139977708708
 20
194.6009062085965
 11
69.60139977708705
 21
194.6009062085965
  0
CIRCLE
  5
3E2
100
AcDbEntity
  8
0
  6
CONTINUOUS
 62
    7
370
   -1
100
AcDbCircle
 10
68.47856245158057
 20
194.6009062085965
 40
2.599999999999996
  0
ENDBLK
  5
187
330
185
100
AcDbEntity
  8
0
100
AcDbBlockEnd
  0
BLOCK
  5
189
330
188
100
AcDbEntity
  8
0
100
AcDbBlockBegin
  2
ElektrischDeurslot-0
 70
    0
 10
0
 20
0
  3
ElektrischDeurslot-0
  1

  0
LWPOLYLINE
  5
3E3
100
AcDbEntity
  8
0
  6
CONTINUOUS
 62
    7
370
   -1
100
AcDbPolyline
 90
    4
 70
    1
 43
0
 10
64.97856245158057
 20
183.1009062085965
 10
71.97856245158057
 20
183.1009062085965
 10
71.97856245158057
 20
186.1009062085965
 10
64.97856245158057
 20
186.1009062085965
  0
LWPOLYLINE
  5
3E4
100
AcDbEntity
  8
0
  6
CONTINUOUS
 62
    7
370
   -1
100
AcDbPolyline
 90
    3
 70
    0
 43
0
 10
71.97856245158054
 20
183.1009062085965
 10
73.97856245158054
 20
183.1009062085965
 10
71.97856245158054
 20
186.1009062085965
  0
ELLIPSE
  5
3E5
100
AcDbEntity
  8
0
  6
CONTINUOUS
 62
    7
370
   -1
100
AcDbEllipse
 10
67.8535624515806
 20
184.2009062085966
 30
0
 11
0
 21
-0.9999999999999776
 31
0
 40
0.6249999999999999
 41
3.141592653589771
 42
4.71238898038469
  0
ELLIPSE
  5
3E6
100
AcDbEntity
  8
0
  6
CONTINUOUS
 62
    7
370
   -1
100
AcDbEllipse
 10
66.60356245158063
 20
184.2009062085965
 30
0
 11
-1.437166900243603e-014
 21
-1.000000000000008
 31
0
 40
0.6250000000000067
 41
1.570796326794906
 42
3.141592653589793
  0
ELLIPSE
  5
3E7
100
AcDbEntity
  8
0
  6
CONTINUOUS
 62
    7
370
   -1
100
AcDbEllipse
 10
66.60356245158063
 20
184.2009062085966
 30
0
 11
-1.437166900243563e-014
 21
-0.9999999999999802
 31
0
 40
0.6250000000000001
 41
3.141592653589793
 42
4.712388980384699
  0
ELLIPSE
  5
3E8
100
AcDbEntity
  8
0
  6
CONTINUOUS
 62
    7
370
   -1
100
AcDbEllipse
 10
67.59508971055662
 20
183.9268607454566
 30
0
 11
-0.6322978357684714
 21
-1.259141988307976
 31
0
 40
0.5312967871591353
 41
2.043392703789595
 42
3.614189030584507
  0
ELLIPSE
  5
3E9
100
AcDbEntity
  8
0
  6
CONTINUOUS
 62
    7
370
   -1
100
AcDbEllipse
 10
70.3535624515806
 20
184.2009062085966
 30
0
 11
0
 21
-0.9999999999999776
 31
0
 40
0.6249999999999999
 41
3.141592653589771
 42
4.71238898038469
  0
ELLIPSE
  5
3EA
100
AcDbEntity
  8
0
  6
CONTINUOUS
 62
    7
370
   -1
100
AcDbEllipse
 10
69.1035624515806
 20
184.2009062085965
 30
0
 11
-1.437166900243603e-014
 21
-1.000000000000008
 31
0
 40
0.6250000000000067
 41
1.570796326794906
 42
3.141592653589793
  0
ELLIPSE
  5
3EB
100
AcDbEntity
  8
0
  6
CONTINUOUS
 62
    7
370
   -1
100
AcDbEllipse
 10
69.1035624515806
 20
184.2009062085966
 30
0
 11
-1.437166900243563e-014
 21
-0.9999999999999802
 31
0
 40
0.6250000000000001
 41
3.141592653589793
 42
4.712388980384699
  0
ELLIPSE
  5
3EC
100
AcDbEntity
  8
0
  6
CONTINUOUS
 62
    7
370
   -1
100
AcDbEllipse
 10
70.09508971055662
 20
183.9268607454566
 30
0
 11
-0.6322978357684502
 21
-1.259141988307986
 31
0
 40
0.5312967871591354
 41
2.043392703789606
 42
3.614189030584498
  0
LINE
  5
3ED
100
AcDbEntity
  8
0
  6
CONTINUOUS
 62
    7
370
   -1
100
AcDbLine
 10
65.9785624515806
 20
184.2009062085966
 11
64.97856245158054
 21
184.2009062085966
  0
LINE
  5
3EE
100
AcDbEntity
  8
0
  6
CONTINUOUS
 62
    7
370
   -1
100
AcDbLine
 10
70.97856245158057
 20
184.2009062085966
 11
71.97856245158057
 21
184.2009062085966
  0
ENDBLK
  5
18A
330
188
100
AcDbEntity
  8
0
100
AcDbBlockEnd
  0
BLOCK
  5
18C
330
18B
100
AcDbEntity
  8
0
100
AcDbBlockBegin
  2
Ventilator-0
 70
    0
 10
0
 20
0
  3
Ventilator-0
  1

  0
LWPOLYLINE
  5
3EF
100
AcDbEntity
  8
0
  6
CONTINUOUS
 62
    7
370
   -1
100
AcDbPolyline
 90
    4
 70
    1
 43
0
 10
66.47856245158057
 20
172.6009062085965
 10
70.47856245158057
 20
172.6009062085965
 10
70.47856245158057
 20
176.6009062085965
 10
66.47856245158057
 20
176.6009062085965
  0
ELLIPSE
  5
3F0
100
AcDbEntity
  8
0
  6
CONTINUOUS
 62
    7
370
   -1
100
AcDbEllipse
 10
67.84522911824725
 20
174.6009062085965
 30
0
 11
0
 21
-0.7333333333333469
 31
0
 40
0.8636363636363511
 41
0
 42
6.283185307179586
  0
ELLIPSE
  5
3F1
100
AcDbEntity
  8
0
  6
CONTINUOUS
 62
    7
370
   -1
100
AcDbEllipse
 10
69.1118957849139
 20
174.6009062085965
 30
0
 11
0
 21
-0.7333333333333469
 31
0
 40
0.8636363636363511
 41
0
 42
6.283185307179586
  0
ENDBLK
  5
18D
330
18B
100
AcDbEntity
  8
0
100
AcDbBlockEnd
  0
BLOCK
  5
18F
330
18E
100
AcDbEntity
  8
0
100
AcDbBlockBegin
  2
Verwarmingstoestel-0
 70
    0
 10
0
 20
0
  3
Verwarmingstoestel-0
  1

  0
LINE
  5
3F2
100
AcDbEntity
  8
0
  6
CONTINUOUS
 62
    7
370
   -1
100
AcDbLine
 10
64.4785624515806
 20
162.6009062085965
 11
72.47856245158052
 21
162.6009062085965
  0
LINE
  5
3F3
100
AcDbEntity
  8
0
  6
CONTINUOUS
 62
    7
370
   -1
100
AcDbLine
 10
72.47856245158052
 20
162.6009062085965
 11
72.47856245158052
 21
166.6009062085967
  0
LINE
  5
3F4
100
AcDbEntity
  8
0
  6
CONTINUOUS
 62
    7
370
   -1
100
AcDbLine
 10
72.47856245158052
 20
166.6009062085967
 11
64.4785624515806
 21
166.6009062085967
  0
LINE
  5
3F5
100
AcDbEntity
  8
0
  6
CONTINUOUS
 62
    7
370
   -1
100
AcDbLine
 10
64.4785624515806
 20
166.6009062085967
 11
64.4785624515806
 21
162.6009062085965
  0
LINE
  5
3F6
100
AcDbEntity
  8
0
  6
CONTINUOUS
 62
    7
370
   -1
100
AcDbLine
 10
65.4785624515806
 20
166.6009062085967
 11
65.4785624515806
 21
162.6009062085965
  0
LINE
  5
3F7
100
AcDbEntity
  8
0
  6
CONTINUOUS
 62
    7
370
   -1
100
AcDbLine
 10
66.4785624515806
 20
166.6009062085967
 11
66.4785624515806
 21
162.6009062085965
  0
LINE
  5
3F8
100
AcDbEntity
  8
0
  6
CONTINUOUS
 62
    7
370
   -1
100
AcDbLine
 10
67.4785624515806
 20
166.6009062085967
 11
67.4785624515806
 21
162.6009062085965
  0
LINE
  5
3F9
100
AcDbEntity
  8
0
  6
CONTINUOUS
 62
    7
370
   -1
100
AcDbLine
 10
68.4785624515806
 20
166.6009062085967
 11
68.4785624515806
 21
162.6009062085965
  0
LINE
  5
3FA
100
AcDbEntity
  8
0
  6
CONTINUOUS
 62
    7
370
   -1
100
AcDbLine
 10
69.4785624515806
 20
166.6009062085967
 11
69.4785624515806
 21
162.6009062085965
  0
LINE
  5
3FB
100
AcDbEntity
  8
0
  6
CONTINUOUS
 62
    7
370
   -1
100
AcDbLine
 10
70.4785624515806
 20
166.6009062085967
 11
70.4785624515806
 21
162.6009062085965
  0
LINE
  5
3FC
100
AcDbEntity
  8
0
  6
CONTINUOUS
 62
    7
370
   -1
100
AcDbLine
 10
71.4785624515806
 20
166.6009062085967
 11
71.4785624515806
 21
162.6009062085965
  0
ENDBLK
  5
190
330
18E
100
AcDbEntity
  8
0
100
AcDbBlockEnd
  0
BLOCK
  5
192
330
191
100
AcDbEntity
  8
0
100
AcDbBlockBegin
  2
VerwarmingstoestelMetAccumulatie-0
 70
    0
 10
0
 20
0
  3
VerwarmingstoestelMetAccumulatie-0
  1

  0
LINE
  5
3FD
100
AcDbEntity
  8
0
  6
CONTINUOUS
 62
    7
370
   -1
100
AcDbLine
 10
65.4785624515806
 20
153.6009062085965
 11
71.4785624515806
 21
153.6009062085965
  0
LINE
  5
3FE
100
AcDbEntity
  8
0
  6
CONTINUOUS
 62
    7
370
   -1
100
AcDbLine
 10
71.4785624515806
 20
153.6009062085965
 11
71.4785624515806
 21
155.6009062085965
  0
LINE
  5
3FF
100
AcDbEntity
  8
0
  6
CONTINUOUS
 62
    7
370
   -1
100
AcDbLine
 10
71.4785624515806
 20
155.6009062085965
 11
65.4785624515806
 21
155.6009062085965
  0
LINE
  5
400
100
AcDbEntity
  8
0
  6
CONTINUOUS
 62
    7
370
   -1
100
AcDbLine
 10
65.4785624515806
 20
155.6009062085965
 11
65.4785624515806
 21
153.6009062085965
  0
LINE
  5
401
100
AcDbEntity
  8
0
  6
CONTINUOUS
 62
    7
370
   -1
100
AcDbLine
 10
66.4785624515806
 20
155.6009062085965
 11
66.4785624515806
 21
153.6009062085965
  0
LINE
  5
402
100
AcDbEntity
  8
0
  6
CONTINUOUS
 62
    7
370
   -1
100
AcDbLine
 10
67.4785624515806
 20
155.6009062085965
 11
67.4785624515806
 21
153.6009062085965
  0
LINE
  5
403
100
AcDbEntity
  8
0
  6
CONTINUOUS
 62
    7
370
   -1
100
AcDbLine
 10
68.4785624515806
 20
155.6009062085965
 11
68.4785624515806
 21
153.6009062085965
  0
LINE
  5
404
100
AcDbEntity
  8
0
  6
CONTINUOUS
 62
    7
370
   -1
100
AcDbLine
 10
69.4785624515806
 20
155.6009062085965
 11
69.4785624515806
 21
153.6009062085965
  0
LINE
  5
405
100
AcDbEntity
  8
0
  6
CONTINUOUS
 62
    7
370
   -1
100
AcDbLine
 10
70.4785624515806
 20
155.6009062085965
 11
70.4785624515806
 21
153.6009062085965
  0
LWPOLYLINE
  5
406
100
AcDbEntity
  8
0
  6
CONTINUOUS
 62
    7
370
   -1
100
AcDbPolyline
 90
    4
 70
    1
 43
0
 10
64.47856245158057
 20
152.6009062085965
 10
72.4785624515806
 20
152.6009062085965
 10
72.4785624515806
 20
156.6009062085965
 10
64.47856245158057
 20
156.6009062085965
  0
ENDBLK
  5
193
330
191
100
AcDbEntity
  8
0
100
AcDbBlockEnd
  0
BLOCK
  5
195
330
194
100
AcDbEntity
  8
0
100
AcDbBlockBegin
  2
VerwarmingstoestelMetAccumulatieEnIngebouwdeVentilator-0
 70
    0
 10
0
 20
0
  3
VerwarmingstoestelMetAccumulatieEnIngebouwdeVentilator-0
  1

  0
LINE
  5
407
100
AcDbEntity
  8
0
  6
CONTINUOUS
 62
    7
370
   -1
100
AcDbLine
 10
65.01189578491393
 20
143.8009062085966
 11
68.47856245158057
 21
143.8009062085966
  0
LINE
  5
408
100
AcDbEntity
  8
0
  6
CONTINUOUS
 62
    7
370
   -1
100
AcDbLine
 10
68.47856245158057
 20
143.8009062085966
 11
68.47856245158057
 21
145.3866204943109
  0
LINE
  5
409
100
AcDbEntity
  8
0
  6
CONTINUOUS
 62
    7
370
   -1
100
AcDbLine
 10
68.47856245158057
 20
145.3866204943109
 11
65.01189578491393
 21
145.3866204943109
  0
LINE
  5
40A
100
AcDbEntity
  8
0
  6
CONTINUOUS
 62
    7
370
   -1
100
AcDbLine
 10
65.01189578491393
 20
145.3866204943109
 11
65.01189578491393
 21
143.8009062085966
  0
LINE
  5
40B
100
AcDbEntity
  8
0
  6
CONTINUOUS
 62
    7
370
   -1
100
AcDbLine
 10
65.74522911824725
 20
145.3866204943109
 11
65.74522911824725
 21
143.8009062085966
  0
LINE
  5
40C
100
AcDbEntity
  8
0
  6
CONTINUOUS
 62
    7
370
   -1
100
AcDbLine
 10
66.74522911824725
 20
145.3866204943109
 11
66.74522911824725
 21
143.8009062085966
  0
LINE
  5
40D
100
AcDbEntity
  8
0
  6
CONTINUOUS
 62
    7
370
   -1
100
AcDbLine
 10
67.74522911824725
 20
145.3866204943109
 11
67.74522911824725
 21
143.8009062085966
  0
LWPOLYLINE
  5
40E
100
AcDbEntity
  8
0
  6
CONTINUOUS
 62
    7
370
   -1
100
AcDbPolyline
 90
    4
 70
    1
 43
0
 10
64.47856245158057
 20
142.6009062085965
 10
72.4785624515806
 20
142.6009062085965
 10
72.4785624515806
 20
146.6009062085965
 10
64.47856245158057
 20
146.6009062085965
  0
CIRCLE
  5
40F
100
AcDbEntity
  8
0
  6
CONTINUOUS
 62
    7
370
   -1
100
AcDbCircle
 10
69.69522911824727
 20
144.5509062085966
 40
0.7499999999999987
  0
CIRCLE
  5
410
100
AcDbEntity
  8
0
  6
CONTINUOUS
 62
    7
370
   -1
100
AcDbCircle
 10
71.19522911824727
 20
144.5509062085966
 40
0.7499999999999987
  0
ENDBLK
  5
196
330
194
100
AcDbEntity
  8
0
100
AcDbBlockEnd
  0
BLOCK
  5
198
330
197
100
AcDbEntity
  8
0
100
AcDbBlockBegin
  2
Boiler-0
 70
    0
 10
0
 20
0
  3
Boiler-0
  1

  0
HATCH
  5
411
100
AcDbEntity
  8
0
  6
ByLayer
 62
    9
370
   -1
100
AcDbHatch
 10
0
 20
0
 30
0
210
0
220
0
230
1
  2
SOLID
 70
    1
 71
    0
 91
    1
 92
    0
 93
    1
 72
    3
 10
68.47856245158057
 20
134.6009062085966
 11
0
 21
-1.999999999999996
 40
0.9750000000000003
 50
0
 51
360
 73
    1
 97
    0
 75
    0
 76
    1
 98
    0
  0
ELLIPSE
  5
412
100
AcDbEntity
  8
0
  6
CONTINUOUS
 62
    7
370
   -1
100
AcDbEllipse
 10
68.47856245158057
 20
134.6009062085966
 30
0
 11
0
 21
-1.999999999999996
 31
0
 40
0.9750000000000003
 41
0
 42
6.283185307179586
  0
ENDBLK
  5
199
330
197
100
AcDbEntity
  8
0
100
AcDbBlockEnd
  0
BLOCK
  5
19B
330
19A
100
AcDbEntity
  8
0
100
AcDbBlockBegin
  2
BoilerMetAccumulatie-0
 70
    0
 10
0
 20
0
  3
BoilerMetAccumulatie-0
  1

  0
HATCH
  5
413
100
AcDbEntity
  8
0
  6
ByLayer
 62
    9
370
   -1
100
AcDbHatch
 10
0
 20
0
 30
0
210
0
220
0
230
1
  2
SOLID
 70
    1
 71
    0
 91
    1
 92
    0
 93
    1
 72
    3
 10
68.47856245158057
 20
124.6009062085965
 11
0
 21
-1.999999999999996
 40
0.9750000000000003
 50
0
 51
360
 73
    1
 97
    0
 75
    0
 76
    1
 98
    0
  0
ELLIPSE
  5
414
100
AcDbEntity
  8
0
  6
CONTINUOUS
 62
    7
370
   -1
100
AcDbEllipse
 10
68.47856245158057
 20
124.6009062085965
 30
0
 11
0
 21
-1.999999999999996
 31
0
 40
0.9750000000000003
 41
0
 42
6.283185307179586
  0
CIRCLE
  5
415
100
AcDbEntity
  8
0
  6
CONTINUOUS
 62
    7
370
   -1
100
AcDbCircle
 10
68.52856245158064
 20
124.6009062085965
 40
2.999999999999996
  0
ENDBLK
  5
19C
330
19A
100
AcDbEntity
  8
0
100
AcDbBlockEnd
  0
BLOCK
  5
19E
330
19D
100
AcDbEntity
  8
0
100
AcDbBlockBegin
  2
VastElektrischToestel-0
 70
    0
 10
0
 20
0
  3
VastElektrischToestel-0
  1

  0
LWPOLYLINE
  5
416
100
AcDbEntity
  8
0
  6
CONTINUOUS
 62
    7
370
   -1
100
AcDbPolyline
 90
    4
 70
    1
 43
0
 10
65.47856245158057
 20
111.6009062085965
 10
71.47856245158057
 20
111.6009062085965
 10
71.47856245158057
 20
117.6009062085965
 10
65.47856245158057
 20
117.6009062085965
  0
LINE
  5
417
100
AcDbEntity
  8
0
  6
CONTINUOUS
 62
    7
370
   -1
100
AcDbLine
 10
64.47856245158052
 20
114.6009062085965
 11
65.47856245158057
 21
114.6009062085965
  0
ENDBLK
  5
19F
330
19D
100
AcDbEntity
  8
0
100
AcDbBlockEnd
  0
BLOCK
  5
1A1
330
1A0
100
AcDbEntity
  8
0
100
AcDbBlockBegin
  2
Kookfornuis-0
 70
    0
 10
0
 20
0
  3
Kookfornuis-0
  1

  0
HATCH
  5
418
100
AcDbEntity
  8
0
  6
ByLayer
 62
  256
370
   -1
100
AcDbHatch
 10
0
 20
0
 30
0
210
0
220
0
230
1
  2
SOLID
 70
    1
 71
    0
 91
    3
 92
    0
 93
    1
 72
    2
 10
69.67856245158056
 20
105.8009062085966
 40
0.8000000000000075
 50
0
 51
360
 73
    1
 97
    0
 92
    0
 93
    1
 72
    2
 10
69.67856245158056
 20
103.4009062085965
 40
0.8000000000000075
 50
0
 51
360
 73
    1
 97
    0
 92
    0
 93
    1
 72
    2
 10
67.27856245158053
 20
103.4009062085965
 40
0.8000000000000075
 50
0
 51
360
 73
    1
 97
    0
 75
    0
 76
    1
 98
    0
  0
LWPOLYLINE
  5
419
100
AcDbEntity
  8
0
  6
CONTINUOUS
 62
    7
370
   -1
100
AcDbPolyline
 90
    4
 70
    1
 43
0
 10
65.47856245158057
 20
101.6009062085965
 10
71.47856245158057
 20
101.6009062085965
 10
71.47856245158057
 20
107.6009062085965
 10
65.47856245158057
 20
107.6009062085965
  0
LINE
  5
41A
100
AcDbEntity
  8
0
  6
CONTINUOUS
 62
    7
370
   -1
100
AcDbLine
 10
64.47856245158057
 20
104.6009062085965
 11
65.47856245158057
 21
104.6009062085965
  0
CIRCLE
  5
41B
100
AcDbEntity
  8
0
  6
CONTINUOUS
 62
    7
370
   -1
100
AcDbCircle
 10
67.27856245158053
 20
103.4009062085965
 40
0.8000000000000075
  0
CIRCLE
  5
41C
100
AcDbEntity
  8
0
  6
CONTINUOUS
 62
    7
370
   -1
100
AcDbCircle
 10
69.67856245158056
 20
103.4009062085965
 40
0.8000000000000075
  0
CIRCLE
  5
41D
100
AcDbEntity
  8
0
  6
CONTINUOUS
 62
    7
370
   -1
100
AcDbCircle
 10
69.67856245158056
 20
105.8009062085966
 40
0.8000000000000075
  0
ENDBLK
  5
1A2
330
1A0
100
AcDbEntity
  8
0
100
AcDbBlockEnd
  0
BLOCK
  5
1A4
330
1A3
100
AcDbEntity
  8
0
100
AcDbBlockBegin
  2
Microgolfoven-0
 70
    0
 10
0
 20
0
  3
Microgolfoven-0
  1

  0
LWPOLYLINE
  5
41E
100
AcDbEntity
  8
0
  6
CONTINUOUS
 62
    7
370
   -1
100
AcDbPolyline
 90
    4
 70
    1
 43
0
 10
65.47856245158063
 20
91.65090620859671
 10
71.47856245158063
 20
91.65090620859671
 10
71.47856245158063
 20
97.65090620859671
 10
65.47856245158063
 20
97.65090620859671
  0
LINE
  5
41F
100
AcDbEntity
  8
0
  6
CONTINUOUS
 62
    7
370
   -1
100
AcDbLine
 10
64.47856245158069
 20
94.65090620859671
 11
65.47856245158069
 21
94.65090620859671
  0
LWPOLYLINE
  5
420
100
AcDbEntity
  8
0
  6
CONTINUOUS
 62
    7
370
   -1
100
AcDbPolyline
 90
    3
 70
    0
 43
0
 10
66.97856245158069
 20
95.90090620859671
 42
-0.4142135623731061
 10
67.72856245158057
 20
96.65090620859671
 42
-0.4142135623731616
 10
68.47856245158057
 20
95.90090620859671
 42
-0.4142135623731616
  0
ELLIPSE
  5
421
100
AcDbEntity
  8
0
  6
CONTINUOUS
 62
    7
370
   -1
100
AcDbEllipse
 10
69.59557105262947
 20
96.56038535312466
 30
0
 11
-0.6650718660023909
 21
-1.332925681536194
 31
0
 40
0.6935411446737079
 41
5.532063186150547
 42
0.2955217115343555
  0
ELLIPSE
  5
422
100
AcDbEntity
  8
0
  6
CONTINUOUS
 62
    7
370
   -1
100
AcDbEllipse
 10
69.10356245158057
 20
96.02590620859671
 30
0
 11
-0.7071067811866073
 21
0.7071067811865263
 31
0
 40
0.749999999999994
 41
2.356194490192329
 42
3.926990816987126
  0
LWPOLYLINE
  5
423
100
AcDbEntity
  8
0
  6
CONTINUOUS
 62
    7
370
   -1
100
AcDbPolyline
 90
    3
 70
    0
 43
0
 10
66.97856245158069
 20
94.60090620859653
 42
-0.4142135623731061
 10
67.72856245158057
 20
95.35090620859653
 42
-0.4142135623731616
 10
68.47856245158057
 20
94.60090620859653
 42
-0.4142135623731616
  0
ELLIPSE
  5
424
100
AcDbEntity
  8
0
  6
CONTINUOUS
 62
    7
370
   -1
100
AcDbEllipse
 10
69.59557105262947
 20
95.2603853531247
 30
0
 11
-0.6650718660023909
 21
-1.332925681536194
 31
0
 40
0.6935411446737079
 41
5.532063186150547
 42
0.2955217115343555
  0
ELLIPSE
  5
425
100
AcDbEntity
  8
0
  6
CONTINUOUS
 62
    7
370
   -1
100
AcDbEllipse
 10
69.10356245158057
 20
94.72590620859664
 30
0
 11
-0.7071067811866073
 21
0.7071067811865263
 31
0
 40
0.749999999999994
 41
2.356194490192329
 42
3.926990816987126
  0
LWPOLYLINE
  5
426
100
AcDbEntity
  8
0
  6
CONTINUOUS
 62
    7
370
   -1
100
AcDbPolyline
 90
    3
 70
    0
 43
0
 10
66.97856245158069
 20
93.4009062085966
 42
-0.4142135623731061
 10
67.72856245158057
 20
94.1509062085966
 42
-0.4142135623731616
 10
68.47856245158057
 20
93.4009062085966
 42
-0.4142135623731616
  0
ELLIPSE
  5
427
100
AcDbEntity
  8
0
  6
CONTINUOUS
 62
    7
370
   -1
100
AcDbEllipse
 10
69.59557105262947
 20
94.06038535312466
 30
0
 11
-0.6650718660023909
 21
-1.332925681536194
 31
0
 40
0.6935411446737079
 41
5.532063186150547
 42
0.2955217115343555
  0
ELLIPSE
  5
428
100
AcDbEntity
  8
0
  6
CONTINUOUS
 62
    7
370
   -1
100
AcDbEllipse
 10
69.10356245158057
 20
93.52590620859671
 30
0
 11
-0.7071067811866073
 21
0.7071067811865263
 31
0
 40
0.749999999999994
 41
2.356194490192329
 42
3.926990816987126
  0
ENDBLK
  5
1A5
330
1A3
100
AcDbEntity
  8
0
100
AcDbBlockEnd
  0
BLOCK
  5
1A7
330
1A6
100
AcDbEntity
  8
0
100
AcDbBlockBegin
  2
ElektrischeOven-0
 70
    0
 10
0
 20
0
  3
ElektrischeOven-0
  1

  0
HATCH
  5
429
100
AcDbEntity
  8
0
  6
ByLayer
 62
  256
370
   -1
100
AcDbHatch
 10
0
 20
0
 30
0
210
0
220
0
230
1
  2
SOLID
 70
    1
 71
    0
 91
    1
 92
    0
 93
    1
 72
    2
 10
68.47856245158057
 20
83.80090620859646
 40
0.8000000000000075
 50
0
 51
360
 73
    1
 97
    0
 75
    0
 76
    1
 98
    0
  0
LWPOLYLINE
  5
42A
100
AcDbEntity
  8
0
  6
CONTINUOUS
 62
    7
370
   -1
100
AcDbPolyline
 90
    4
 70
    1
 43
0
 10
65.47856245158057
 20
81.60090620859653
 10
71.47856245158057
 20
81.60090620859653
 10
71.47856245158057
 20
87.60090620859653
 10
65.47856245158057
 20
87.60090620859653
  0
LINE
  5
42B
100
AcDbEntity
  8
0
  6
CONTINUOUS
 62
    7
370
   -1
100
AcDbLine
 10
64.47856245158057
 20
84.60090620859653
 11
65.47856245158057
 21
84.60090620859653
  0
CIRCLE
  5
42C
100
AcDbEntity
  8
0
  6
CONTINUOUS
 62
    7
370
   -1
100
AcDbCircle
 10
68.47856245158057
 20
83.80090620859646
 40
0.8000000000000075
  0
LINE
  5
42D
100
AcDbEntity
  8
0
  6
CONTINUOUS
 62
    7
370
   -1
100
AcDbLine
 10
65.47856245158057
 20
85.60090620859653
 11
71.47856245158057
 21
85.60090620859653
  0
ENDBLK
  5
1A8
330
1A6
100
AcDbEntity
  8
0
100
AcDbBlockEnd
  0
BLOCK
  5
1AA
330
1A9
100
AcDbEntity
  8
0
100
AcDbBlockBegin
  2
Wasmashine-0
 70
    0
 10
0
 20
0
  3
Wasmashine-0
  1

  0
HATCH
  5
42E
100
AcDbEntity
  8
0
  6
ByLayer
 62
  256
370
   -1
100
AcDbHatch
 10
0
 20
0
 30
0
210
0
220
0
230
1
  2
SOLID
 70
    1
 71
    0
 91
    1
 92
    0
 93
    1
 72
    2
 10
68.47856245158029
 20
74.60090620859653
 40
0.8000000000000075
 50
0
 51
360
 73
    1
 97
    0
 75
    0
 76
    1
 98
    0
  0
LWPOLYLINE
  5
42F
100
AcDbEntity
  8
0
  6
CONTINUOUS
 62
    7
370
   -1
100
AcDbPolyline
 90
    4
 70
    1
 43
0
 10
65.47856245158057
 20
71.60090620859653
 10
71.47856245158057
 20
71.60090620859653
 10
71.47856245158057
 20
77.60090620859653
 10
65.47856245158057
 20
77.60090620859653
  0
LINE
  5
430
100
AcDbEntity
  8
0
  6
CONTINUOUS
 62
    7
370
   -1
100
AcDbLine
 10
64.47856245158029
 20
74.60090620859653
 11
65.47856245158034
 21
74.60090620859653
  0
CIRCLE
  5
431
100
AcDbEntity
  8
0
  6
CONTINUOUS
 62
    7
370
   -1
100
AcDbCircle
 10
68.47856245158029
 20
74.60090620859653
 40
0.8000000000000075
  0
CIRCLE
  5
432
100
AcDbEntity
  8
0
  6
CONTINUOUS
 62
    7
370
   -1
100
AcDbCircle
 10
68.47856245158057
 20
74.60090620859653
 40
1.999999999999996
  0
ENDBLK
  5
1AB
330
1A9
100
AcDbEntity
  8
0
100
AcDbBlockEnd
  0
BLOCK
  5
1AD
330
1AC
100
AcDbEntity
  8
0
100
AcDbBlockBegin
  2
Droogkast-0
 70
    0
 10
0
 20
0
  3
Droogkast-0
  1

  0
HATCH
  5
433
100
AcDbEntity
  8
0
  6
ByLayer
 62
  256
370
   -1
100
AcDbHatch
 10
0
 20
0
 30
0
210
0
220
0
230
1
  2
SOLID
 70
    1
 71
    0
 91
    1
 92
    0
 93
    1
 72
    2
 10
68.47856245158054
 20
63.80090620859646
 40
0.8000000000000075
 50
0
 51
360
 73
    1
 97
    0
 75
    0
 76
    1
 98
    0
  0
LWPOLYLINE
  5
434
100
AcDbEntity
  8
0
  6
CONTINUOUS
 62
    7
370
   -1
100
AcDbPolyline
 90
    4
 70
    1
 43
0
 10
65.4785624515806
 20
61.60090620859653
 10
71.47856245158054
 20
61.60090620859653
 10
71.47856245158054
 20
67.60090620859653
 10
65.4785624515806
 20
67.60090620859653
  0
LINE
  5
435
100
AcDbEntity
  8
0
  6
CONTINUOUS
 62
    7
370
   -1
100
AcDbLine
 10
64.4785624515806
 20
64.60090620859653
 11
65.4785624515806
 21
64.60090620859653
  0
CIRCLE
  5
436
100
AcDbEntity
  8
0
  6
CONTINUOUS
 62
    7
370
   -1
100
AcDbCircle
 10
68.47856245158054
 20
63.80090620859646
 40
0.8000000000000075
  0
CIRCLE
  5
437
100
AcDbEntity
  8
0
  6
CONTINUOUS
 62
    7
370
   -1
100
AcDbCircle
 10
67.72856245158049
 20
65.85090620859653
 40
0.7499999999999987
  0
CIRCLE
  5
438
100
AcDbEntity
  8
0
  6
CONTINUOUS
 62
    7
370
   -1
100
AcDbCircle
 10
69.2285624515806
 20
65.85090620859653
 40
0.7499999999999987
  0
ENDBLK
  5
1AE
330
1AC
100
AcDbEntity
  8
0
100
AcDbBlockEnd
  0
BLOCK
  5
1B0
330
1AF
100
AcDbEntity
  8
0
100
AcDbBlockBegin
  2
Vaatwasmashine-0
 70
    0
 10
0
 20
0
  3
Vaatwasmashine-0
  1

  0
LWPOLYLINE
  5
439
100
AcDbEntity
  8
0
  6
CONTINUOUS
 62
    7
370
   -1
100
AcDbPolyline
 90
    4
 70
    1
 43
0
 10
65.47856245158057
 20
51.60090620859653
 10
71.47856245158057
 20
51.60090620859653
 10
71.47856245158057
 20
57.60090620859653
 10
65.47856245158057
 20
57.60090620859653
  0
LINE
  5
43A
100
AcDbEntity
  8
0
  6
CONTINUOUS
 62
    7
370
   -1
100
AcDbLine
 10
64.47856245158057
 20
54.60090620859653
 11
65.47856245158057
 21
54.60090620859653
  0
CIRCLE
  5
43B
100
AcDbEntity
  8
0
  6
CONTINUOUS
 62
    7
370
   -1
100
AcDbCircle
 10
68.47856245158057
 20
54.60090620859653
 40
0.9999999999999981
  0
LINE
  5
43C
100
AcDbEntity
  8
0
  6
CONTINUOUS
 62
    7
370
   -1
100
AcDbLine
 10
65.47856245158063
 20
57.60090620859653
 11
67.77145567039413
 21
55.30801298978309
  0
LINE
  5
43D
100
AcDbEntity
  8
0
  6
CONTINUOUS
 62
    7
370
   -1
100
AcDbLine
 10
71.47856245158046
 20
57.60090620859653
 11
69.18566923276701
 21
55.30801298978297
  0
LINE
  5
43E
100
AcDbEntity
  8
0
  6
CONTINUOUS
 62
    7
370
   -1
100
AcDbLine
 10
65.47856245158063
 20
51.60090620859653
 11
67.77145567039408
 21
53.89379942740998
  0
LINE
  5
43F
100
AcDbEntity
  8
0
  6
CONTINUOUS
 62
    7
370
   -1
100
AcDbLine
 10
71.47856245158046
 20
51.60090620859653
 11
69.18566923276701
 21
53.89379942740987
  0
ENDBLK
  5
1B1
330
1AF
100
AcDbEntity
  8
0
100
AcDbBlockEnd
  0
BLOCK
  5
1B3
330
1B2
100
AcDbEntity
  8
0
100
AcDbBlockBegin
  2
Koelkast-0
 70
    0
 10
0
 20
0
  3
Koelkast-0
  1

  0
MTEXT
  5
440
100
AcDbEntity
  8
0
  6
ByLayer
 62
  256
370
   -1
100
AcDbMText
 10
68.52163185086961
 20
42.67659925524747
 30
0
 40
4.40283203125
 41
137.808644842447
 71
    5
 72
    5
  1
\C7;\fTimes New Roman|b0|i0|;\H4.40283203125;*
  7
standard
210
0
220
0
230
1
 50
0
 73
    1
 44
1
  0
LWPOLYLINE
  5
441
100
AcDbEntity
  8
0
  6
CONTINUOUS
 62
    7
370
   -1
100
AcDbPolyline
 90
    4
 70
    1
 43
0
 10
65.47856245158057
 20
41.60090620859653
 10
71.47856245158057
 20
41.60090620859653
 10
71.47856245158057
 20
47.60090620859653
 10
65.47856245158057
 20
47.60090620859653
  0
LINE
  5
442
100
AcDbEntity
  8
0
  6
CONTINUOUS
 62
    7
370
   -1
100
AcDbLine
 10
64.47856245158057
 20
44.60090620859653
 11
65.47856245158069
 21
44.60090620859653
  0
ENDBLK
  5
1B4
330
1B2
100
AcDbEntity
  8
0
100
AcDbBlockEnd
  0
BLOCK
  5
1B6
330
1B5
100
AcDbEntity
  8
0
100
AcDbBlockBegin
  2
Diepvriezer-0
 70
    0
 10
0
 20
0
  3
Diepvriezer-0
  1

  0
LWPOLYLINE
  5
443
100
AcDbEntity
  8
0
  6
CONTINUOUS
 62
    7
370
   -1
100
AcDbPolyline
 90
    4
 70
    1
 43
0
 10
65.47856245158057
 20
31.60090620859653
 10
71.47856245158057
 20
31.60090620859653
 10
71.47856245158057
 20
37.60090620859653
 10
65.47856245158057
 20
37.60090620859653
  0
LINE
  5
444
100
AcDbEntity
  8
0
  6
CONTINUOUS
 62
    7
370
   -1
100
AcDbLine
 10
64.47856245158057
 20
34.60090620859653
 11
65.47856245158057
 21
34.60090620859653
  0
MTEXT
  5
445
100
AcDbEntity
  8
0
  6
ByLayer
 62
  256
370
   -1
100
AcDbMText
 10
65.98967356269164
 20
34.00090620859651
 30
0
 40
2.446025259792805
 41
85.63806340915082
 71
    4
 72
    5
  1
\C7;\fTimes New Roman|b0|i0|;\H2.4460252597928;***
  7
standard
210
0
220
0
230
1
 50
0
 73
    1
 44
1
  0
ENDBLK
  5
1B7
330
1B5
100
AcDbEntity
  8
0
100
AcDbBlockEnd
  0
BLOCK
  5
1B9
330
1B8
100
AcDbEntity
  8
0
100
AcDbBlockBegin
  2
Transformator-0
 70
    0
 10
0
 20
0
  3
Transformator-0
  1

  0
CIRCLE
  5
446
100
AcDbEntity
  8
0
  6
CONTINUOUS
 62
    7
370
   -1
100
AcDbCircle
 10
68.47856245158057
 20
26.10090620859653
 40
1.999999999999996
  0
CIRCLE
  5
447
100
AcDbEntity
  8
0
  6
CONTINUOUS
 62
    7
370
   -1
100
AcDbCircle
 10
68.47856245158057
 20
23.10090620859653
 40
1.999999999999991
  0
LINE
  5
448
100
AcDbEntity
  8
0
  6
CONTINUOUS
 62
    7
370
   -1
100
AcDbLine
 10
68.47856245158057
 20
28.10090620859653
 11
68.47856245158057
 21
29.10090620859653
  0
LINE
  5
449
100
AcDbEntity
  8
0
  6
CONTINUOUS
 62
    7
370
   -1
100
AcDbLine
 10
68.47856245158057
 20
21.10090620859653
 11
68.47856245158057
 21
20.10090620859653
  0
ENDBLK
  5
1BA
330
1B8
100
AcDbEntity
  8
0
100
AcDbBlockEnd
  0
BLOCK
  5
1BC
330
1BB
100
AcDbEntity
  8
0
100
AcDbBlockBegin
  2
Motor-0
 70
    0
 10
0
 20
0
  3
Motor-0
  1

  0
CIRCLE
  5
44A
100
AcDbEntity
  8
0
  6
CONTINUOUS
 62
    7
370
   -1
100
AcDbCircle
 10
68.47856245158057
 20
14.60090620859653
 40
1.999999999999991
  0
MTEXT
  5
44B
100
AcDbEntity
  8
0
  6
ByLayer
 62
  256
370
   -1
100
AcDbMText
 10
68.37693563828729
 20
14.57400337706286
 30
0
 40
1.956806771457195
 41
63.70493256602362
 71
    5
 72
    5
  1
\C7;\fTimes New Roman|b0|i0|;\H1.9568067714572;M
  7
standard
210
0
220
0
230
1
 50
0
 73
    1
 44
1
  0
ENDBLK
  5
1BD
330
1BB
100
AcDbEntity
  8
0
100
AcDbBlockEnd
  0
BLOCK
  5
1BF
330
1BE
100
AcDbEntity
  8
0
100
AcDbBlockBegin
  2
kWhTeller-0
 70
    0
 10
0
 20
0
  3
kWhTeller-0
  1

  0
LWPOLYLINE
  5
44C
100
AcDbEntity
  8
0
  6
CONTINUOUS
 62
    7
370
   -1
100
AcDbPolyline
 90
    4
 70
    1
 43
0
 10
65.47856245158063
 20
1.600906208596533
 10
71.47856245158052
 20
1.600906208596533
 10
71.47856245158052
 20
7.600906208596533
 10
65.47856245158063
 20
7.600906208596533
  0
LINE
  5
44D
100
AcDbEntity
  8
0
  6
CONTINUOUS
 62
    7
370
   -1
100
AcDbLine
 10
64.47856245158063
 20
4.600906208596533
 11
65.47856245158063
 21
4.600906208596533
  0
LINE
  5
44E
100
AcDbEntity
  8
0
  6
CONTINUOUS
 62
    7
370
   -1
100
AcDbLine
 10
65.47856245158063
 20
5.600906208596533
 11
71.47856245158052
 21
5.600906208596533
  0
MTEXT
  5
44F
100
AcDbEntity
  8
0
  6
ByLayer
 62
  256
370
   -1
100
AcDbMText
 10
68.58411800713601
 20
3.40229509748547
 30
0
 40
1.79780740365386
 41
46.04384517135788
 71
    5
 72
    5
  1
\C7;\fArial|b0|i0|;\H1.7978074036539;kWh
  7
standard
210
0
220
0
230
1
 50
0
 73
    1
 44
1
  0
ENDBLK
  5
1C0
330
1BE
100
AcDbEntity
  8
0
100
AcDbBlockEnd
  0
BLOCK
  5
1C2
330
1C1
100
AcDbEntity
  8
0
100
AcDbBlockBegin
  2
schakelaar-0
 70
    0
 10
0
 20
0
  3
schakelaar-0
  1

  0
CIRCLE
  5
450
100
AcDbEntity
  8
0
  6
CONTINUOUS
 62
    7
370
   -1
100
AcDbCircle
 10
15.00000063256107
 20
312.0732762907812
 40
1.000000000000021
  0
LINE
  5
451
100
AcDbEntity
  8
0
  6
CONTINUOUS
 62
    7
370
   -1
100
AcDbLine
 10
15.40393331139896
 20
312.98806500462
 11
16.40000063256105
 21
315.6732762907811
  0
ENDBLK
  5
1C3
330
1C1
100
AcDbEntity
  8
0
100
AcDbBlockEnd
  0
BLOCK
  5
1C5
330
1C4
100
AcDbEntity
  8
0
100
AcDbBlockBegin
  2
SchakelaarMetPermanentBrandendeVerklikkerlamp-0
 70
    0
 10
0
 20
0
  3
SchakelaarMetPermanentBrandendeVerklikkerlamp-0
  1

  0
CIRCLE
  5
452
100
AcDbEntity
  8
0
  6
CONTINUOUS
 62
    7
370
   -1
100
AcDbCircle
 10
15.00000063256106
 20
302.0732762907812
 40
1.000000000000021
  0
LINE
  5
453
100
AcDbEntity
  8
0
  6
CONTINUOUS
 62
    7
370
   -1
100
AcDbLine
 10
15.40393331139895
 20
302.98806500462
 11
16.40000063256107
 21
305.6732762907811
  0
LINE
  5
454
100
AcDbEntity
  8
0
  6
CONTINUOUS
 62
    7
370
   -1
100
AcDbLine
 10
14.29289385137448
 20
302.7803830719677
 11
15.70710741374765
 21
301.3661695095946
  0
LINE
  5
455
100
AcDbEntity
  8
0
  6
CONTINUOUS
 62
    7
370
   -1
100
AcDbLine
 10
14.29289385137451
 20
301.3661695095946
 11
15.70710741374762
 21
302.7803830719677
  0
ENDBLK
  5
1C6
330
1C4
100
AcDbEntity
  8
0
100
AcDbBlockEnd
  0
BLOCK
  5
1C8
330
1C7
100
AcDbEntity
  8
0
100
AcDbBlockBegin
  2
EnkelpoligeSchakelaarMetVertraagdeOpening-0
 70
    0
 10
0
 20
0
  3
EnkelpoligeSchakelaarMetVertraagdeOpening-0
  1

  0
CIRCLE
  5
456
100
AcDbEntity
  8
0
  6
CONTINUOUS
 62
    7
370
   -1
100
AcDbCircle
 10
15.0000006325611
 20
292.0732762907812
 40
1.000000000000021
  0
LINE
  5
457
100
AcDbEntity
  8
0
  6
CONTINUOUS
 62
    7
370
   -1
100
AcDbLine
 10
15.40393331139896
 20
292.98806500462
 11
16.40105826536577
 21
295.6761274711016
  0
LINE
  5
458
100
AcDbEntity
  8
0
  6
CONTINUOUS
 62
    7
370
   -1
100
AcDbLine
 10
16.40105826536577
 20
295.6761274711016
 11
17.12000063256108
 21
295.3732762907812
  0
TEXT
  5
459
100
AcDbEntity
  8
0
  6
ByLayer
 62
  256
370
   -1
100
AcDbText
 10
16.43893893946741
 20
293.4222240104172
 30
0
 40
1.3
  1
t
 50
0
 41
1
 51
0
  7
fibrocit_100
 71
    0
210
0
220
0
230
1
100
AcDbText
  0
ENDBLK
  5
1C9
330
1C7
100
AcDbEntity
  8
0
100
AcDbBlockEnd
  0
BLOCK
  5
1CB
330
1CA
100
AcDbEntity
  8
0
100
AcDbBlockBegin
  2
EnkelpoligeSchakelaar-0
 70
    0
 10
0
 20
0
  3
EnkelpoligeSchakelaar-0
  1

  0
CIRCLE
  5
45A
100
AcDbEntity
  8
0
  6
CONTINUOUS
 62
    7
370
   -1
100
AcDbCircle
 10
15.00000063256107
 20
282.0732762907812
 40
1.000000000000021
  0
LINE
  5
45B
100
AcDbEntity
  8
0
  6
CONTINUOUS
 62
    7
370
   -1
100
AcDbLine
 10
15.40393331139893
 20
282.98806500462
 11
16.40000063256105
 21
285.6732762907812
  0
LINE
  5
45C
100
AcDbEntity
  8
0
  6
CONTINUOUS
 62
    7
370
   -1
100
AcDbLine
 10
16.43750063256101
 20
285.6607762907813
 11
17.12000063256104
 21
285.3732762907812
  0
ENDBLK
  5
1CC
330
1CA
100
AcDbEntity
  8
0
100
AcDbBlockEnd
  0
BLOCK
  5
1CE
330
1CD
100
AcDbEntity
  8
0
100
AcDbBlockBegin
  2
TweepoligeSchakelaar-0
 70
    0
 10
0
 20
0
  3
TweepoligeSchakelaar-0
  1

  0
CIRCLE
  5
45D
100
AcDbEntity
  8
0
  6
CONTINUOUS
 62
    7
370
   -1
100
AcDbCircle
 10
15.00000063256107
 20
272.0732762907812
 40
1.000000000000021
  0
LINE
  5
45E
100
AcDbEntity
  8
0
  6
CONTINUOUS
 62
    7
370
   -1
100
AcDbLine
 10
15.40393331139893
 20
272.98806500462
 11
16.40000063256102
 21
275.6732762907812
  0
LINE
  5
45F
100
AcDbEntity
  8
0
  6
CONTINUOUS
 62
    7
370
   -1
100
AcDbLine
 10
16.43750063256104
 20
275.6607762907813
 11
17.12000063256104
 21
275.3732762907812
  0
LINE
  5
460
100
AcDbEntity
  8
0
  6
CONTINUOUS
 62
    7
370
   -1
100
AcDbLine
 10
16.1202058601952
 20
274.9190018912466
 11
16.80270586019524
 21
274.6315018912466
  0
ENDBLK
  5
1CF
330
1CD
100
AcDbEntity
  8
0
100
AcDbBlockEnd
  0
BLOCK
  5
1D1
330
1D0
100
AcDbEntity
  8
0
100
AcDbBlockBegin
  2
DriepoligeSchakelaar-0
 70
    0
 10
0
 20
0
  3
DriepoligeSchakelaar-0
  1

  0
CIRCLE
  5
461
100
AcDbEntity
  8
0
  6
CONTINUOUS
 62
    7
370
   -1
100
AcDbCircle
 10
15.00000063256107
 20
262.0732762907812
 40
1.000000000000021
  0
LINE
  5
462
100
AcDbEntity
  8
0
  6
CONTINUOUS
 62
    7
370
   -1
100
AcDbLine
 10
15.40393331139896
 20
262.98806500462
 11
16.40000063256105
 21
265.6732762907812
  0
LINE
  5
463
100
AcDbEntity
  8
0
  6
CONTINUOUS
 62
    7
370
   -1
100
AcDbLine
 10
16.43750063256104
 20
265.6607762907813
 11
17.12000063256104
 21
265.3732762907812
  0
LINE
  5
464
100
AcDbEntity
  8
0
  6
CONTINUOUS
 62
    7
370
   -1
100
AcDbLine
 10
16.1202058601952
 20
264.9190018912466
 11
16.8027058601952
 21
264.6315018912466
  0
LINE
  5
465
100
AcDbEntity
  8
0
  6
CONTINUOUS
 62
    7
370
   -1
100
AcDbLine
 10
15.83112084457508
 20
264.1396827326805
 11
16.51362084457512
 21
263.8521827326804
  0
ENDBLK
  5
1D2
330
1D0
100
AcDbEntity
  8
0
100
AcDbBlockEnd
  0
BLOCK
  5
1D4
330
1D3
100
AcDbEntity
  8
0
100
AcDbBlockBegin
  2
EnkelpoligeOmschakelaar-0
 70
    0
 10
0
 20
0
  3
EnkelpoligeOmschakelaar-0
  1

  0
CIRCLE
  5
466
100
AcDbEntity
  8
0
  6
CONTINUOUS
 62
    7
370
   -1
100
AcDbCircle
 10
15.00000063256107
 20
252.0732762907812
 40
1.000000000000021
  0
LINE
  5
467
100
AcDbEntity
  8
0
  6
CONTINUOUS
 62
    7
370
   -1
100
AcDbLine
 10
15.40393331139896
 20
252.98806500462
 11
16.40000063256105
 21
255.6732762907812
  0
LINE
  5
468
100
AcDbEntity
  8
0
  6
CONTINUOUS
 62
    7
370
   -1
100
AcDbLine
 10
16.43750063256104
 20
255.6607762907812
 11
17.12000063256104
 21
255.3732762907812
  0
LINE
  5
469
100
AcDbEntity
  8
0
  6
CONTINUOUS
 62
    7
370
   -1
100
AcDbLine
 10
14.71606795372313
 20
252.98806500462
 11
13.72000063256107
 21
255.6732762907812
  0
LINE
  5
46A
100
AcDbEntity
  8
0
  6
CONTINUOUS
 62
    7
370
   -1
100
AcDbLine
 10
13.68250063256107
 20
255.6607762907812
 11
13.00000063256104
 21
255.3732762907812
  0
ENDBLK
  5
1D5
330
1D3
100
AcDbEntity
  8
0
100
AcDbBlockEnd
  0
BLOCK
  5
1D7
330
1D6
100
AcDbEntity
  8
0
100
AcDbBlockBegin
  2
EnkelpoligeWisselschakelaar-0
 70
    0
 10
0
 20
0
  3
EnkelpoligeWisselschakelaar-0
  1

  0
CIRCLE
  5
46B
100
AcDbEntity
  8
0
  6
CONTINUOUS
 62
    7
370
   -1
100
AcDbCircle
 10
15.00000063256107
 20
242.0732762907812
 40
1.000000000000021
  0
LINE
  5
46C
100
AcDbEntity
  8
0
  6
CONTINUOUS
 62
    7
370
   -1
100
AcDbLine
 10
15.40393331139893
 20
243.0306706477006
 11
16.40000063256103
 21
245.7158819338618
  0
LINE
  5
46D
100
AcDbEntity
  8
0
  6
CONTINUOUS
 62
    7
370
   -1
100
AcDbLine
 10
16.43750063256101
 20
245.7033819338616
 11
17.12000063256104
 21
245.4158819338617
  0
LINE
  5
46E
100
AcDbEntity
  8
0
  6
CONTINUOUS
 62
    7
370
   -1
100
AcDbLine
 10
14.82000063256101
 20
241.073276290781
 11
13.82393331139898
 21
238.3880650046198
  0
LINE
  5
46F
100
AcDbEntity
  8
0
  6
CONTINUOUS
 62
    7
370
   -1
100
AcDbLine
 10
13.78643331139897
 20
238.4005650046199
 11
13.10393331139893
 21
238.6880650046198
  0
ENDBLK
  5
1D8
330
1D6
100
AcDbEntity
  8
0
100
AcDbBlockEnd
  0
BLOCK
  5
1DA
330
1D9
100
AcDbEntity
  8
0
100
AcDbBlockBegin
  2
TweepoligeWisselschakelaar-0
 70
    0
 10
0
 20
0
  3
TweepoligeWisselschakelaar-0
  1

  0
CIRCLE
  5
470
100
AcDbEntity
  8
0
  6
CONTINUOUS
 62
    7
370
   -1
100
AcDbCircle
 10
15.00000063256107
 20
232.0732762907812
 40
1.000000000000021
  0
LINE
  5
471
100
AcDbEntity
  8
0
  6
CONTINUOUS
 62
    7
370
   -1
100
AcDbLine
 10
15.40393331139895
 20
232.9880650046199
 11
16.40000063256105
 21
235.6732762907811
  0
LINE
  5
472
100
AcDbEntity
  8
0
  6
CONTINUOUS
 62
    7
370
   -1
100
AcDbLine
 10
16.43750063256104
 20
235.6607762907813
 11
17.12000063256108
 21
235.3732762907812
  0
LINE
  5
473
100
AcDbEntity
  8
0
  6
CONTINUOUS
 62
    7
370
   -1
100
AcDbLine
 10
16.1202058601952
 20
234.9190018912464
 11
16.80270586019522
 21
234.6315018912464
  0
LINE
  5
474
100
AcDbEntity
  8
0
  6
CONTINUOUS
 62
    7
370
   -1
100
AcDbLine
 10
14.71606795372314
 20
231.0158819338617
 11
13.72000063256108
 21
228.3306706477006
  0
LINE
  5
475
100
AcDbEntity
  8
0
  6
CONTINUOUS
 62
    7
370
   -1
100
AcDbLine
 10
13.68250063256107
 20
228.3431706477007
 11
13.00000063256107
 21
228.6306706477007
  0
LINE
  5
476
100
AcDbEntity
  8
0
  6
CONTINUOUS
 62
    7
370
   -1
100
AcDbLine
 10
13.99979540492692
 20
229.0849450472352
 11
13.3172954049269
 21
229.3724450472353
  0
ENDBLK
  5
1DB
330
1D9
100
AcDbEntity
  8
0
100
AcDbBlockEnd
  0
BLOCK
  5
1DD
330
1DC
100
AcDbEntity
  8
0
100
AcDbBlockBegin
  2
Kruisschakelaar-0
 70
    0
 10
0
 20
0
  3
Kruisschakelaar-0
  1

  0
CIRCLE
  5
477
100
AcDbEntity
  8
0
  6
CONTINUOUS
 62
    7
370
   -1
100
AcDbCircle
 10
15.00000063256107
 20
222.0732762907812
 40
1.000000000000021
  0
LINE
  5
478
100
AcDbEntity
  8
0
  6
CONTINUOUS
 62
    7
370
   -1
100
AcDbLine
 10
15.40393331139895
 20
222.98806500462
 11
16.40000063256106
 21
225.6732762907811
  0
LINE
  5
479
100
AcDbEntity
  8
0
  6
CONTINUOUS
 62
    7
370
   -1
100
AcDbLine
 10
16.43750063256106
 20
225.6607762907813
 11
17.12000063256109
 21
225.3732762907813
  0
LINE
  5
47A
100
AcDbEntity
  8
0
  6
CONTINUOUS
 62
    7
370
   -1
100
AcDbLine
 10
14.4780342931421
 20
221.2158819338617
 11
13.48196697198007
 21
218.5306706477006
  0
LINE
  5
47B
100
AcDbEntity
  8
0
  6
CONTINUOUS
 62
    7
370
   -1
100
AcDbLine
 10
13.44446697198005
 20
218.5431706477006
 11
12.76196697198005
 21
218.8306706477006
  0
LINE
  5
47C
100
AcDbEntity
  8
0
  6
CONTINUOUS
 62
    7
370
   -1
100
AcDbLine
 10
14.62000063256109
 20
223.0306706477006
 11
13.62393331139897
 21
225.7158819338618
  0
LINE
  5
47D
100
AcDbEntity
  8
0
  6
CONTINUOUS
 62
    7
370
   -1
100
AcDbLine
 10
13.58643331139898
 20
225.7033819338617
 11
12.90393331139897
 21
225.4158819338617
  0
LINE
  5
47E
100
AcDbEntity
  8
0
  6
CONTINUOUS
 62
    7
370
   -1
100
AcDbLine
 10
15.42000063256107
 20
221.1732762907811
 11
16.41606795372319
 21
218.4880650046199
  0
LINE
  5
47F
100
AcDbEntity
  8
0
  6
CONTINUOUS
 62
    7
370
   -1
100
AcDbLine
 10
16.45356795372315
 20
218.50056500462
 11
17.13606795372316
 21
218.78806500462
  0
ENDBLK
  5
1DE
330
1DC
100
AcDbEntity
  8
0
100
AcDbBlockEnd
  0
BLOCK
  5
1E0
330
1DF
100
AcDbEntity
  8
0
100
AcDbBlockBegin
  2
EnkelpoligeSchakelaarMetSignalisatielamp-0
 70
    0
 10
0
 20
0
  3
EnkelpoligeSchakelaarMetSignalisatielamp-0
  1

  0
CIRCLE
  5
480
100
AcDbEntity
  8
0
  6
CONTINUOUS
 62
    7
370
   -1
100
AcDbCircle
 10
12.00000063256104
 20
212.0732762907812
 40
1.000000000000021
  0
LINE
  5
481
100
AcDbEntity
  8
0
  6
CONTINUOUS
 62
    7
370
   -1
100
AcDbLine
 10
11.29289385137446
 20
212.7803830719677
 11
12.70710741374762
 21
211.3661695095947
  0
LINE
  5
482
100
AcDbEntity
  8
0
  6
CONTINUOUS
 62
    7
370
   -1
100
AcDbLine
 10
11.29289385137449
 20
211.3661695095947
 11
12.70710741374758
 21
212.7803830719677
  0
CIRCLE
  5
483
100
AcDbEntity
  8
0
  6
CONTINUOUS
 62
    7
370
   -1
100
AcDbCircle
 10
15.00000063256107
 20
212.0732762907812
 40
1.000000000000021
  0
LINE
  5
484
100
AcDbEntity
  8
0
  6
CONTINUOUS
 62
    7
370
   -1
100
AcDbLine
 10
15.40393331139896
 20
212.9880650046198
 11
16.40000063256105
 21
215.6732762907811
  0
LINE
  5
485
100
AcDbEntity
  8
0
  6
CONTINUOUS
 62
    7
370
   -1
100
AcDbLine
 10
16.43750063256104
 20
215.6607762907812
 11
17.12000063256106
 21
215.3732762907812
  0
LINE
  5
486
100
AcDbEntity
  8
CONNECTOR
  6
CONTINUOUS
 62
  256
370
   -1
100
AcDbLine
 10
13.00000063256106
 20
212.0732762907812
 11
14.00008073830075
 21
212.0732762907812
  0
ENDBLK
  5
1E1
330
1DF
100
AcDbEntity
  8
0
100
AcDbBlockEnd
  0
BLOCK
  5
1E3
330
1E2
100
AcDbEntity
  8
0
100
AcDbBlockBegin
  2
Dimmer-0
 70
    0
 10
0
 20
0
  3
Dimmer-0
  1

  0
HATCH
  5
487
100
AcDbEntity
  8
0
  6
ByLayer
 62
  256
370
   -1
100
AcDbHatch
 10
0
 20
0
 30
0
210
0
220
0
230
1
  2
SOLID
 70
    1
 71
    0
 91
    1
 92
    0
 93
    3
 72
    1
 10
13.65000063256105
 20
203.8732762907812
 11
17.35000063256103
 21
203.8732762907812
 72
    1
 10
17.35000063256103
 20
203.8732762907812
 11
17.35000063256103
 21
204.8599429574479
 72
    1
 10
17.35000063256103
 20
204.8599429574479
 11
13.65000063256105
 21
203.8732762907812
 97
    0
 75
    0
 76
    1
 98
    0
  0
CIRCLE
  5
488
100
AcDbEntity
  8
0
  6
CONTINUOUS
 62
    7
370
   -1
100
AcDbCircle
 10
15.00000063256107
 20
202.0732762907812
 40
1.000000000000021
  0
LINE
  5
489
100
AcDbEntity
  8
0
  6
CONTINUOUS
 62
    7
370
   -1
100
AcDbLine
 10
15.40393331139896
 20
202.98806500462
 11
16.40000063256108
 21
205.6732762907812
  0
LINE
  5
48A
100
AcDbEntity
  8
0
  6
CONTINUOUS
 62
    7
370
   -1
100
AcDbLine
 10
16.43750063256107
 20
205.6607762907812
 11
17.12000063256108
 21
205.3732762907812
  0
LWPOLYLINE
  5
48B
100
AcDbEntity
  8
0
  6
CONTINUOUS
 62
    7
370
   -1
100
AcDbPolyline
 90
    3
 70
    1
 43
0
 10
13.65000063256105
 20
203.8732762907812
 10
17.35000063256103
 20
203.8732762907812
 10
17.35000063256103
 20
204.8599429574479
  0
ENDBLK
  5
1E4
330
1E2
100
AcDbEntity
  8
0
100
AcDbBlockEnd
  0
BLOCK
  5
1E6
330
1E5
100
AcDbEntity
  8
0
100
AcDbBlockBegin
  2
Drukknop-0
 70
    0
 10
0
 20
0
  3
Drukknop-0
  1

  0
CIRCLE
  5
48C
100
AcDbEntity
  8
0
  6
CONTINUOUS
 62
    7
370
   -1
100
AcDbCircle
 10
15.00000063256107
 20
192.0732762907812
 40
1.499999999999996
  0
CIRCLE
  5
48D
100
AcDbEntity
  8
0
  6
CONTINUOUS
 62
    7
370
   -1
100
AcDbCircle
 10
15.00000063256107
 20
192.0732762907812
 40
0.7499999999999967
  0
ENDBLK
  5
1E7
330
1E5
100
AcDbEntity
  8
0
100
AcDbBlockEnd
  0
BLOCK
  5
1E9
330
1E8
100
AcDbEntity
  8
0
100
AcDbBlockBegin
  2
DrukknopMetVerklikkerlamp-0
 70
    0
 10
0
 20
0
  3
DrukknopMetVerklikkerlamp-0
  1

  0
CIRCLE
  5
48E
100
AcDbEntity
  8
0
  6
CONTINUOUS
 62
    7
370
   -1
100
AcDbCircle
 10
15.00000063256107
 20
182.0732762907812
 40
1.499999999999996
  0
CIRCLE
  5
48F
100
AcDbEntity
  8
0
  6
CONTINUOUS
 62
    7
370
   -1
100
AcDbCircle
 10
15.00000063256107
 20
182.0732762907812
 40
0.7499999999999967
  0
LINE
  5
490
100
AcDbEntity
  8
0
  6
CONTINUOUS
 62
    7
370
   -1
100
AcDbLine
 10
14.46967054667113
 20
182.6036063766712
 11
15.53033071845101
 21
181.5429462048913
  0
LINE
  5
491
100
AcDbEntity
  8
0
  6
CONTINUOUS
 62
    7
370
   -1
100
AcDbLine
 10
14.46967054667118
 20
181.5429462048913
 11
15.53033071845101
 21
182.6036063766711
  0
ENDBLK
  5
1EA
330
1E8
100
AcDbEntity
  8
0
100
AcDbBlockEnd
  0
BLOCK
  5
1EC
330
1EB
100
AcDbEntity
  8
0
100
AcDbBlockBegin
  2
DrukknopMetAfgeschermdeToegang-0
 70
    0
 10
0
 20
0
  3
DrukknopMetAfgeschermdeToegang-0
  1

  0
CIRCLE
  5
492
100
AcDbEntity
  8
0
  6
CONTINUOUS
 62
    7
370
   -1
100
AcDbCircle
 10
15.00000063256107
 20
172.0732762907812
 40
1.499999999999996
  0
CIRCLE
  5
493
100
AcDbEntity
  8
0
  6
CONTINUOUS
 62
    7
370
   -1
100
AcDbCircle
 10
15.00000063256107
 20
172.0732762907812
 40
0.7499999999999967
  0
LWPOLYLINE
  5
494
100
AcDbEntity
  8
0
  6
CONTINUOUS
 62
    7
370
   -1
100
AcDbPolyline
 90
    6
 70
    0
 43
0
 10
15.0000006325611
 20
175.5732762907812
 10
15.0000006325611
 20
174.6399429574478
 10
17.00000063256108
 20
174.6399429574478
 10
17.00000063256108
 20
169.5732762907812
 10
15.0000006325611
 20
169.5732762907812
 10
15.0000006325611
 20
168.5066096241146
  0
ENDBLK
  5
1ED
330
1EB
100
AcDbEntity
  8
0
100
AcDbBlockEnd
  0
BLOCK
  5
1EF
330
1EE
100
AcDbEntity
  8
0
100
AcDbBlockBegin
  2
Minuterie-0
 70
    0
 10
0
 20
0
  3
Minuterie-0
  1

  0
LWPOLYLINE
  5
495
100
AcDbEntity
  8
0
  6
CONTINUOUS
 62
    7
370
   -1
100
AcDbPolyline
 90
    4
 70
    1
 43
0
 10
11.50000063256107
 20
160.5732762907813
 10
18.50000063256107
 20
160.5732762907813
 10
18.50000063256107
 20
163.5732762907812
 10
11.50000063256107
 20
163.5732762907812
  0
MTEXT
  5
496
100
AcDbEntity
  8
0
  6
ByLayer
 62
  256
370
   -1
100
AcDbMText
 10
15.0000006325611
 20
162.0732762907812
 30
0
 40
1.540967697277665
 41
36.21274088602555
 71
    5
 72
    5
  1
\C7;\fArial|b0|i0|;\H1.5409676972777;t
  7
standard
210
0
220
0
230
1
 50
0
 73
    1
 44
1
  0
ENDBLK
  5
1F0
330
1EE
100
AcDbEntity
  8
0
100
AcDbBlockEnd
  0
BLOCK
  5
1F2
330
1F1
100
AcDbEntity
  8
0
100
AcDbBlockBegin
  2
Schakelklok-0
 70
    0
 10
0
 20
0
  3
Schakelklok-0
  1

  0
LWPOLYLINE
  5
497
100
AcDbEntity
  8
0
  6
CONTINUOUS
 62
    7
370
   -1
100
AcDbPolyline
 90
    4
 70
    1
 43
0
 10
10.58461601717642
 20
150.1809685984736
 10
17.58461601717642
 20
150.1809685984736
 10
17.58461601717642
 20
153.1809685984735
 10
10.58461601717642
 20
153.1809685984735
  0
CIRCLE
  5
498
100
AcDbEntity
  8
0
  6
CONTINUOUS
 62
    7
370
   -1
100
AcDbCircle
 10
12.18461601717641
 20
151.6309685984736
 40
0.7000000000000185
  0
ELLIPSE
  5
499
100
AcDbEntity
  8
0
  6
CONTINUOUS
 62
    7
370
   -1
100
AcDbEllipse
 10
12.18461601717641
 20
151.6309685984736
 30
0
 11
0.1050000000000036
 21
0
 31
0
 40
0.9166666666666682
 41
0
 42
6.283185307179586
  0
LINE
  5
49A
100
AcDbEntity
  8
0
  6
CONTINUOUS
 62
    7
370
   -1
100
AcDbLine
 10
12.18461601717641
 20
152.1559685984736
 11
12.18461601717641
 21
151.7272185984736
  0
LINE
  5
49B
100
AcDbEntity
  8
0
  6
CONTINUOUS
 62
    7
370
   -1
100
AcDbLine
 10
12.22760908110371
 20
151.6309685984736
 11
12.5776090811037
 21
151.6309685984736
  0
LINE
  5
49C
100
AcDbEntity
  8
0
  6
CONTINUOUS
 62
    7
370
   -1
100
AcDbLine
 10
12.88461601717643
 20
151.6309685984735
 11
13.88461601717643
 21
151.6309685984735
  0
LINE
  5
49D
100
AcDbEntity
  8
0
  6
CONTINUOUS
 62
    7
370
   -1
100
AcDbLine
 10
16.88461601717643
 20
151.6309685984735
 11
15.88461601717643
 21
151.6309685984735
  0
LINE
  5
49E
100
AcDbEntity
  8
0
  6
CONTINUOUS
 62
    7
370
   -1
100
AcDbLine
 10
15.88461601717643
 20
151.6309685984735
 11
13.88461601717643
 21
152.6309685984735
  0
ENDBLK
  5
1F3
330
1F1
100
AcDbEntity
  8
0
100
AcDbBlockEnd
  0
BLOCK
  5
1F5
330
1F4
100
AcDbEntity
  8
0
100
AcDbBlockBegin
  2
Impulsschakelaar-0
 70
    0
 10
0
 20
0
  3
Impulsschakelaar-0
  1

  0
LWPOLYLINE
  5
49F
100
AcDbEntity
  8
0
  6
CONTINUOUS
 62
    7
370
   -1
100
AcDbPolyline
 90
    4
 70
    1
 43
0
 10
11.50000063256107
 20
140.5732762907813
 10
18.50000063256107
 20
140.5732762907813
 10
18.50000063256107
 20
143.5732762907812
 10
11.50000063256107
 20
143.5732762907812
  0
LINE
  5
4A0
100
AcDbEntity
  8
0
  6
CONTINUOUS
 62
    7
370
   -1
100
AcDbLine
 10
12.50000063256107
 20
141.5732762907813
 11
14.50000063256107
 21
141.5732762907813
  0
LINE
  5
4A1
100
AcDbEntity
  8
0
  6
CONTINUOUS
 62
    7
370
   -1
100
AcDbLine
 10
14.50000063256107
 20
142.5732762907813
 11
14.50000063256107
 21
141.5732762907813
  0
LWPOLYLINE
  5
4A2
100
AcDbEntity
  8
0
  6
CONTINUOUS
 62
    7
370
   -1
100
AcDbPolyline
 90
    3
 70
    0
 43
0
 10
15.50000063256107
 20
142.5732762907813
 10
15.50000063256107
 20
141.6399429574479
 10
17.50000063256107
 20
141.6399429574479
  0
ENDBLK
  5
1F6
330
1F4
100
AcDbEntity
  8
0
100
AcDbBlockEnd
  0
BLOCK
  5
1F8
330
1F7
100
AcDbEntity
  8
0
100
AcDbBlockBegin
  2
Thermostaat-0
 70
    0
 10
0
 20
0
  3
Thermostaat-0
  1

  0
HATCH
  5
4A3
100
AcDbEntity
  8
0
  6
ByLayer
 62
  256
370
   -1
100
AcDbHatch
 10
0
 20
0
 30
0
210
0
220
0
230
1
  2
SOLID
 70
    1
 71
    0
 91
    1
 92
    0
 93
    1
 72
    2
 10
15.00000063256107
 20
132.0732762907812
 40
0.6999999999999988
 50
0
 51
360
 73
    1
 97
    0
 75
    0
 76
    1
 98
    0
  0
LWPOLYLINE
  5
4A4
100
AcDbEntity
  8
0
  6
CONTINUOUS
 62
    7
370
   -1
100
AcDbPolyline
 90
    4
 70
    1
 43
0
 10
11.50000063256101
 20
130.5732762907812
 10
18.50000063256101
 20
130.5732762907812
 10
18.50000063256101
 20
133.5732762907812
 10
11.50000063256101
 20
133.5732762907812
  0
CIRCLE
  5
4A5
100
AcDbEntity
  8
0
  6
CONTINUOUS
 62
    7
370
   -1
100
AcDbCircle
 10
15.00000063256107
 20
132.0732762907812
 40
0.6999999999999988
  0
ENDBLK
  5
1F9
330
1F7
100
AcDbEntity
  8
0
100
AcDbBlockEnd
  0
BLOCK
  5
1FB
330
1FA
100
AcDbEntity
  8
0
100
AcDbBlockBegin
  2
Rondecontrole-0
 70
    0
 10
0
 20
0
  3
Rondecontrole-0
  1

  0
HATCH
  5
4A6
100
AcDbEntity
  8
0
  6
ByLayer
 62
  256
370
   -1
100
AcDbHatch
 10
0
 20
0
 30
0
210
0
220
0
230
1
  2
SOLID
 70
    1
 71
    0
 91
    1
 92
    0
 93
    4
 72
    1
 10
14.64169845269794
 20
122.0427242063099
 11
14.42638293903815
 21
120.9732762907811
 72
    1
 10
14.42638293903815
 20
120.9732762907811
 11
15.66050616178697
 21
120.9732762907811
 72
    1
 10
15.66050616178697
 20
120.9732762907811
 11
15.45087787178736
 21
122.0144764066733
 72
    3
 10
15.06666729922779
 20
122.5864911761232
 11
0.7000000000000095
 21
0
 40
0.9775784753363088
 50
303.2896787218825
 51
232.6200106371379
 73
    1
 97
    0
 75
    0
 76
    1
 98
    0
  0
LWPOLYLINE
  5
4A7
100
AcDbEntity
  8
0
  6
CONTINUOUS
 62
    7
370
   -1
100
AcDbPolyline
 90
    4
 70
    1
 43
0
 10
11.50000063256107
 20
120.5732762907812
 10
18.50000063256107
 20
120.5732762907812
 10
18.50000063256107
 20
123.5732762907812
 10
11.50000063256107
 20
123.5732762907812
  0
ELLIPSE
  5
4A8
100
AcDbEntity
  8
0
  6
CONTINUOUS
 62
    7
370
   -1
100
AcDbEllipse
 10
15.06666729922779
 20
122.5864911761232
 30
0
 11
0.7000000000000095
 21
0
 31
0
 40
0.9775784753363088
 41
5.29340348101264
 42
4.059985091642305
  0
LWPOLYLINE
  5
4A9
100
AcDbEntity
  8
0
  6
CONTINUOUS
 62
    7
370
   -1
100
AcDbPolyline
 90
    4
 70
    0
 43
0
 10
15.45087787178736
 20
122.0144764066733
 10
15.66050616178697
 20
120.9732762907811
 10
14.42638293903815
 20
120.9732762907811
 10
14.64169845269794
 20
122.0427242063099
  0
ENDBLK
  5
1FC
330
1FA
100
AcDbEntity
  8
0
100
AcDbBlockEnd
  0
BLOCK
  5
1FE
330
1FD
100
AcDbEntity
  8
0
100
AcDbBlockBegin
  2
Stopcontact-0
 70
    0
 10
0
 20
0
  3
Stopcontact-0
  1

  0
LWPOLYLINE
  5
4AA
100
AcDbEntity
  8
0
  6
CONTINUOUS
 62
    7
370
   -1
100
AcDbPolyline
 90
    3
 70
    0
 43
0
 10
16.66666725537004
 20
88.54304376443655
 42
0.4142135623730931
 10
15.00000058870338
 20
86.87637709776988
 42
0.4142135623730957
 10
16.66666725537004
 20
85.20971043110325
 42
0.4142135623730957
  0
LINE
  5
4AB
100
AcDbEntity
  8
0
  6
CONTINUOUS
 62
    7
370
   -1
100
AcDbLine
 10
15.00076529012774
 20
86.8767594484824
 11
13.66743195679467
 21
86.8767594484824
  0
ENDBLK
  5
1FF
330
1FD
100
AcDbEntity
  8
0
100
AcDbBlockEnd
  0
BLOCK
  5
201
330
200
100
AcDbEntity
  8
0
100
AcDbBlockBegin
  2
MeervoudigStopcontact3-0
 70
    0
 10
0
 20
0
  3
MeervoudigStopcontact3-0
  1

  0
LWPOLYLINE
  5
4AC
100
AcDbEntity
  8
0
  6
CONTINUOUS
 62
    7
370
   -1
100
AcDbPolyline
 90
    3
 70
    0
 43
0
 10
16.66666725537004
 20
78.5430437644365
 42
0.4142135623730944
 10
15.00000058870339
 20
76.87637709776982
 42
0.4142135623730981
 10
16.66666725537004
 20
75.20971043110319
 42
0.4142135623730981
  0
LINE
  5
4AD
100
AcDbEntity
  8
0
  6
CONTINUOUS
 62
    7
370
   -1
100
AcDbLine
 10
15.00076529012775
 20
76.87675944848235
 11
13.66743195679467
 21
76.87675944848235
  0
LWPOLYLINE
  5
4AE
100
AcDbEntity
  8
0
  6
CONTINUOUS
 62
    7
370
   -1
100
AcDbPolyline
 90
    3
 70
    0
 43
0
 10
18.00000058870312
 20
78.5430437644365
 42
0.4142135623730963
 10
16.33333392203646
 20
76.87637709776982
 42
0.4142135623730962
 10
18.00000058870312
 20
75.20971043110319
 42
0.4142135623730962
  0
LINE
  5
4AF
100
AcDbEntity
  8
0
  6
CONTINUOUS
 62
    7
370
   -1
100
AcDbLine
 10
16.33409862346082
 20
76.87675944848235
 11
15.00076529012775
 21
76.87675944848235
  0
LWPOLYLINE
  5
4B0
100
AcDbEntity
  8
0
  6
CONTINUOUS
 62
    7
370
   -1
100
AcDbPolyline
 90
    3
 70
    0
 43
0
 10
15.33409862346133
 20
78.54342611514902
 42
0.4142135623730925
 10
13.66743195679467
 20
76.87675944848235
 42
0.4142135623730954
 10
15.33409862346133
 20
75.21009278181572
 42
0.4142135623730954
  0
LINE
  5
4B1
100
AcDbEntity
  8
0
  6
CONTINUOUS
 62
    7
370
   -1
100
AcDbLine
 10
13.66819665821903
 20
76.87714179919487
 11
12.33486332488596
 21
76.87714179919487
  0
ENDBLK
  5
202
330
200
100
AcDbEntity
  8
0
100
AcDbBlockEnd
  0
BLOCK
  5
204
330
203
100
AcDbEntity
  8
0
100
AcDbBlockBegin
  2
WaterdichtStopcontact-0
 70
    0
 10
0
 20
0
  3
WaterdichtStopcontact-0
  1

  0
LWPOLYLINE
  5
4B2
100
AcDbEntity
  8
0
  6
CONTINUOUS
 62
    7
370
   -1
100
AcDbPolyline
 90
    3
 70
    0
 43
0
 10
16.66666729922774
 20
68.54342611514915
 42
0.4142135623730925
 10
15.00000063256107
 20
66.87675944848246
 42
0.4142135623730975
 10
16.66666729922774
 20
65.21009278181583
 42
0.4142135623730975
  0
LINE
  5
4B3
100
AcDbEntity
  8
0
  6
CONTINUOUS
 62
    7
370
   -1
100
AcDbLine
 10
15.00076533398542
 20
66.87714179919482
 11
13.66743200065235
 21
66.87714179919482
  0
MTEXT
  5
4B4
100
AcDbEntity
  8
0
  6
ByLayer
 62
  256
370
   -1
100
AcDbMText
 10
12.66743200065234
 20
65.8767594484824
 30
0
 40
1.28412799090147
 41
29.74896512255098
 71
    5
 72
    5
  1
\C7;\fArial|b0|i0|;\H1.2841279909015;h
  7
standard
210
0
220
0
230
1
 50
0
 73
    1
 44
1
  0
ENDBLK
  5
205
330
203
100
AcDbEntity
  8
0
100
AcDbBlockEnd
  0
BLOCK
  5
207
330
206
100
AcDbEntity
  8
0
100
AcDbBlockBegin
  2
StopcontactMetKinderbescherming-0
 70
    0
 10
0
 20
0
  3
StopcontactMetKinderbescherming-0
  1

  0
LWPOLYLINE
  5
4B5
100
AcDbEntity
  8
0
  6
CONTINUOUS
 62
    7
370
   -1
100
AcDbPolyline
 90
    3
 70
    0
 43
0
 10
16.6666672992277
 20
58.54342611514903
 42
0.4142135623730913
 10
15.00000063256105
 20
56.8767594484824
 42
0.4142135623730962
 10
16.6666672992277
 20
55.21009278181572
 42
0.4142135623730962
  0
LINE
  5
4B6
100
AcDbEntity
  8
0
  6
CONTINUOUS
 62
    7
370
   -1
100
AcDbLine
 10
15.00000063256065
 20
56.8767594484824
 11
13.66666729922756
 21
56.8767594484824
  0
LINE
  5
4B7
100
AcDbEntity
  8
0
  6
CONTINUOUS
 62
    7
370
   -1
100
AcDbLine
 10
16.66666729922753
 20
58.8767594484824
 11
16.66666729922753
 21
58.54342611514909
  0
LINE
  5
4B8
100
AcDbEntity
  8
0
  6
CONTINUOUS
 62
    7
370
   -1
100
AcDbLine
 10
16.65548186881075
 20
55.21013031639444
 11
16.65548186881075
 21
54.8767594484824
  0
ENDBLK
  5
208
330
206
100
AcDbEntity
  8
0
100
AcDbBlockEnd
  0
BLOCK
  5
20A
330
209
100
AcDbEntity
  8
0
100
AcDbBlockBegin
  2
StopcontactMetContactVoorBeschermgeleider-0
 70
    0
 10
0
 20
0
  3
StopcontactMetContactVoorBeschermgeleider-0
  1

  0
LWPOLYLINE
  5
4B9
100
AcDbEntity
  8
0
  6
CONTINUOUS
 62
    7
370
   -1
100
AcDbPolyline
 90
    3
 70
    0
 43
0
 10
16.66666729922815
 20
48.54342611514909
 42
0.4142135623730926
 10
15.00000063256146
 20
46.8767594484824
 42
0.414213562373097
 10
16.66666729922812
 20
45.21009278181577
 42
0.414213562373097
  0
LINE
  5
4BA
100
AcDbEntity
  8
0
  6
CONTINUOUS
 62
    7
370
   -1
100
AcDbLine
 10
15.00000063256107
 20
48.8767594484824
 11
15.00000063256107
 21
44.8767594484824
  0
LINE
  5
4BB
100
AcDbEntity
  8
0
  6
CONTINUOUS
 62
    7
370
   -1
100
AcDbLine
 10
15.00000063256107
 20
46.8767594484824
 11
13.66666729922798
 21
46.8767594484824
  0
ENDBLK
  5
20B
330
209
100
AcDbEntity
  8
0
100
AcDbBlockEnd
  0
BLOCK
  5
20D
330
20C
100
AcDbEntity
  8
0
100
AcDbBlockBegin
  2
StopcontactMetContactVoorBeschermingsgeleiderEnKinderbescherming-0
 70
    0
 10
0
 20
0
  3
StopcontactMetContactVoorBeschermingsgeleiderEnKinderbescherming-0
  1

  0
LWPOLYLINE
  5
4BC
100
AcDbEntity
  8
0
  6
CONTINUOUS
 62
    7
370
   -1
100
AcDbPolyline
 90
    3
 70
    0
 43
0
 10
16.66666729922813
 20
38.5434261151492
 42
0.4142135623730924
 10
15.00000063256147
 20
36.87675944848252
 42
0.4142135623730975
 10
16.66666729922813
 20
35.21009278181589
 42
0.4142135623730975
  0
LINE
  5
4BD
100
AcDbEntity
  8
0
  6
CONTINUOUS
 62
    7
370
   -1
100
AcDbLine
 10
15.00000063256107
 20
38.87675944848252
 11
15.00000063256107
 21
34.87675944848252
  0
LINE
  5
4BE
100
AcDbEntity
  8
0
  6
CONTINUOUS
 62
    7
370
   -1
100
AcDbLine
 10
15.00000063256107
 20
36.87675944848252
 11
13.66666729922798
 21
36.87675944848252
  0
LINE
  5
4BF
100
AcDbEntity
  8
0
  6
CONTINUOUS
 62
    7
370
   -1
100
AcDbLine
 10
16.66666729922795
 20
38.87675944848257
 11
16.66666729922795
 21
38.5434261151492
  0
LINE
  5
4C0
100
AcDbEntity
  8
0
  6
CONTINUOUS
 62
    7
370
   -1
100
AcDbLine
 10
16.65548186881117
 20
35.21013031639455
 11
16.65548186881117
 21
34.87675944848252
  0
ENDBLK
  5
20E
330
20C
100
AcDbEntity
  8
0
100
AcDbBlockEnd
  0
BLOCK
  5
210
330
20F
100
AcDbEntity
  8
0
100
AcDbBlockBegin
  2
StopcontactMetTweepoligeSchakelaar-0
 70
    0
 10
0
 20
0
  3
StopcontactMetTweepoligeSchakelaar-0
  1

  0
LWPOLYLINE
  5
4C1
100
AcDbEntity
  8
0
  6
CONTINUOUS
 62
    7
370
   -1
100
AcDbPolyline
 90
    3
 70
    0
 43
0
 10
16.66666729922769
 20
28.54342611514903
 42
0.4142135623730926
 10
15.00000063256106
 20
26.8767594484824
 42
0.4142135623730963
 10
16.66666729922769
 20
25.21009278181572
 42
0.4142135623730963
  0
LINE
  5
4C2
100
AcDbEntity
  8
0
  6
CONTINUOUS
 62
    7
370
   -1
100
AcDbLine
 10
15.00000063256064
 20
28.8767594484824
 11
15.00000063256064
 21
24.8767594484824
  0
LINE
  5
4C3
100
AcDbEntity
  8
0
  6
CONTINUOUS
 62
    7
370
   -1
100
AcDbLine
 10
15.00000063256064
 20
26.8767594484824
 11
13.66666729922758
 21
26.8767594484824
  0
LINE
  5
4C4
100
AcDbEntity
  8
0
  6
CONTINUOUS
 62
    7
370
   -1
100
AcDbLine
 10
16.66666729922752
 20
28.8767594484824
 11
16.66666729922752
 21
28.54342611514903
  0
LINE
  5
4C5
100
AcDbEntity
  8
0
  6
CONTINUOUS
 62
    7
370
   -1
100
AcDbLine
 10
16.65548186881079
 20
25.2101303163945
 11
16.65548186881079
 21
24.8767594484824
  0
LINE
  5
4C6
100
AcDbEntity
  8
0
  6
CONTINUOUS
 62
    7
370
   -1
100
AcDbLine
 10
14.9763692539891
 20
26.88853722823194
 11
11.75696534446638
 21
25.61675629988855
  0
LINE
  5
4C7
100
AcDbEntity
  8
0
  6
CONTINUOUS
 62
    7
370
   -1
100
AcDbLine
 10
11.7569653444666
 20
25.61675629988855
 11
12.14863069921921
 21
24.67675944848236
  0
LINE
  5
4C8
100
AcDbEntity
  8
0
  6
CONTINUOUS
 62
    7
370
   -1
100
AcDbLine
 10
12.71774312125836
 20
26.00271020010808
 11
13.10940847601091
 21
25.06271334870189
  0
ENDBLK
  5
211
330
20F
100
AcDbEntity
  8
0
100
AcDbBlockEnd
  0
BLOCK
  5
213
330
212
100
AcDbEntity
  8
0
100
AcDbBlockBegin
  2
StopcontactMetBeschermingstransformator-0
 70
    0
 10
0
 20
0
  3
StopcontactMetBeschermingstransformator-0
  1

  0
LWPOLYLINE
  5
4C9
100
AcDbEntity
  8
0
  6
CONTINUOUS
 62
    7
370
   -1
100
AcDbPolyline
 90
    3
 70
    0
 43
0
 10
18.85880509580252
 20
18.54342611514909
 42
0.4142135623730925
 10
17.19213842913586
 20
16.87675944848241
 42
0.4142135623730969
 10
18.85880509580252
 20
15.21009278181578
 42
0.4142135623730969
  0
LINE
  5
4CA
100
AcDbEntity
  8
0
  6
CONTINUOUS
 62
    7
370
   -1
100
AcDbLine
 10
15.00000063256107
 20
18.8767594484824
 11
15.00000063256107
 21
14.8767594484824
  0
LINE
  5
4CB
100
AcDbEntity
  8
0
  6
CONTINUOUS
 62
    7
370
   -1
100
AcDbLine
 10
15.00000063256107
 20
16.8767594484824
 11
13.66666729922798
 21
16.8767594484824
  0
LWPOLYLINE
  5
4CC
100
AcDbEntity
  8
0
  6
CONTINUOUS
 62
    7
370
   -1
100
AcDbPolyline
 90
    3
 70
    0
 43
0
 10
16.66666729922767
 20
18.54342611514903
 42
0.4142135623730924
 10
15.00000063256102
 20
16.87675944848235
 42
0.414213562373097
 10
16.66666729922767
 20
15.21009278181572
 42
0.414213562373097
  0
LWPOLYLINE
  5
4CD
100
AcDbEntity
  8
0
  6
CONTINUOUS
 62
    7
370
   -1
100
AcDbPolyline
 90
    3
 70
    0
 43
0
 10
16.66666729922757
 20
18.54342611514903
 42
-0.4142135623730932
 10
18.33333396589425
 20
16.87675944848235
 42
-0.414213562373094
 10
16.66666729922762
 20
15.21009278181572
 42
-0.414213562373094
  0
ENDBLK
  5
214
330
212
100
AcDbEntity
  8
0
100
AcDbBlockEnd
  0
BLOCK
  5
216
330
215
100
AcDbEntity
  8
0
100
AcDbBlockBegin
  2
StopcontactMetTweepoligeVergrendelingsschakelaar-0
 70
    0
 10
0
 20
0
  3
StopcontactMetTweepoligeVergrendelingsschakelaar-0
  1

  0
HATCH
  5
4CE
100
AcDbEntity
  8
0
  6
ByLayer
 62
  256
370
   -1
100
AcDbHatch
 10
0
 20
0
 30
0
210
0
220
0
230
1
  2
SOLID
 70
    1
 71
    0
 91
    1
 92
    0
 93
    1
 72
    2
 10
14.77493954809731
 20
6.753571283703877
 40
0.3999999999999991
 50
0
 51
360
 73
    1
 97
    0
 75
    0
 76
    1
 98
    0
  0
LWPOLYLINE
  5
4CF
100
AcDbEntity
  8
0
  6
CONTINUOUS
 62
    7
370
   -1
100
AcDbPolyline
 90
    3
 70
    0
 43
0
 10
16.40827288143021
 20
8.420237950370506
 42
0.4142135623730923
 10
14.74160621476356
 20
6.753571283703879
 42
0.4142135623730965
 10
16.40827288143021
 20
5.086904617037192
 42
0.4142135623730965
  0
LINE
  5
4D0
100
AcDbEntity
  8
0
  6
CONTINUOUS
 62
    7
370
   -1
100
AcDbLine
 10
14.74160621476316
 20
6.753571283703877
 11
13.40827288143007
 21
6.753571283703877
  0
LINE
  5
4D1
100
AcDbEntity
  8
0
  6
CONTINUOUS
 62
    7
370
   -1
100
AcDbLine
 10
14.71797483619162
 20
6.765349063453414
 11
11.4985709266689
 21
5.493568135110024
  0
LINE
  5
4D2
100
AcDbEntity
  8
0
  6
CONTINUOUS
 62
    7
370
   -1
100
AcDbLine
 10
11.49857092666907
 20
5.493568135110024
 11
11.8902362814217
 21
4.553571283703832
  0
LINE
  5
4D3
100
AcDbEntity
  8
0
  6
CONTINUOUS
 62
    7
370
   -1
100
AcDbLine
 10
12.45934870346088
 20
5.879522035329558
 11
12.85101405821343
 21
4.939525183923365
  0
CIRCLE
  5
4D4
100
AcDbEntity
  8
0
  6
CONTINUOUS
 62
    7
370
   -1
100
AcDbCircle
 10
14.77493954809731
 20
6.753571283703877
 40
0.3999999999999991
  0
ENDBLK
  5
217
330
215
100
AcDbEntity
  8
0
100
AcDbBlockEnd
  0
ENDSEC
  0
SECTION
  2
ENTITIES
  0
HATCH
  5
4D5
100
AcDbEntity
  8
0
  6
ByLayer
 62
  256
370
   -1
100
AcDbHatch
 10
0
 20
0
 30
0
210
0
220
0
230
1
  2
SOLID
 70
    1
 71
    0
 91
    1
 92
    0
 93
    4
 72
    1
 10
12.49999999999998
 20
62.39814132625713
 11
11.9633436854001
 21
62.12981316895684
 72
    1
 10
11.9633436854001
 20
62.12981316895684
 11
12.58944271910006
 21
60.87761510155701
 72
    1
 10
12.58944271910006
 20
60.87761510155701
 11
13.1260990337001
 21
61.14594325885696
 72
    1
 10
13.1260990337001
 20
61.14594325885696
 11
12.49999999999998
 21
62.39814132625713
 97
    0
 75
    0
 76
    1
 98
    0
  0
HATCH
  5
4D6
100
AcDbEntity
  8
0
  6
ByLayer
 62
  256
370
   -1
100
AcDbHatch
 10
0
 20
0
 30
0
210
0
220
0
230
1
  2
SOLID
 70
    1
 71
    0
 91
    1
 92
    0
 93
    4
 72
    1
 10
14.00000000000005
 20
78.19814132625709
 11
14.00000000000005
 21
72.19814132625709
 72
    1
 10
14.00000000000005
 20
72.19814132625709
 11
15.00000000000011
 21
72.19814132625709
 72
    1
 10
15.00000000000011
 20
72.19814132625709
 11
15.00000000000011
 21
78.19814132625709
 72
    1
 10
15.00000000000011
 20
78.19814132625709
 11
14.00000000000005
 21
78.19814132625709
 97
    0
 75
    0
 76
    1
 98
    0
  0
HATCH
  5
4D7
100
AcDbEntity
  8
0
  6
ByLayer
 62
  256
370
   -1
100
AcDbHatch
 10
0
 20
0
 30
0
210
0
220
0
230
1
  2
SOLID
 70
    1
 71
    0
 91
    1
 92
    0
 93
    4
 72
    1
 10
12.09999999999988
 20
25.13915257663893
 11
11.56334368539991
 21
24.87082441933933
 72
    1
 10
11.56334368539991
 20
24.87082441933933
 11
12.18944271909974
 21
23.61862635193916
 72
    1
 10
12.18944271909974
 20
23.61862635193916
 11
12.72609903369975
 21
23.88695450923933
 72
    1
 10
12.72609903369975
 20
23.88695450923933
 11
12.09999999999988
 21
25.13915257663893
 97
    0
 75
    0
 76
    1
 98
    0
  0
MTEXT
  5
4D8
100
AcDbEntity
  8
0
  6
ByLayer
 62
  256
370
   -1
100
AcDbMText
 10
0.7874062754099214
 20
421.1289318930321
 30
0
 40
3
 41
29.66666666666736
 71
    1
 72
    5
  1
Algemeenheden
  7
standard
210
0
220
0
230
1
 50
0
 73
    1
 44
1
  0
LWPOLYLINE
  5
4D9
100
AcDbEntity
  8
0
  6
ByLayer
 62
  256
370
   -1
100
AcDbPolyline
 90
    4
 70
    1
 43
0
 10
0
 20
403.287691853154
 10
30
 20
403.287691853154
 10
30
 20
413.287691853154
 10
0
 20
413.287691853154
  0
LWPOLYLINE
  5
4DA
100
AcDbEntity
  8
0
  6
ByLayer
 62
  256
370
   -1
100
AcDbPolyline
 90
    4
 70
    1
 43
0
 10
30
 20
403.287691853154
 10
90
 20
403.287691853154
 10
90
 20
413.287691853154
 10
30
 20
413.287691853154
  0
MTEXT
  5
4DB
100
AcDbEntity
  8
0
  6
ByLayer
 62
  256
370
   -1
100
AcDbMText
 10
32
 20
408.287691853154
 30
0
 40
1.540967697277665
 41
12.49896100375237
 71
    4
 72
    5
  1
Gelijkstroom
  7
standard
210
0
220
0
230
1
 50
0
 73
    1
 44
1
  0
LWPOLYLINE
  5
4DC
100
AcDbEntity
  8
0
  6
ByLayer
 62
  256
370
   -1
100
AcDbPolyline
 90
    4
 70
    1
 43
0
 10
0
 20
393.287691853154
 10
30
 20
393.287691853154
 10
30
 20
403.287691853154
 10
0
 20
403.287691853154
  0
LWPOLYLINE
  5
4DD
100
AcDbEntity
  8
0
  6
ByLayer
 62
  256
370
   -1
100
AcDbPolyline
 90
    4
 70
    1
 43
0
 10
30
 20
393.287691853154
 10
90
 20
393.287691853154
 10
90
 20
403.287691853154
 10
30
 20
403.287691853154
  0
MTEXT
  5
4DE
100
AcDbEntity
  8
0
  6
ByLayer
 62
  256
370
   -1
100
AcDbMText
 10
32
 20
398.287691853154
 30
0
 40
1.540967697277665
 41
34.67177618752918
 71
    4
 72
    5
  1
Wisselstroom (algemeen symbool)
  7
standard
210
0
220
0
230
1
 50
0
 73
    1
 44
1
  0
LWPOLYLINE
  5
4DF
100
AcDbEntity
  8
0
  6
ByLayer
 62
  256
370
   -1
100
AcDbPolyline
 90
    4
 70
    1
 43
0
 10
0
 20
383.287691853154
 10
30
 20
383.287691853154
 10
30
 20
393.287691853154
 10
0
 20
393.287691853154
  0
LWPOLYLINE
  5
4E0
100
AcDbEntity
  8
0
  6
ByLayer
 62
  256
370
   -1
100
AcDbPolyline
 90
    4
 70
    1
 43
0
 10
30
 20
383.287691853154
 10
90
 20
383.287691853154
 10
90
 20
393.287691853154
 10
30
 20
393.287691853154
  0
LWPOLYLINE
  5
4E1
100
AcDbEntity
  8
0
  6
ByLayer
 62
  256
370
   -1
100
AcDbPolyline
 90
    4
 70
    1
 43
0
 10
0
 20
373.287691853154
 10
30
 20
373.287691853154
 10
30
 20
383.287691853154
 10
0
 20
383.287691853154
  0
LWPOLYLINE
  5
4E2
100
AcDbEntity
  8
0
  6
ByLayer
 62
  256
370
   -1
100
AcDbPolyline
 90
    4
 70
    1
 43
0
 10
30
 20
373.287691853154
 10
90
 20
373.287691853154
 10
90
 20
383.287691853154
 10
30
 20
383.287691853154
  0
MTEXT
  5
4E3
100
AcDbEntity
  8
0
  6
ByLayer
 62
  256
370
   -1
100
AcDbMText
 10
32
 20
388.287691853154
 30
0
 40
1.540967697277665
 41
24.4414630351542
 71
    4
 72
    5
  1
Eénfasige Wisselstroom
  7
standard
210
0
220
0
230
1
 50
0
 73
    1
 44
1
  0
MTEXT
  5
4E4
100
AcDbEntity
  8
0
  6
ByLayer
 62
  256
370
   -1
100
AcDbMText
 10
32
 20
378.287691853154
 30
0
 40
1.540967697277665
 41
24.61268087568512
 71
    4
 72
    5
  1
Driefazige wisselstroom
  7
standard
210
0
220
0
230
1
 50
0
 73
    1
 44
1
  0
INSERT
  5
4E5
100
AcDbEntity
  8
0
  6
ByLayer
 62
  256
370
   -1
100
AcDbBlockReference
  2
Gelijkstroom
 10
15.00456156635727
 20
408.3176814435071
 30
0
 41
1
 42
1
 43
0
 50
0
 70
    1
 71
    1
 44
0
 45
0
  0
INSERT
  5
4E6
100
AcDbEntity
  8
0
  6
ByLayer
 62
  256
370
   -1
100
AcDbBlockReference
  2
Wisselstroom
 10
15.00000000000001
 20
398.287691853154
 30
0
 41
1
 42
1
 43
0
 50
0
 70
    1
 71
    1
 44
0
 45
0
  0
LWPOLYLINE
  5
4E7
100
AcDbEntity
  8
0
  6
ByLayer
 62
  256
370
   -1
100
AcDbPolyline
 90
    4
 70
    1
 43
0
 10
0
 20
338.0911750108551
 10
30
 20
338.0911750108551
 10
30
 20
348.0911750108551
 10
0
 20
348.0911750108551
  0
LWPOLYLINE
  5
4E8
100
AcDbEntity
  8
0
  6
ByLayer
 62
  256
370
   -1
100
AcDbPolyline
 90
    4
 70
    1
 43
0
 10
30
 20
338.0911750108551
 10
90
 20
338.0911750108551
 10
90
 20
348.0911750108551
 10
30
 20
348.0911750108551
  0
MTEXT
  5
4E9
100
AcDbEntity
  8
0
  6
ByLayer
 62
  256
370
   -1
100
AcDbMText
 10
0.7874062754099214
 20
355.932415050733
 30
0
 40
3
 41
44.25000308572347
 71
    1
 72
    5
  1
Elektrische toestellen
  7
standard
210
0
220
0
230
1
 50
0
 73
    1
 44
1
  0
LWPOLYLINE
  5
4EA
100
AcDbEntity
  8
0
  6
ByLayer
 62
  256
370
   -1
100
AcDbPolyline
 90
    4
 70
    1
 43
0
 10
0
 20
328.0911750108551
 10
30
 20
328.0911750108551
 10
30
 20
338.0911750108551
 10
0
 20
338.0911750108551
  0
LWPOLYLINE
  5
4EB
100
AcDbEntity
  8
0
  6
ByLayer
 62
  256
370
   -1
100
AcDbPolyline
 90
    4
 70
    1
 43
0
 10
30
 20
328.0911750108551
 10
90
 20
328.0911750108551
 10
90
 20
338.0911750108551
 10
30
 20
338.0911750108551
  0
MTEXT
  5
4EC
100
AcDbEntity
  8
0
  6
ByLayer
 62
  256
370
   -1
100
AcDbMText
 10
32
 20
333.0911750108551
 30
0
 40
1.540967697277665
 41
41.94856729884059
 71
    4
 72
    5
  1
Doos of inbouwdoos (algemeen symbool)
  7
standard
210
0
220
0
230
1
 50
0
 73
    1
 44
1
  0
LWPOLYLINE
  5
4ED
100
AcDbEntity
  8
0
  6
ByLayer
 62
  256
370
   -1
100
AcDbPolyline
 90
    4
 70
    1
 43
0
 10
0
 20
318.0911750108551
 10
30
 20
318.0911750108551
 10
30
 20
328.0911750108551
 10
0
 20
328.0911750108551
  0
LWPOLYLINE
  5
4EE
100
AcDbEntity
  8
0
  6
ByLayer
 62
  256
370
   -1
100
AcDbPolyline
 90
    4
 70
    1
 43
0
 10
30
 20
318.0911750108551
 10
90
 20
318.0911750108551
 10
90
 20
328.0911750108551
 10
30
 20
328.0911750108551
  0
MTEXT
  5
4EF
100
AcDbEntity
  8
0
  6
ByLayer
 62
  256
370
   -1
100
AcDbMText
 10
32
 20
323.0911750108551
 30
0
 40
1.540967697277665
 41
16.26577172293111
 71
    4
 72
    5
  1
Verbindingsdoos\PAftakdoos\PAansluitdoos
  7
standard
210
0
220
0
230
1
 50
0
 73
    1
 44
1
  0
LWPOLYLINE
  5
4F0
100
AcDbEntity
  8
0
  6
ByLayer
 62
  256
370
   -1
100
AcDbPolyline
 90
    4
 70
    1
 43
0
 10
0
 20
308.0911750108551
 10
30
 20
308.0911750108551
 10
30
 20
318.0911750108551
 10
0
 20
318.0911750108551
  0
LWPOLYLINE
  5
4F1
100
AcDbEntity
  8
0
  6
ByLayer
 62
  256
370
   -1
100
AcDbPolyline
 90
    4
 70
    1
 43
0
 10
30
 20
308.0911750108551
 10
90
 20
308.0911750108551
 10
90
 20
318.0911750108551
 10
30
 20
318.0911750108551
  0
MTEXT
  5
4F2
100
AcDbEntity
  8
0
  6
ByLayer
 62
  256
370
   -1
100
AcDbMText
 10
32
 20
313.0911750108551
 30
0
 40
1.540967697277665
 41
10.10190014132035
 71
    4
 72
    5
  1
Aftakkast
  7
standard
210
0
220
0
230
1
 50
0
 73
    1
 44
1
  0
LWPOLYLINE
  5
4F3
100
AcDbEntity
  8
0
  6
ByLayer
 62
  256
370
   -1
100
AcDbPolyline
 90
    4
 70
    1
 43
0
 10
0
 20
298.0911750108551
 10
30
 20
298.0911750108551
 10
30
 20
308.0911750108551
 10
0
 20
308.0911750108551
  0
LWPOLYLINE
  5
4F4
100
AcDbEntity
  8
0
  6
ByLayer
 62
  256
370
   -1
100
AcDbPolyline
 90
    4
 70
    1
 43
0
 10
30
 20
298.0911750108551
 10
90
 20
298.0911750108551
 10
90
 20
308.0911750108551
 10
30
 20
308.0911750108551
  0
MTEXT
  5
4F5
100
AcDbEntity
  8
0
  6
ByLayer
 62
  256
370
   -1
100
AcDbMText
 10
32
 20
303.0911750108551
 30
0
 40
1.540967697277665
 41
13.52627359443742
 71
    4
 72
    5
  1
Aardingsstrip
  7
standard
210
0
220
0
230
1
 50
0
 73
    1
 44
1
  0
LWPOLYLINE
  5
4F6
100
AcDbEntity
  8
0
  6
ByLayer
 62
  256
370
   -1
100
AcDbPolyline
 90
    4
 70
    1
 43
0
 10
0
 20
262.8946581685559
 10
30
 20
262.8946581685559
 10
30
 20
272.8946581685559
 10
0
 20
272.8946581685559
  0
LWPOLYLINE
  5
4F7
100
AcDbEntity
  8
0
  6
ByLayer
 62
  256
370
   -1
100
AcDbPolyline
 90
    4
 70
    1
 43
0
 10
30
 20
262.8946581685559
 10
90
 20
262.8946581685559
 10
90
 20
272.8946581685559
 10
30
 20
272.8946581685559
  0
MTEXT
  5
4F8
100
AcDbEntity
  8
0
  6
ByLayer
 62
  256
370
   -1
100
AcDbMText
 10
0.7874062754099214
 20
280.7358982084347
 30
0
 40
3
 41
40.91666820952882
 71
    1
 72
    5
  1
Elektrische leidingen
  7
standard
210
0
220
0
230
1
 50
0
 73
    1
 44
1
  0
INSERT
  5
4F9
100
AcDbEntity
  8
0
  6
ByLayer
 62
  256
370
   -1
100
AcDbBlockReference
  2
BordOfVerdeelkast
 10
15
 20
343.0911750108551
 30
0
 41
1
 42
1
 43
0
 50
0
 70
    1
 71
    1
 44
0
 45
0
  0
INSERT
  5
4FA
100
AcDbEntity
  8
0
  6
ByLayer
 62
  256
370
   -1
100
AcDbBlockReference
  2
DoosOfInbouwdoos
 10
15
 20
333.0911750108551
 30
0
 41
1
 42
1
 43
0
 50
0
 70
    1
 71
    1
 44
0
 45
0
  0
INSERT
  5
4FB
100
AcDbEntity
  8
0
  6
ByLayer
 62
  256
370
   -1
100
AcDbBlockReference
  2
VerbindingsdoosAftakdoosAansluitdoos
 10
15
 20
323.0911750108551
 30
0
 41
1
 42
1
 43
0
 50
0
 70
    1
 71
    1
 44
0
 45
0
  0
INSERT
  5
4FC
100
AcDbEntity
  8
0
  6
ByLayer
 62
  256
370
   -1
100
AcDbBlockReference
  2
Aardingsstrip
 10
15
 20
303.0911750108551
 30
0
 41
1
 42
1
 43
0
 50
0
 70
    1
 71
    1
 44
0
 45
0
  0
INSERT
  5
4FD
100
AcDbEntity
  8
0
  6
ByLayer
 62
  256
370
   -1
100
AcDbBlockReference
  2
Aftakkast
 10
15
 20
313.0911750108551
 30
0
 41
1
 42
1
 43
0
 50
0
 70
    1
 71
    1
 44
0
 45
0
  0
LINE
  5
4FE
100
AcDbEntity
  8
0
  6
ByLayer
 62
  256
370
   -1
100
AcDbLine
 10
5.499999999999986
 20
167.8946581685559
 11
24.5
 21
167.8946581685559
  0
ELLIPSE
  5
4FF
100
AcDbEntity
  8
0
  6
ByLayer
 62
  256
370
   -1
100
AcDbEllipse
 10
17.49999999999987
 20
167.8946581685559
 30
0
 11
0.5428571428571461
 21
-9.972123935914221e-017
 31
0
 40
0.5
 41
0
 42
6.283185307179586
  0
LINE
  5
500
100
AcDbEntity
  8
0
  6
ByLayer
 62
  256
370
   -1
100
AcDbLine
 10
7.500000000000043
 20
168.8946581685559
 11
7.500000000000043
 21
166.8946581685558
  0
LINE
  5
501
100
AcDbEntity
  8
0
  6
ByLayer
 62
  256
370
   -1
100
AcDbLine
 10
5.5
 20
157.8946581685559
 11
24.5
 21
157.8946581685559
  0
CIRCLE
  5
502
100
AcDbEntity
  8
0
  6
ByLayer
 62
  256
370
   -1
100
AcDbCircle
 10
17.54999999999995
 20
159.4946581685559
 40
0.5999999999999978
  0
LINE
  5
503
100
AcDbEntity
  8
0
  6
ByLayer
 62
  256
370
   -1
100
AcDbLine
 10
7.600000000000051
 20
158.8946581685559
 11
7.600000000000051
 21
156.8946581685558
  0
LINE
  5
504
100
AcDbEntity
  8
0
  6
ByLayer
 62
  256
370
   -1
100
AcDbLine
 10
5.499999999999986
 20
147.8946581685559
 11
24.50000000000001
 21
147.8946581685559
  0
LWPOLYLINE
  5
505
100
AcDbEntity
  8
0
  6
ByLayer
 62
  256
370
   -1
100
AcDbPolyline
 90
    4
 70
    0
 43
0
 10
11.39999999999999
 20
148.894658168556
 10
11.39999999999999
 20
150.294658168556
 10
14.14999999999999
 20
150.294658168556
 10
14.14999999999999
 20
148.894658168556
  0
LINE
  5
506
100
AcDbEntity
  8
0
  6
ByLayer
 62
  256
370
   -1
100
AcDbLine
 10
12.75000000000001
 20
150.294658168556
 11
12.75000000000001
 21
148.894658168556
  0
LWPOLYLINE
  5
507
100
AcDbEntity
  8
0
  6
ByLayer
 62
  256
370
   -1
100
AcDbPolyline
 90
    4
 70
    0
 43
0
 10
20.70000000000003
 20
148.8946581685559
 10
20.70000000000003
 20
150.294658168556
 10
23.75000000000001
 20
150.294658168556
 10
23.75000000000001
 20
148.8946581685559
  0
LINE
  5
508
100
AcDbEntity
  8
0
  6
ByLayer
 62
  256
370
   -1
100
AcDbLine
 10
22.24999999999993
 20
150.294658168556
 11
22.24999999999993
 21
148.8946581685559
  0
LINE
  5
509
100
AcDbEntity
  8
0
  6
ByLayer
 62
  256
370
   -1
100
AcDbLine
 10
7.500000000000014
 20
148.8946581685559
 11
7.500000000000014
 21
146.8946581685559
  0
LINE
  5
50A
100
AcDbEntity
  8
0
  6
ByLayer
 62
  256
370
   -1
100
AcDbLine
 10
5.5
 20
137.8946581685559
 11
24.5
 21
137.8946581685559
  0
LWPOLYLINE
  5
50B
100
AcDbEntity
  8
0
  6
ByLayer
 62
  256
370
   -1
100
AcDbPolyline
 90
    4
 70
    0
 43
0
 10
11.39999999999995
 20
140.0946581685561
 10
11.39999999999995
 20
138.8946581685561
 10
14.14999999999998
 20
138.8946581685561
 10
14.14999999999998
 20
140.0946581685561
  0
LINE
  5
50C
100
AcDbEntity
  8
0
  6
ByLayer
 62
  256
370
   -1
100
AcDbLine
 10
12.75000000000003
 20
138.894658168556
 11
12.75000000000003
 21
140.0946581685561
  0
LWPOLYLINE
  5
50D
100
AcDbEntity
  8
0
  6
ByLayer
 62
  256
370
   -1
100
AcDbPolyline
 90
    4
 70
    0
 43
0
 10
20.70000000000002
 20
140.0946581685561
 10
20.70000000000002
 20
138.8946581685559
 10
23.75
 20
138.8946581685559
 10
23.75
 20
140.0946581685561
  0
LINE
  5
50E
100
AcDbEntity
  8
0
  6
ByLayer
 62
  256
370
   -1
100
AcDbLine
 10
22.25000000000006
 20
138.8946581685559
 11
22.25000000000006
 21
140.0946581685561
  0
LINE
  5
50F
100
AcDbEntity
  8
0
  6
ByLayer
 62
  256
370
   -1
100
AcDbLine
 10
7.5
 20
138.8946581685561
 11
7.5
 21
136.8946581685561
  0
LINE
  5
510
100
AcDbEntity
  8
0
  6
ByLayer
 62
  256
370
   -1
100
AcDbLine
 10
5.5
 20
127.8946581685559
 11
24.50000000000001
 21
127.8946581685559
  0
LWPOLYLINE
  5
511
100
AcDbEntity
  8
0
  6
ByLayer
 62
  256
370
   -1
100
AcDbPolyline
 90
    4
 70
    0
 43
0
 10
11.39999999999996
 20
128.894658168556
 10
11.39999999999996
 20
130.0946581685561
 10
14.14999999999996
 20
130.0946581685561
 10
14.14999999999996
 20
128.894658168556
  0
LINE
  5
512
100
AcDbEntity
  8
0
  6
ByLayer
 62
  256
370
   -1
100
AcDbLine
 10
12.75000000000001
 20
130.0946581685561
 11
12.75000000000001
 21
128.894658168556
  0
CIRCLE
  5
513
100
AcDbEntity
  8
0
  6
ByLayer
 62
  256
370
   -1
100
AcDbCircle
 10
22.90000000000002
 20
129.4946581685559
 40
0.6000000000000002
  0
LINE
  5
514
100
AcDbEntity
  8
0
  6
ByLayer
 62
  256
370
   -1
100
AcDbLine
 10
7.5
 20
128.894658168556
 11
7.5
 21
126.894658168556
  0
MTEXT
  5
515
100
AcDbEntity
  8
0
  6
ByLayer
 62
  256
370
   -1
100
AcDbMText
 10
32
 20
267.8946581685559
 30
0
 40
1.540967697277665
 41
21.35952526309906
 71
    4
 72
    5
  1
Ondergrondse leiding
  7
standard
210
0
220
0
230
1
 50
0
 73
    1
 44
1
  0
LWPOLYLINE
  5
516
100
AcDbEntity
  8
0
  6
ByLayer
 62
  256
370
   -1
100
AcDbPolyline
 90
    4
 70
    1
 43
0
 10
0
 20
192.8946581685559
 10
30
 20
192.8946581685559
 10
30
 20
202.8946581685559
 10
0
 20
202.8946581685559
  0
LWPOLYLINE
  5
517
100
AcDbEntity
  8
0
  6
ByLayer
 62
  256
370
   -1
100
AcDbPolyline
 90
    4
 70
    1
 43
0
 10
30
 20
192.8946581685559
 10
90
 20
192.8946581685559
 10
90
 20
202.8946581685559
 10
30
 20
202.8946581685559
  0
MTEXT
  5
518
100
AcDbEntity
  8
0
  6
ByLayer
 62
  256
370
   -1
100
AcDbMText
 10
32
 20
197.8946581685559
 30
0
 40
1.540967697277665
 41
10.74396922268623
 71
    4
 72
    5
  1
n leidingen
  7
standard
210
0
220
0
230
1
 50
0
 73
    1
 44
1
  0
LWPOLYLINE
  5
519
100
AcDbEntity
  8
0
  6
ByLayer
 62
  256
370
   -1
100
AcDbPolyline
 90
    4
 70
    1
 43
0
 10
0
 20
172.8946581685559
 10
30
 20
172.8946581685559
 10
30
 20
182.8946581685559
 10
0
 20
182.8946581685559
  0
LWPOLYLINE
  5
51A
100
AcDbEntity
  8
0
  6
ByLayer
 62
  256
370
   -1
100
AcDbPolyline
 90
    4
 70
    1
 43
0
 10
30
 20
172.8946581685559
 10
90
 20
172.8946581685559
 10
90
 20
182.8946581685559
 10
30
 20
182.8946581685559
  0
LWPOLYLINE
  5
51B
100
AcDbEntity
  8
0
  6
ByLayer
 62
  256
370
   -1
100
AcDbPolyline
 90
    4
 70
    1
 43
0
 10
0
 20
162.8946581685559
 10
30
 20
162.8946581685559
 10
30
 20
172.8946581685559
 10
0
 20
172.8946581685559
  0
LWPOLYLINE
  5
51C
100
AcDbEntity
  8
0
  6
ByLayer
 62
  256
370
   -1
100
AcDbPolyline
 90
    4
 70
    1
 43
0
 10
30
 20
162.8946581685559
 10
90
 20
162.8946581685559
 10
90
 20
172.8946581685559
 10
30
 20
172.8946581685559
  0
LWPOLYLINE
  5
51D
100
AcDbEntity
  8
0
  6
ByLayer
 62
  256
370
   -1
100
AcDbPolyline
 90
    4
 70
    1
 43
0
 10
0
 20
152.8946581685559
 10
30
 20
152.8946581685559
 10
30
 20
162.8946581685559
 10
0
 20
162.8946581685559
  0
LWPOLYLINE
  5
51E
100
AcDbEntity
  8
0
  6
ByLayer
 62
  256
370
   -1
100
AcDbPolyline
 90
    4
 70
    1
 43
0
 10
30
 20
152.8946581685559
 10
90
 20
152.8946581685559
 10
90
 20
162.8946581685559
 10
30
 20
162.8946581685559
  0
LWPOLYLINE
  5
51F
100
AcDbEntity
  8
0
  6
ByLayer
 62
  256
370
   -1
100
AcDbPolyline
 90
    4
 70
    1
 43
0
 10
0
 20
142.8946581685559
 10
30
 20
142.8946581685559
 10
30
 20
152.8946581685559
 10
0
 20
152.8946581685559
  0
LWPOLYLINE
  5
520
100
AcDbEntity
  8
0
  6
ByLayer
 62
  256
370
   -1
100
AcDbPolyline
 90
    4
 70
    1
 43
0
 10
30
 20
142.8946581685559
 10
90
 20
142.8946581685559
 10
90
 20
152.8946581685559
 10
30
 20
152.8946581685559
  0
LWPOLYLINE
  5
521
100
AcDbEntity
  8
0
  6
ByLayer
 62
  256
370
   -1
100
AcDbPolyline
 90
    4
 70
    1
 43
0
 10
0
 20
132.8946581685559
 10
30
 20
132.8946581685559
 10
30
 20
142.8946581685559
 10
0
 20
142.8946581685559
  0
LWPOLYLINE
  5
522
100
AcDbEntity
  8
0
  6
ByLayer
 62
  256
370
   -1
100
AcDbPolyline
 90
    4
 70
    1
 43
0
 10
30
 20
132.8946581685559
 10
90
 20
132.8946581685559
 10
90
 20
142.8946581685559
 10
30
 20
142.8946581685559
  0
LWPOLYLINE
  5
523
100
AcDbEntity
  8
0
  6
ByLayer
 62
  256
370
   -1
100
AcDbPolyline
 90
    4
 70
    1
 43
0
 10
0
 20
122.8946581685559
 10
30
 20
122.8946581685559
 10
30
 20
132.8946581685559
 10
0
 20
132.8946581685559
  0
LWPOLYLINE
  5
524
100
AcDbEntity
  8
0
  6
ByLayer
 62
  256
370
   -1
100
AcDbPolyline
 90
    4
 70
    1
 43
0
 10
30
 20
122.8946581685559
 10
90
 20
122.8946581685559
 10
90
 20
132.8946581685559
 10
30
 20
132.8946581685559
  0
LWPOLYLINE
  5
525
100
AcDbEntity
  8
0
  6
ByLayer
 62
  256
370
   -1
100
AcDbPolyline
 90
    4
 70
    1
 43
0
 10
0
 20
252.8946581685559
 10
30
 20
252.8946581685559
 10
30
 20
262.8946581685559
 10
0
 20
262.8946581685559
  0
LWPOLYLINE
  5
526
100
AcDbEntity
  8
0
  6
ByLayer
 62
  256
370
   -1
100
AcDbPolyline
 90
    4
 70
    1
 43
0
 10
30
 20
252.8946581685559
 10
90
 20
252.8946581685559
 10
90
 20
262.8946581685559
 10
30
 20
262.8946581685559
  0
MTEXT
  5
527
100
AcDbEntity
  8
0
  6
ByLayer
 62
  256
370
   -1
100
AcDbMText
 10
32
 20
257.8946581685559
 30
0
 40
1.540967697277665
 41
11.64286704609813
 71
    4
 72
    5
  1
Luchtleiding
  7
standard
210
0
220
0
230
1
 50
0
 73
    1
 44
1
  0
LWPOLYLINE
  5
528
100
AcDbEntity
  8
0
  6
ByLayer
 62
  256
370
   -1
100
AcDbPolyline
 90
    4
 70
    1
 43
0
 10
0
 20
242.8946581685559
 10
30
 20
242.8946581685559
 10
30
 20
252.8946581685559
 10
0
 20
252.8946581685559
  0
LWPOLYLINE
  5
529
100
AcDbEntity
  8
0
  6
ByLayer
 62
  256
370
   -1
100
AcDbPolyline
 90
    4
 70
    1
 43
0
 10
30
 20
242.8946581685559
 10
90
 20
242.8946581685559
 10
90
 20
252.8946581685559
 10
30
 20
252.8946581685559
  0
MTEXT
  5
52A
100
AcDbEntity
  8
0
  6
ByLayer
 62
  256
370
   -1
100
AcDbMText
 10
32
 20
247.8946581685559
 30
0
 40
1.540967697277665
 41
19.39051098324427
 71
    4
 72
    5
  1
Leiding in een buis
  7
standard
210
0
220
0
230
1
 50
0
 73
    1
 44
1
  0
LWPOLYLINE
  5
52B
100
AcDbEntity
  8
0
  6
ByLayer
 62
  256
370
   -1
100
AcDbPolyline
 90
    4
 70
    1
 43
0
 10
0
 20
232.8946581685559
 10
30
 20
232.8946581685559
 10
30
 20
242.8946581685559
 10
0
 20
242.8946581685559
  0
LWPOLYLINE
  5
52C
100
AcDbEntity
  8
0
  6
ByLayer
 62
  256
370
   -1
100
AcDbPolyline
 90
    4
 70
    1
 43
0
 10
30
 20
232.8946581685559
 10
90
 20
232.8946581685559
 10
90
 20
242.8946581685559
 10
30
 20
242.8946581685559
  0
MTEXT
  5
52D
100
AcDbEntity
  8
0
  6
ByLayer
 62
  256
370
   -1
100
AcDbMText
 10
32
 20
237.8946581685559
 30
0
 40
1.540967697277665
 41
20.41782198892949
 71
    4
 72
    5
  1
Leiding in een wand
  7
standard
210
0
220
0
230
1
 50
0
 73
    1
 44
1
  0
LWPOLYLINE
  5
52E
100
AcDbEntity
  8
0
  6
ByLayer
 62
  256
370
   -1
100
AcDbPolyline
 90
    4
 70
    1
 43
0
 10
0
 20
222.8946581685559
 10
30
 20
222.8946581685559
 10
30
 20
232.8946581685559
 10
0
 20
232.8946581685559
  0
LWPOLYLINE
  5
52F
100
AcDbEntity
  8
0
  6
ByLayer
 62
  256
370
   -1
100
AcDbPolyline
 90
    4
 70
    1
 43
0
 10
30
 20
222.8946581685559
 10
90
 20
222.8946581685559
 10
90
 20
232.8946581685559
 10
30
 20
232.8946581685559
  0
MTEXT
  5
530
100
AcDbEntity
  8
0
  6
ByLayer
 62
  256
370
   -1
100
AcDbMText
 10
32
 20
227.8946581685559
 30
0
 40
1.540967697277665
 41
21.10269652105283
 71
    4
 72
    5
  1
Leiding op een wand
  7
standard
210
0
220
0
230
1
 50
0
 73
    1
 44
1
  0
LWPOLYLINE
  5
531
100
AcDbEntity
  8
0
  6
ByLayer
 62
  256
370
   -1
100
AcDbPolyline
 90
    4
 70
    1
 43
0
 10
0
 20
212.8946581685559
 10
30
 20
212.8946581685559
 10
30
 20
222.8946581685559
 10
0
 20
222.8946581685559
  0
LWPOLYLINE
  5
532
100
AcDbEntity
  8
0
  6
ByLayer
 62
  256
370
   -1
100
AcDbPolyline
 90
    4
 70
    1
 43
0
 10
30
 20
212.8946581685559
 10
90
 20
212.8946581685559
 10
90
 20
222.8946581685559
 10
30
 20
222.8946581685559
  0
MTEXT
  5
533
100
AcDbEntity
  8
0
  6
ByLayer
 62
  256
370
   -1
100
AcDbMText
 10
32
 20
217.8946581685559
 30
0
 40
1.540967697277665
 41
44.38843219824908
 71
    4
 72
    5
  1
Leiding geplaatst in een buis in een wand
  7
standard
210
0
220
0
230
1
 50
0
 73
    1
 44
1
  0
LWPOLYLINE
  5
534
100
AcDbEntity
  8
0
  6
ByLayer
 62
  256
370
   -1
100
AcDbPolyline
 90
    4
 70
    1
 43
0
 10
0
 20
202.8946581685559
 10
30
 20
202.8946581685559
 10
30
 20
212.8946581685559
 10
0
 20
212.8946581685559
  0
LWPOLYLINE
  5
535
100
AcDbEntity
  8
0
  6
ByLayer
 62
  256
370
   -1
100
AcDbPolyline
 90
    4
 70
    1
 43
0
 10
30
 20
202.8946581685559
 10
90
 20
202.8946581685559
 10
90
 20
212.8946581685559
 10
30
 20
212.8946581685559
  0
MTEXT
  5
536
100
AcDbEntity
  8
0
  6
ByLayer
 62
  256
370
   -1
100
AcDbMText
 10
32
 20
207.8946581685559
 30
0
 40
1.540967697277665
 41
14.8532164154266
 71
    4
 72
    5
  1
Twee leidingen
  7
standard
210
0
220
0
230
1
 50
0
 73
    1
 44
1
  0
LWPOLYLINE
  5
537
100
AcDbEntity
  8
0
  6
ByLayer
 62
  256
370
   -1
100
AcDbPolyline
 90
    4
 70
    1
 43
0
 10
0
 20
182.8946581685559
 10
30
 20
182.8946581685559
 10
30
 20
192.8946581685559
 10
0
 20
192.8946581685559
  0
LWPOLYLINE
  5
538
100
AcDbEntity
  8
0
  6
ByLayer
 62
  256
370
   -1
100
AcDbPolyline
 90
    4
 70
    1
 43
0
 10
30
 20
182.8946581685559
 10
90
 20
182.8946581685559
 10
90
 20
192.8946581685559
 10
30
 20
192.8946581685559
  0
MTEXT
  5
539
100
AcDbEntity
  8
0
  6
ByLayer
 62
  256
370
   -1
100
AcDbMText
 10
32
 20
187.8946581685559
 30
0
 40
1.540967697277665
 41
24.35585134113898
 71
    4
 72
    5
  1
Leiding met 3 geleiders
  7
standard
210
0
220
0
230
1
 50
0
 73
    1
 44
1
  0
LINE
  5
53A
100
AcDbEntity
  8
0
  6
ByLayer
 62
  256
370
   -1
100
AcDbLine
 10
15.4
 20
64.59814132625706
 11
15.4
 21
62.59814132625706
  0
LINE
  5
53B
100
AcDbEntity
  8
0
  6
ByLayer
 62
  256
370
   -1
100
AcDbLine
 10
15.4
 20
56.59814132625706
 11
12.50000000000003
 21
62.39814132625702
  0
LINE
  5
53C
100
AcDbEntity
  8
0
  6
ByLayer
 62
  256
370
   -1
100
AcDbLine
 10
12.80000000000001
 20
58.89814132625702
 11
15
 21
60.19814132625709
  0
LWPOLYLINE
  5
53D
100
AcDbEntity
  8
0
  6
ByLayer
 62
  256
370
   -1
100
AcDbPolyline
 90
    4
 70
    1
 43
0
 10
12.58944271910009
 20
60.87761510155701
 10
13.12609903370003
 20
61.14594325885707
 10
12.50000000000003
 20
62.39814132625702
 10
11.96334368540008
 20
62.12981316895696
  0
LINE
  5
53E
100
AcDbEntity
  8
0
  6
ByLayer
 62
  256
370
   -1
100
AcDbLine
 10
15.4
 20
56.59814132625706
 11
15.4
 21
54.59814132625706
  0
INSERT
  5
53F
100
AcDbEntity
  8
0
  6
ByLayer
 62
  256
370
   -1
100
AcDbBlockReference
  2
OndergrondseLeiding
 10
15
 20
267.8946581685559
 30
0
 41
1
 42
1
 43
0
 50
0
 70
    1
 71
    1
 44
0
 45
0
  0
INSERT
  5
540
100
AcDbEntity
  8
0
  6
ByLayer
 62
  256
370
   -1
100
AcDbBlockReference
  2
Luchtleiding
 10
15
 20
257.8946581685559
 30
0
 41
1
 42
1
 43
0
 50
0
 70
    1
 71
    1
 44
0
 45
0
  0
INSERT
  5
541
100
AcDbEntity
  8
0
  6
ByLayer
 62
  256
370
   -1
100
AcDbBlockReference
  2
LeidingInBuis
 10
15
 20
247.8946581685559
 30
0
 41
1
 42
1
 43
0
 50
0
 70
    1
 71
    1
 44
0
 45
0
  0
INSERT
  5
542
100
AcDbEntity
  8
0
  6
ByLayer
 62
  256
370
   -1
100
AcDbBlockReference
  2
LeidingInWand
 10
15
 20
237.8946581685559
 30
0
 41
1
 42
1
 43
0
 50
0
 70
    1
 71
    1
 44
0
 45
0
  0
INSERT
  5
543
100
AcDbEntity
  8
0
  6
ByLayer
 62
  256
370
   -1
100
AcDbBlockReference
  2
LeidingOpWand
 10
15
 20
227.8946581685559
 30
0
 41
1
 42
1
 43
0
 50
0
 70
    1
 71
    1
 44
0
 45
0
  0
INSERT
  5
544
100
AcDbEntity
  8
0
  6
ByLayer
 62
  256
370
   -1
100
AcDbBlockReference
  2
LeidingInBuisInWand
 10
15
 20
217.8946581685559
 30
0
 41
1
 42
1
 43
0
 50
0
 70
    1
 71
    1
 44
0
 45
0
  0
INSERT
  5
545
100
AcDbEntity
  8
0
  6
ByLayer
 62
  256
370
   -1
100
AcDbBlockReference
  2
TweeLeidingen
 10
14.99999999999999
 20
207.8946581685559
 30
0
 41
1
 42
1
 43
0
 50
0
 70
    1
 71
    1
 44
0
 45
0
  0
INSERT
  5
546
100
AcDbEntity
  8
0
  6
ByLayer
 62
  256
370
   -1
100
AcDbBlockReference
  2
LeidingMet3Geleiders
 10
14.90000000000011
 20
187.8946581685559
 30
0
 41
1
 42
1
 43
0
 50
0
 70
    1
 71
    1
 44
0
 45
0
  0
LWPOLYLINE
  5
547
100
AcDbEntity
  8
0
  6
ByLayer
 62
  256
370
   -1
100
AcDbPolyline
 90
    4
 70
    1
 43
0
 10
0
 20
67.69814132625709
 10
30
 20
67.69814132625709
 10
30
 20
82.69814132625709
 10
0
 20
82.69814132625709
  0
LWPOLYLINE
  5
548
100
AcDbEntity
  8
0
  6
ByLayer
 62
  256
370
   -1
100
AcDbPolyline
 90
    4
 70
    1
 43
0
 10
30
 20
67.69814132625709
 10
90
 20
67.69814132625709
 10
90
 20
82.69814132625709
 10
30
 20
82.69814132625709
  0
MTEXT
  5
549
100
AcDbEntity
  8
0
  6
ByLayer
 62
  256
370
   -1
100
AcDbMText
 10
0.7874062754099214
 20
105.5393813661359
 30
0
 40
3
 41
46.66667129525216
 71
    1
 72
    5
  1
Beschermingstoestellen
  7
standard
210
0
220
0
230
1
 50
0
 73
    1
 44
1
  0
LWPOLYLINE
  5
54A
100
AcDbEntity
  8
0
  6
ByLayer
 62
  256
370
   -1
100
AcDbPolyline
 90
    4
 70
    1
 43
0
 10
0
 20
82.69814132625709
 10
30
 20
82.69814132625709
 10
30
 20
97.69814132625709
 10
0
 20
97.69814132625709
  0
LWPOLYLINE
  5
54B
100
AcDbEntity
  8
0
  6
ByLayer
 62
  256
370
   -1
100
AcDbPolyline
 90
    4
 70
    1
 43
0
 10
30
 20
82.69814132625709
 10
90
 20
82.69814132625709
 10
90
 20
97.69814132625709
 10
30
 20
97.69814132625709
  0
MTEXT
  5
54C
100
AcDbEntity
  8
0
  6
ByLayer
 62
  256
370
   -1
100
AcDbMText
 10
32
 20
90.19814132625709
 30
0
 40
1.540967697277665
 41
14.724802113965
 71
    4
 72
    5
  1
Smeltveiligheid
  7
standard
210
0
220
0
230
1
 50
0
 73
    1
 44
1
  0
INSERT
  5
54D
100
AcDbEntity
  8
0
  6
ByLayer
 62
  256
370
   -1
100
AcDbBlockReference
  2
Smeltveiligheid
 10
15
 20
90.19814132625709
 30
0
 41
1
 42
1
 43
0
 50
0
 70
    1
 71
    1
 44
0
 45
0
  0
MTEXT
  5
54E
100
AcDbEntity
  8
0
  6
ByLayer
 62
  256
370
   -1
100
AcDbMText
 10
32
 20
167.8946581685559
 30
0
 40
1.540967697277665
 41
11.94249965390198
 71
    4
 72
    5
  1
Voorbeeld 1
  7
standard
210
0
220
0
230
1
 50
0
 73
    1
 44
1
  0
MTEXT
  5
54F
100
AcDbEntity
  8
0
  6
ByLayer
 62
  256
370
   -1
100
AcDbMText
 10
32
 20
157.8946581685559
 30
0
 40
1.540967697277665
 41
12.28493691996368
 71
    4
 72
    5
  1
Voorbeeld 2
  7
standard
210
0
220
0
230
1
 50
0
 73
    1
 44
1
  0
MTEXT
  5
550
100
AcDbEntity
  8
0
  6
ByLayer
 62
  256
370
   -1
100
AcDbMText
 10
32
 20
147.8946581685559
 30
0
 40
1.540967697277665
 41
12.28493691996378
 71
    4
 72
    5
  1
Voorbeeld 3
  7
standard
210
0
220
0
230
1
 50
0
 73
    1
 44
1
  0
MTEXT
  5
551
100
AcDbEntity
  8
0
  6
ByLayer
 62
  256
370
   -1
100
AcDbMText
 10
32
 20
137.8946581685559
 30
0
 40
1.540967697277665
 41
12.45615555299453
 71
    4
 72
    5
  1
Voorbeeld 4
  7
standard
210
0
220
0
230
1
 50
0
 73
    1
 44
1
  0
MTEXT
  5
552
100
AcDbEntity
  8
0
  6
ByLayer
 62
  256
370
   -1
100
AcDbMText
 10
32
 20
127.8946581685559
 30
0
 40
1.540967697277665
 41
12.28493691996378
 71
    4
 72
    5
  1
Voorbeeld 5
  7
standard
210
0
220
0
230
1
 50
0
 73
    1
 44
1
  0
INSERT
  5
553
100
AcDbEntity
  8
0
  6
ByLayer
 62
  256
370
   -1
100
AcDbBlockReference
  2
Wisselstroom
 10
15.00000000000001
 20
387.960752762797
 30
0
 41
1
 42
1
 43
0
 50
0
 70
    1
 71
    1
 44
0
 45
0
  0
INSERT
  5
554
100
AcDbEntity
  8
0
  6
ByLayer
 62
  256
370
   -1
100
AcDbBlockReference
  2
Wisselstroom
 10
15.00000000000001
 20
377.633813672441
 30
0
 41
1
 42
1
 43
0
 50
0
 70
    1
 71
    1
 44
0
 45
0
  0
LINE
  5
555
100
AcDbEntity
  8
0
  6
ByLayer
 62
  256
370
   -1
100
AcDbLine
 10
5.499999999999984
 20
197.8946581685559
 11
24.5
 21
197.8946581685559
  0
LINE
  5
556
100
AcDbEntity
  8
0
  6
ByLayer
 62
  256
370
   -1
100
AcDbLine
 10
15.10000000000013
 20
199.8946581685558
 11
15.10000000000013
 21
195.8946581685558
  0
LINE
  5
557
100
AcDbEntity
  8
0
  6
ByLayer
 62
  256
370
   -1
100
AcDbLine
 10
24.40000000000012
 20
177.8946581685559
 11
5.400000000000105
 21
177.8946581685559
  0
LINE
  5
558
100
AcDbEntity
  8
0
  6
ByLayer
 62
  256
370
   -1
100
AcDbLine
 10
13.99999999999996
 20
175.8946581685559
 11
16.00000000000003
 21
179.894658168556
  0
LINE
  5
559
100
AcDbEntity
  8
0
  6
ByLayer
 62
  256
370
   -1
100
AcDbLine
 10
15
 20
70.19814132625709
 11
15
 21
80.19814132625709
  0
LWPOLYLINE
  5
55A
100
AcDbEntity
  8
0
  6
ByLayer
 62
  256
370
   -1
100
AcDbPolyline
 90
    4
 70
    1
 43
0
 10
15.0000000000001
 20
72.19814132625709
 10
15.0000000000001
 20
78.19814132625709
 10
14.00000000000005
 20
78.19814132625709
 10
14.00000000000005
 20
72.19814132625709
  0
LWPOLYLINE
  5
55B
100
AcDbEntity
  8
0
  6
ByLayer
 62
  256
370
   -1
100
AcDbPolyline
 90
    4
 70
    1
 43
0
 10
16.00000000000001
 20
72.19814132625709
 10
16.00000000000001
 20
78.19814132625709
 10
15.00000000000011
 20
78.19814132625709
 10
15.00000000000011
 20
72.19814132625709
  0
MTEXT
  5
55C
100
AcDbEntity
  8
0
  6
ByLayer
 62
  256
370
   -1
100
AcDbMText
 10
32
 20
75.19814132625709
 30
0
 40
1.54097
 41
36.64084380722509
 71
    4
 72
    5
  1
Smeltveiligheid met een \Pnomilale stroomsterkte van x amp.
  7
standard
210
0
220
0
230
1
 50
0
 73
    1
 44
1
  0
MTEXT
  5
55D
100
AcDbEntity
  8
0
  6
ByLayer
 62
  256
370
   -1
100
AcDbMText
 10
32
 20
177.8946581685559
 30
0
 40
1.54097
 41
49.82469745916882
 71
    4
 72
    5
  1
Leiding met n geleiders Opmerking:\Pn geeft altijd het aantal geleiders, inbegrepen \Pde nulgeleiders en de beschermingsgeleiders
  7
standard
210
0
220
0
230
1
 50
0
 73
    1
 44
1
  0
MTEXT
  5
55E
100
AcDbEntity
  8
0
  6
ByLayer
 62
  256
370
   -1
100
AcDbMText
 10
32
 20
343.0911750108551
 30
0
 40
1.54097
 41
32.23195662583505
 71
    4
 72
    5
  1
Algemene voorstelling van een \Pbord of een verdeelkast
  7
standard
210
0
220
0
230
1
 50
0
 73
    1
 44
1
  0
MTEXT
  5
55F
100
AcDbEntity
  8
0
  6
ByLayer
 62
  256
370
   -1
100
AcDbMText
 10
17.36288447410801
 20
60.19814132625709
 30
0
 40
1.540967697277665
 41
11.94249965390198
 71
    4
 72
    5
  1
Voorbeeld 1
  7
standard
210
0
220
0
230
1
 50
0
 73
    1
 44
1
  0
LINE
  5
560
100
AcDbEntity
  8
0
  6
ByLayer
 62
  256
370
   -1
100
AcDbLine
 10
30
 20
52.69814132625709
 11
30
 21
67.69814132625709
  0
LINE
  5
561
100
AcDbEntity
  8
0
  6
ByLayer
 62
  256
370
   -1
100
AcDbLine
 10
30
 20
67.69814132625709
 11
0
 21
67.69814132625709
  0
LINE
  5
562
100
AcDbEntity
  8
0
  6
ByLayer
 62
  256
370
   -1
100
AcDbLine
 10
90
 20
67.69814132625709
 11
30
 21
67.69814132625709
  0
MTEXT
  5
563
100
AcDbEntity
  8
0
  6
ByLayer
 62
  256
370
   -1
100
AcDbMText
 10
31.32995877096254
 20
66.57930309713572
 30
0
 40
1.2
 41
57.13333580191272
 71
    1
 72
    1
  1
Automatische schakelaar. De hoofdletters naast dit teken, geven de\Pwerkingswijze van de uitschakelaar aan.\PM voor het uitklinkmechanisme werkend bij maximum stroom\P0 voor het uitklinkmechanisme werkend bij gebrek aan spanning.
  7
standard
210
0
220
0
230
1
 50
0
 73
    2
 44
1
  0
MTEXT
  5
564
100
AcDbEntity
  8
0
  6
ByLayer
 62
  256
370
   -1
100
AcDbMText
 10
32.14169177015574
 20
40.61186756242796
 30
0
 40
1.2
 41
57.43333320000086
 71
    1
 72
    1
  1
- nP = aantalen polen dat onderbroken wordt (n = getal: 1,2,3 of 4)\P- 40A = aantal ampere, voorbeeld is 40A kan ook 16A, 22A, \P60A, 80A zijn etc...
  7
standard
210
0
220
0
230
1
 50
0
 73
    2
 44
1
  0
MTEXT
  5
565
100
AcDbEntity
  8
0
  6
ByLayer
 62
  256
370
   -1
100
AcDbMText
 10
31.99759921981043
 20
56.54281741363911
 30
0
 40
1.2
 41
55.500003085724
 71
    1
 72
    1
  3
I (driehoekje) voor de automatische differentieelinrichtingen\Pmet  intensiteitsrelais.  \PAls de schakelaar voorzien is van verscheidene uitklinkmechanisme \Pdie onder verschillende omstandigheden werken, \Pscheid men de overeenkomde opschriften doo
  1
r het teken +, \Phet aantal polen, \Pbeschermd door de uitklinkmechanismen, wordt als\Pkenmerk aangegeven. (voorbeeld 40 Amp)
  7
standard
210
0
220
0
230
1
 50
0
 73
    2
 44
1
  0
LWPOLYLINE
  5
566
100
AcDbEntity
  8
0
  6
ByLayer
 62
  256
370
   -1
100
AcDbPolyline
 90
    4
 70
    1
 43
0
 10
0
 20
15
 10
30
 20
15
 10
30
 20
30
 10
0
 20
30
  0
LWPOLYLINE
  5
567
100
AcDbEntity
  8
0
  6
ByLayer
 62
  256
370
   -1
100
AcDbPolyline
 90
    4
 70
    1
 43
0
 10
30
 20
15
 10
90
 20
15
 10
90
 20
30
 10
30
 20
30
  0
LWPOLYLINE
  5
568
100
AcDbEntity
  8
0
  6
ByLayer
 62
  256
370
   -1
100
AcDbPolyline
 90
    4
 70
    1
 43
0
 10
0
 20
0
 10
30
 20
0
 10
30
 20
15
 10
0
 20
15
  0
LWPOLYLINE
  5
569
100
AcDbEntity
  8
0
  6
ByLayer
 62
  256
370
   -1
100
AcDbPolyline
 90
    4
 70
    1
 43
0
 10
30
 20
0
 10
90
 20
0
 10
90
 20
15
 10
30
 20
15
  0
MTEXT
  5
56A
100
AcDbEntity
  8
0
  6
ByLayer
 62
  256
370
   -1
100
AcDbMText
 10
32
 20
7.5
 30
0
 40
1.540967697277665
 41
30.17728407168811
 71
    4
 72
    5
  1
Aardelektrode, aardinrichting
  7
standard
210
0
220
0
230
1
 50
0
 73
    1
 44
1
  0
LINE
  5
56B
100
AcDbEntity
  8
0
  6
ByLayer
 62
  256
370
   -1
100
AcDbLine
 10
15
 20
27.33915257663875
 11
15
 21
25.33915257663875
  0
LINE
  5
56C
100
AcDbEntity
  8
0
  6
ByLayer
 62
  256
370
   -1
100
AcDbLine
 10
15
 20
19.33915257663864
 11
12.10000000000002
 21
25.13915257663859
  0
LINE
  5
56D
100
AcDbEntity
  8
0
  6
ByLayer
 62
  256
370
   -1
100
AcDbLine
 10
12.4
 20
21.63915257663859
 11
14.59999999999999
 21
22.93915257663855
  0
LWPOLYLINE
  5
56E
100
AcDbEntity
  8
0
  6
ByLayer
 62
  256
370
   -1
100
AcDbPolyline
 90
    4
 70
    1
 43
0
 10
12.18944271909976
 20
23.61862635193916
 10
12.72609903369975
 20
23.88695450923922
 10
12.09999999999984
 20
25.13915257663905
 10
11.56334368539988
 20
24.87082441933921
  0
LINE
  5
56F
100
AcDbEntity
  8
0
  6
ByLayer
 62
  256
370
   -1
100
AcDbLine
 10
15
 20
19.33915257663853
 11
15
 21
17.33915257663853
  0
LWPOLYLINE
  5
570
100
AcDbEntity
  8
0
  6
ByLayer
 62
  256
370
   -1
100
AcDbPolyline
 90
    3
 70
    1
 43
0
 10
16.55972222222223
 20
26.13915257663871
 10
15.55972222222223
 20
24.13915257663871
 10
17.55972222222224
 20
24.13915257663871
  0
INSERT
  5
571
100
AcDbEntity
  8
0
  6
ByLayer
 62
  256
370
   -1
100
AcDbBlockReference
  2
Aardelektrode
 10
15
 20
7.339152576638639
 30
0
 41
1
 42
1
 43
0
 50
0
 70
    1
 71
    1
 44
0
 45
0
  0
MTEXT
  5
572
100
AcDbEntity
  8
0
  6
ByLayer
 62
  256
370
   -1
100
AcDbMText
 10
17.0411896273851
 20
21.37406803646991
 30
0
 40
1.540967697277665
 41
12.28493691996368
 71
    4
 72
    5
  1
Voorbeeld 2
  7
standard
210
0
220
0
230
1
 50
0
 73
    1
 44
1
  0
MTEXT
  5
573
100
AcDbEntity
  8
0
  6
ByLayer
 62
  256
370
   -1
100
AcDbMText
 10
31.77724811412653
 20
22.5
 30
0
 40
1.2
 41
57.43333320000086
 71
    4
 72
    5
  3
Automatische differentieelstroominrichting van 300 mA, \Pkan ook 30mA zijn. (300 mA of 30 \PmA – milli ampere – is de gevoeligheid)\P- nP = aantalen polen dat onderbroken wordt (n = getal: 1,2,3 of 4)\P- 40A = aantal ampere, voorbeeld is 40A kan 
  1
ook 16A, 22A, \P60A, 80A zijn etc...
  7
standard
210
0
220
0
230
1
 50
0
 73
    1
 44
1
  0
LINE
  5
574
100
AcDbEntity
  8
0
  6
ByLayer
 62
  256
370
   -1
100
AcDbLine
 10
0
 20
67.69814132625709
 11
0
 21
29.91230627276116
  0
LINE
  5
575
100
AcDbEntity
  8
0
  6
ByLayer
 62
  256
370
   -1
100
AcDbLine
 10
30
 20
67.69814132625709
 11
30
 21
30
  0
LINE
  5
576
100
AcDbEntity
  8
0
  6
ByLayer
 62
  256
370
   -1
100
AcDbLine
 10
90
 20
30
 11
90
 21
67.69814132625709
  0
LWPOLYLINE
  5
577
100
AcDbEntity
  8
0
  6
ByLayer
 62
  256
370
   -1
100
AcDbPolyline
 90
    4
 70
    1
 43
0
 10
112.4429000336295
 20
401.141060765226
 10
142.4429000336295
 20
401.141060765226
 10
142.4429000336295
 20
411.141060765226
 10
112.4429000336295
 20
411.141060765226
  0
LWPOLYLINE
  5
578
100
AcDbEntity
  8
0
  6
ByLayer
 62
  256
370
   -1
100
AcDbPolyline
 90
    4
 70
    1
 43
0
 10
142.4429000336295
 20
401.141060765226
 10
202.4429000336295
 20
401.141060765226
 10
202.4429000336295
 20
411.141060765226
 10
142.4429000336295
 20
411.141060765226
  0
MTEXT
  5
579
100
AcDbEntity
  8
0
  6
ByLayer
 62
  256
370
   -1
100
AcDbMText
 10
113.2303063090394
 20
418.9823008051051
 30
0
 40
3
 41
39.3333364190568
 71
    1
 72
    5
  1
Verbruikstoestellen
  7
standard
210
0
220
0
230
1
 50
0
 73
    1
 44
1
  0
MTEXT
  5
57A
100
AcDbEntity
  8
0
  6
ByLayer
 62
  256
370
   -1
100
AcDbMText
 10
144.4429000336295
 20
406.141060765226
 30
0
 40
1.540967697277665
 41
39.12346002504992
 71
    4
 72
    5
  1
Aansluitpunt voor verlichtingstoestel
  7
standard
210
0
220
0
230
1
 50
0
 73
    1
 44
1
  0
LWPOLYLINE
  5
57B
100
AcDbEntity
  8
0
  6
ByLayer
 62
  256
370
   -1
100
AcDbPolyline
 90
    4
 70
    1
 43
0
 10
112.4429000336295
 20
391.141060765226
 10
142.4429000336295
 20
391.141060765226
 10
142.4429000336295
 20
401.141060765226
 10
112.4429000336295
 20
401.141060765226
  0
LWPOLYLINE
  5
57C
100
AcDbEntity
  8
0
  6
ByLayer
 62
  256
370
   -1
100
AcDbPolyline
 90
    4
 70
    1
 43
0
 10
142.4429000336295
 20
391.141060765226
 10
202.4429000336295
 20
391.141060765226
 10
202.4429000336295
 20
401.141060765226
 10
142.4429000336295
 20
401.141060765226
  0
LWPOLYLINE
  5
57D
100
AcDbEntity
  8
0
  6
ByLayer
 62
  256
370
   -1
100
AcDbPolyline
 90
    4
 70
    1
 43
0
 10
112.4429000336295
 20
381.141060765226
 10
142.4429000336295
 20
381.141060765226
 10
142.4429000336295
 20
391.141060765226
 10
112.4429000336295
 20
391.141060765226
  0
LWPOLYLINE
  5
57E
100
AcDbEntity
  8
0
  6
ByLayer
 62
  256
370
   -1
100
AcDbPolyline
 90
    4
 70
    1
 43
0
 10
142.4429000336295
 20
381.141060765226
 10
202.4429000336295
 20
381.141060765226
 10
202.4429000336295
 20
391.141060765226
 10
142.4429000336295
 20
391.141060765226
  0
MTEXT
  5
57F
100
AcDbEntity
  8
0
  6
ByLayer
 62
  256
370
   -1
100
AcDbMText
 10
144.4429000336295
 20
386.141060765226
 30
0
 40
1.540967697277665
 41
44.08879941922632
 71
    4
 72
    5
  1
Fluorescentiearmatuur (algemeen symbool)
  7
standard
210
0
220
0
230
1
 50
0
 73
    1
 44
1
  0
LWPOLYLINE
  5
580
100
AcDbEntity
  8
0
  6
ByLayer
 62
  256
370
   -1
100
AcDbPolyline
 90
    4
 70
    1
 43
0
 10
112.4429000336295
 20
371.141060765226
 10
142.4429000336295
 20
371.141060765226
 10
142.4429000336295
 20
381.141060765226
 10
112.4429000336295
 20
381.141060765226
  0
LWPOLYLINE
  5
581
100
AcDbEntity
  8
0
  6
ByLayer
 62
  256
370
   -1
100
AcDbPolyline
 90
    4
 70
    1
 43
0
 10
142.4429000336295
 20
371.141060765226
 10
202.4429000336295
 20
371.141060765226
 10
202.4429000336295
 20
381.141060765226
 10
142.4429000336295
 20
381.141060765226
  0
MTEXT
  5
582
100
AcDbEntity
  8
0
  6
ByLayer
 62
  256
370
   -1
100
AcDbMText
 10
144.4429000336295
 20
376.141060765226
 30
0
 40
1.540967697277665
 41
28.80753579994135
 71
    4
 72
    5
  1
Armatuur met 3 buislampen
  7
standard
210
0
220
0
230
1
 50
0
 73
    1
 44
1
  0
LWPOLYLINE
  5
583
100
AcDbEntity
  8
0
  6
ByLayer
 62
  256
370
   -1
100
AcDbPolyline
 90
    4
 70
    1
 43
0
 10
112.4429000336295
 20
361.141060765226
 10
142.4429000336295
 20
361.141060765226
 10
142.4429000336295
 20
371.141060765226
 10
112.4429000336295
 20
371.141060765226
  0
LWPOLYLINE
  5
584
100
AcDbEntity
  8
0
  6
ByLayer
 62
  256
370
   -1
100
AcDbPolyline
 90
    4
 70
    1
 43
0
 10
142.4429000336295
 20
361.141060765226
 10
202.4429000336295
 20
361.141060765226
 10
202.4429000336295
 20
371.141060765226
 10
142.4429000336295
 20
371.141060765226
  0
MTEXT
  5
585
100
AcDbEntity
  8
0
  6
ByLayer
 62
  256
370
   -1
100
AcDbMText
 10
144.4429000336295
 20
366.141060765226
 30
0
 40
1.540967697277665
 41
30.73374525031971
 71
    4
 72
    5
  1
Projector (algemeen symbool)
  7
standard
210
0
220
0
230
1
 50
0
 73
    1
 44
1
  0
LWPOLYLINE
  5
586
100
AcDbEntity
  8
0
  6
ByLayer
 62
  256
370
   -1
100
AcDbPolyline
 90
    4
 70
    1
 43
0
 10
112.4429000336295
 20
351.141060765226
 10
142.4429000336295
 20
351.141060765226
 10
142.4429000336295
 20
361.141060765226
 10
112.4429000336295
 20
361.141060765226
  0
LWPOLYLINE
  5
587
100
AcDbEntity
  8
0
  6
ByLayer
 62
  256
370
   -1
100
AcDbPolyline
 90
    4
 70
    1
 43
0
 10
142.4429000336295
 20
351.141060765226
 10
202.4429000336295
 20
351.141060765226
 10
202.4429000336295
 20
361.141060765226
 10
142.4429000336295
 20
361.141060765226
  0
LWPOLYLINE
  5
588
100
AcDbEntity
  8
0
  6
ByLayer
 62
  256
370
   -1
100
AcDbPolyline
 90
    4
 70
    1
 43
0
 10
112.4429000336295
 20
341.141060765226
 10
142.4429000336295
 20
341.141060765226
 10
142.4429000336295
 20
351.141060765226
 10
112.4429000336295
 20
351.141060765226
  0
LWPOLYLINE
  5
589
100
AcDbEntity
  8
0
  6
ByLayer
 62
  256
370
   -1
100
AcDbPolyline
 90
    4
 70
    1
 43
0
 10
142.4429000336295
 20
341.141060765226
 10
202.4429000336295
 20
341.141060765226
 10
202.4429000336295
 20
351.141060765226
 10
142.4429000336295
 20
351.141060765226
  0
LWPOLYLINE
  5
58A
100
AcDbEntity
  8
0
  6
ByLayer
 62
  256
370
   -1
100
AcDbPolyline
 90
    4
 70
    1
 43
0
 10
112.4429000336295
 20
331.141060765226
 10
142.4429000336295
 20
331.141060765226
 10
142.4429000336295
 20
341.141060765226
 10
112.4429000336295
 20
341.141060765226
  0
LWPOLYLINE
  5
58B
100
AcDbEntity
  8
0
  6
ByLayer
 62
  256
370
   -1
100
AcDbPolyline
 90
    4
 70
    1
 43
0
 10
142.4429000336295
 20
331.141060765226
 10
202.4429000336295
 20
331.141060765226
 10
202.4429000336295
 20
341.141060765226
 10
142.4429000336295
 20
341.141060765226
  0
LWPOLYLINE
  5
58C
100
AcDbEntity
  8
0
  6
ByLayer
 62
  256
370
   -1
100
AcDbPolyline
 90
    4
 70
    1
 43
0
 10
112.4429000336295
 20
321.141060765226
 10
142.4429000336295
 20
321.141060765226
 10
142.4429000336295
 20
331.141060765226
 10
112.4429000336295
 20
331.141060765226
  0
LWPOLYLINE
  5
58D
100
AcDbEntity
  8
0
  6
ByLayer
 62
  256
370
   -1
100
AcDbPolyline
 90
    4
 70
    1
 43
0
 10
142.4429000336295
 20
321.141060765226
 10
202.4429000336295
 20
321.141060765226
 10
202.4429000336295
 20
331.141060765226
 10
142.4429000336295
 20
331.141060765226
  0
LWPOLYLINE
  5
58E
100
AcDbEntity
  8
0
  6
ByLayer
 62
  256
370
   -1
100
AcDbPolyline
 90
    4
 70
    1
 43
0
 10
112.4429000336295
 20
311.141060765226
 10
142.4429000336295
 20
311.141060765226
 10
142.4429000336295
 20
321.141060765226
 10
112.4429000336295
 20
321.141060765226
  0
LWPOLYLINE
  5
58F
100
AcDbEntity
  8
0
  6
ByLayer
 62
  256
370
   -1
100
AcDbPolyline
 90
    4
 70
    1
 43
0
 10
142.4429000336295
 20
311.141060765226
 10
202.4429000336295
 20
311.141060765226
 10
202.4429000336295
 20
321.141060765226
 10
142.4429000336295
 20
321.141060765226
  0
MTEXT
  5
590
100
AcDbEntity
  8
0
  6
ByLayer
 62
  256
370
   -1
100
AcDbMText
 10
144.4429000336295
 20
316.141060765226
 30
0
 40
1.540967697277665
 41
35.05701669806722
 71
    4
 72
    5
  1
Autonoom noodverlichtingstoestel
  7
standard
210
0
220
0
230
1
 50
0
 73
    1
 44
1
  0
LWPOLYLINE
  5
591
100
AcDbEntity
  8
0
  6
ByLayer
 62
  256
370
   -1
100
AcDbPolyline
 90
    4
 70
    1
 43
0
 10
112.4429000336295
 20
301.141060765226
 10
142.4429000336295
 20
301.141060765226
 10
142.4429000336295
 20
311.141060765226
 10
112.4429000336295
 20
311.141060765226
  0
LWPOLYLINE
  5
592
100
AcDbEntity
  8
0
  6
ByLayer
 62
  256
370
   -1
100
AcDbPolyline
 90
    4
 70
    1
 43
0
 10
142.4429000336295
 20
301.141060765226
 10
202.4429000336295
 20
301.141060765226
 10
202.4429000336295
 20
311.141060765226
 10
142.4429000336295
 20
311.141060765226
  0
LWPOLYLINE
  5
593
100
AcDbEntity
  8
0
  6
ByLayer
 62
  256
370
   -1
100
AcDbPolyline
 90
    4
 70
    1
 43
0
 10
112.4429000336295
 20
291.141060765226
 10
142.4429000336295
 20
291.141060765226
 10
142.4429000336295
 20
301.141060765226
 10
112.4429000336295
 20
301.141060765226
  0
LWPOLYLINE
  5
594
100
AcDbEntity
  8
0
  6
ByLayer
 62
  256
370
   -1
100
AcDbPolyline
 90
    4
 70
    1
 43
0
 10
142.4429000336295
 20
291.141060765226
 10
202.4429000336295
 20
291.141060765226
 10
202.4429000336295
 20
301.141060765226
 10
142.4429000336295
 20
301.141060765226
  0
MTEXT
  5
595
100
AcDbEntity
  8
0
  6
ByLayer
 62
  256
370
   -1
100
AcDbMText
 10
144.4429000336295
 20
296.141060765226
 30
0
 40
1.540967697277665
 41
2.739498128493626
 71
    4
 72
    5
  1
Bel
  7
standard
210
0
220
0
230
1
 50
0
 73
    1
 44
1
  0
LWPOLYLINE
  5
596
100
AcDbEntity
  8
0
  6
ByLayer
 62
  256
370
   -1
100
AcDbPolyline
 90
    4
 70
    1
 43
0
 10
112.4429000336295
 20
281.141060765226
 10
142.4429000336295
 20
281.141060765226
 10
142.4429000336295
 20
291.141060765226
 10
112.4429000336295
 20
291.141060765226
  0
LWPOLYLINE
  5
597
100
AcDbEntity
  8
0
  6
ByLayer
 62
  256
370
   -1
100
AcDbPolyline
 90
    4
 70
    1
 43
0
 10
142.4429000336295
 20
281.141060765226
 10
202.4429000336295
 20
281.141060765226
 10
202.4429000336295
 20
291.141060765226
 10
142.4429000336295
 20
291.141060765226
  0
MTEXT
  5
598
100
AcDbEntity
  8
0
  6
ByLayer
 62
  256
370
   -1
100
AcDbMText
 10
144.4429000336295
 20
286.141060765226
 30
0
 40
1.540967697277665
 41
7.01996395426499
 71
    4
 72
    5
  1
Zoemer
  7
standard
210
0
220
0
230
1
 50
0
 73
    1
 44
1
  0
LWPOLYLINE
  5
599
100
AcDbEntity
  8
0
  6
ByLayer
 62
  256
370
   -1
100
AcDbPolyline
 90
    4
 70
    1
 43
0
 10
112.4429000336295
 20
271.141060765226
 10
142.4429000336295
 20
271.141060765226
 10
142.4429000336295
 20
281.141060765226
 10
112.4429000336295
 20
281.141060765226
  0
LWPOLYLINE
  5
59A
100
AcDbEntity
  8
0
  6
ByLayer
 62
  256
370
   -1
100
AcDbPolyline
 90
    4
 70
    1
 43
0
 10
142.4429000336295
 20
271.141060765226
 10
202.4429000336295
 20
271.141060765226
 10
202.4429000336295
 20
281.141060765226
 10
142.4429000336295
 20
281.141060765226
  0
MTEXT
  5
59B
100
AcDbEntity
  8
0
  6
ByLayer
 62
  256
370
   -1
100
AcDbMText
 10
144.4429000336295
 20
276.141060765226
 30
0
 40
1.540967697277665
 41
5.992651829391417
 71
    4
 72
    5
  1
Sirene
  7
standard
210
0
220
0
230
1
 50
0
 73
    1
 44
1
  0
LWPOLYLINE
  5
59C
100
AcDbEntity
  8
0
  6
ByLayer
 62
  256
370
   -1
100
AcDbPolyline
 90
    4
 70
    1
 43
0
 10
112.4429000336295
 20
261.141060765226
 10
142.4429000336295
 20
261.141060765226
 10
142.4429000336295
 20
271.141060765226
 10
112.4429000336295
 20
271.141060765226
  0
LWPOLYLINE
  5
59D
100
AcDbEntity
  8
0
  6
ByLayer
 62
  256
370
   -1
100
AcDbPolyline
 90
    4
 70
    1
 43
0
 10
142.4429000336295
 20
261.141060765226
 10
202.4429000336295
 20
261.141060765226
 10
202.4429000336295
 20
271.141060765226
 10
142.4429000336295
 20
271.141060765226
  0
MTEXT
  5
59E
100
AcDbEntity
  8
0
  6
ByLayer
 62
  256
370
   -1
100
AcDbMText
 10
144.4429000336295
 20
266.141060765226
 30
0
 40
1.540967697277665
 41
5.478996256987325
 71
    4
 72
    5
  1
Hoorn
  7
standard
210
0
220
0
230
1
 50
0
 73
    1
 44
1
  0
LWPOLYLINE
  5
59F
100
AcDbEntity
  8
0
  6
ByLayer
 62
  256
370
   -1
100
AcDbPolyline
 90
    4
 70
    1
 43
0
 10
112.4429000336295
 20
251.141060765226
 10
142.4429000336295
 20
251.141060765226
 10
142.4429000336295
 20
261.141060765226
 10
112.4429000336295
 20
261.141060765226
  0
LWPOLYLINE
  5
5A0
100
AcDbEntity
  8
0
  6
ByLayer
 62
  256
370
   -1
100
AcDbPolyline
 90
    4
 70
    1
 43
0
 10
142.4429000336295
 20
251.141060765226
 10
202.4429000336295
 20
251.141060765226
 10
202.4429000336295
 20
261.141060765226
 10
142.4429000336295
 20
261.141060765226
  0
MTEXT
  5
5A1
100
AcDbEntity
  8
0
  6
ByLayer
 62
  256
370
   -1
100
AcDbMText
 10
144.4429000336295
 20
256.141060765226
 30
0
 40
1.540967697277665
 41
7.362401220326694
 71
    4
 72
    5
  1
Horloge
  7
standard
210
0
220
0
230
1
 50
0
 73
    1
 44
1
  0
LWPOLYLINE
  5
5A2
100
AcDbEntity
  8
0
  6
ByLayer
 62
  256
370
   -1
100
AcDbPolyline
 90
    4
 70
    1
 43
0
 10
112.4429000336295
 20
241.141060765226
 10
142.4429000336295
 20
241.141060765226
 10
142.4429000336295
 20
251.141060765226
 10
112.4429000336295
 20
251.141060765226
  0
LWPOLYLINE
  5
5A3
100
AcDbEntity
  8
0
  6
ByLayer
 62
  256
370
   -1
100
AcDbPolyline
 90
    4
 70
    1
 43
0
 10
142.4429000336295
 20
241.141060765226
 10
202.4429000336295
 20
241.141060765226
 10
202.4429000336295
 20
251.141060765226
 10
142.4429000336295
 20
251.141060765226
  0
MTEXT
  5
5A4
100
AcDbEntity
  8
0
  6
ByLayer
 62
  256
370
   -1
100
AcDbMText
 10
144.4429000336295
 20
246.141060765226
 30
0
 40
1.540967697277665
 41
11.12921114700536
 71
    4
 72
    5
  1
Moederklok
  7
standard
210
0
220
0
230
1
 50
0
 73
    1
 44
1
  0
LWPOLYLINE
  5
5A5
100
AcDbEntity
  8
0
  6
ByLayer
 62
  256
370
   -1
100
AcDbPolyline
 90
    4
 70
    1
 43
0
 10
112.4429000336295
 20
231.141060765226
 10
142.4429000336295
 20
231.141060765226
 10
142.4429000336295
 20
241.141060765226
 10
112.4429000336295
 20
241.141060765226
  0
LWPOLYLINE
  5
5A6
100
AcDbEntity
  8
0
  6
ByLayer
 62
  256
370
   -1
100
AcDbPolyline
 90
    4
 70
    1
 43
0
 10
142.4429000336295
 20
231.141060765226
 10
202.4429000336295
 20
231.141060765226
 10
202.4429000336295
 20
241.141060765226
 10
142.4429000336295
 20
241.141060765226
  0
MTEXT
  5
5A7
100
AcDbEntity
  8
0
  6
ByLayer
 62
  256
370
   -1
100
AcDbMText
 10
144.4429000336295
 20
236.141060765226
 30
0
 40
1.540967697277665
 41
18.4488085015743
 71
    4
 72
    5
  1
Elektrich deurslot
  7
standard
210
0
220
0
230
1
 50
0
 73
    1
 44
1
  0
LWPOLYLINE
  5
5A8
100
AcDbEntity
  8
0
  6
ByLayer
 62
  256
370
   -1
100
AcDbPolyline
 90
    4
 70
    1
 43
0
 10
112.4429000336295
 20
221.141060765226
 10
142.4429000336295
 20
221.141060765226
 10
142.4429000336295
 20
231.141060765226
 10
112.4429000336295
 20
231.141060765226
  0
LWPOLYLINE
  5
5A9
100
AcDbEntity
  8
0
  6
ByLayer
 62
  256
370
   -1
100
AcDbPolyline
 90
    4
 70
    1
 43
0
 10
142.4429000336295
 20
221.141060765226
 10
202.4429000336295
 20
221.141060765226
 10
202.4429000336295
 20
231.141060765226
 10
142.4429000336295
 20
231.141060765226
  0
MTEXT
  5
5AA
100
AcDbEntity
  8
0
  6
ByLayer
 62
  256
370
   -1
100
AcDbMText
 10
144.4429000336295
 20
226.141060765226
 30
0
 40
1.540967697277665
 41
10.10189934882039
 71
    4
 72
    5
  1
Ventilator
  7
standard
210
0
220
0
230
1
 50
0
 73
    1
 44
1
  0
LWPOLYLINE
  5
5AB
100
AcDbEntity
  8
0
  6
ByLayer
 62
  256
370
   -1
100
AcDbPolyline
 90
    4
 70
    1
 43
0
 10
112.4429000336295
 20
211.141060765226
 10
142.4429000336295
 20
211.141060765226
 10
142.4429000336295
 20
221.141060765226
 10
112.4429000336295
 20
221.141060765226
  0
LWPOLYLINE
  5
5AC
100
AcDbEntity
  8
0
  6
ByLayer
 62
  256
370
   -1
100
AcDbPolyline
 90
    4
 70
    1
 43
0
 10
142.4429000336295
 20
211.141060765226
 10
202.4429000336295
 20
211.141060765226
 10
202.4429000336295
 20
221.141060765226
 10
142.4429000336295
 20
221.141060765226
  0
MTEXT
  5
5AD
100
AcDbEntity
  8
0
  6
ByLayer
 62
  256
370
   -1
100
AcDbMText
 10
144.4429000336295
 20
216.141060765226
 30
0
 40
1.540967697277665
 41
20.20380028264071
 71
    4
 72
    5
  1
Verwarmingstoestel
  7
standard
210
0
220
0
230
1
 50
0
 73
    1
 44
1
  0
LWPOLYLINE
  5
5AE
100
AcDbEntity
  8
0
  6
ByLayer
 62
  256
370
   -1
100
AcDbPolyline
 90
    4
 70
    1
 43
0
 10
112.4429000336295
 20
201.141060765226
 10
142.4429000336295
 20
201.141060765226
 10
142.4429000336295
 20
211.141060765226
 10
112.4429000336295
 20
211.141060765226
  0
LWPOLYLINE
  5
5AF
100
AcDbEntity
  8
0
  6
ByLayer
 62
  256
370
   -1
100
AcDbPolyline
 90
    4
 70
    1
 43
0
 10
142.4429000336295
 20
201.141060765226
 10
202.4429000336295
 20
201.141060765226
 10
202.4429000336295
 20
211.141060765226
 10
142.4429000336295
 20
211.141060765226
  0
MTEXT
  5
5B0
100
AcDbEntity
  8
0
  6
ByLayer
 62
  256
370
   -1
100
AcDbMText
 10
144.4429000336295
 20
206.141060765226
 30
0
 40
1.540967697277665
 41
38.096147434365
 71
    4
 72
    5
  1
Verwarmingstoestel met accumulatie
  7
standard
210
0
220
0
230
1
 50
0
 73
    1
 44
1
  0
LWPOLYLINE
  5
5B1
100
AcDbEntity
  8
0
  6
ByLayer
 62
  256
370
   -1
100
AcDbPolyline
 90
    4
 70
    1
 43
0
 10
112.4429000336295
 20
191.141060765226
 10
142.4429000336295
 20
191.141060765226
 10
142.4429000336295
 20
201.141060765226
 10
112.4429000336295
 20
201.141060765226
  0
LWPOLYLINE
  5
5B2
100
AcDbEntity
  8
0
  6
ByLayer
 62
  256
370
   -1
100
AcDbPolyline
 90
    4
 70
    1
 43
0
 10
142.4429000336295
 20
191.141060765226
 10
202.4429000336295
 20
191.141060765226
 10
202.4429000336295
 20
201.141060765226
 10
142.4429000336295
 20
201.141060765226
  0
LWPOLYLINE
  5
5B3
100
AcDbEntity
  8
0
  6
ByLayer
 62
  256
370
   -1
100
AcDbPolyline
 90
    4
 70
    1
 43
0
 10
112.4429000336295
 20
181.141060765226
 10
142.4429000336295
 20
181.141060765226
 10
142.4429000336295
 20
191.141060765226
 10
112.4429000336295
 20
191.141060765226
  0
LWPOLYLINE
  5
5B4
100
AcDbEntity
  8
0
  6
ByLayer
 62
  256
370
   -1
100
AcDbPolyline
 90
    4
 70
    1
 43
0
 10
142.4429000336295
 20
181.141060765226
 10
202.4429000336295
 20
181.141060765226
 10
202.4429000336295
 20
191.141060765226
 10
142.4429000336295
 20
191.141060765226
  0
MTEXT
  5
5B5
100
AcDbEntity
  8
0
  6
ByLayer
 62
  256
370
   -1
100
AcDbMText
 10
144.4429000336295
 20
186.141060765226
 30
0
 40
1.540967697277665
 41
5.478996256987253
 71
    4
 72
    5
  1
Boiler
  7
standard
210
0
220
0
230
1
 50
0
 73
    1
 44
1
  0
LWPOLYLINE
  5
5B6
100
AcDbEntity
  8
0
  6
ByLayer
 62
  256
370
   -1
100
AcDbPolyline
 90
    4
 70
    1
 43
0
 10
112.4429000336295
 20
171.141060765226
 10
142.4429000336295
 20
171.141060765226
 10
142.4429000336295
 20
181.141060765226
 10
112.4429000336295
 20
181.141060765226
  0
LWPOLYLINE
  5
5B7
100
AcDbEntity
  8
0
  6
ByLayer
 62
  256
370
   -1
100
AcDbPolyline
 90
    4
 70
    1
 43
0
 10
142.4429000336295
 20
171.141060765226
 10
202.4429000336295
 20
171.141060765226
 10
202.4429000336295
 20
181.141060765226
 10
142.4429000336295
 20
181.141060765226
  0
MTEXT
  5
5B8
100
AcDbEntity
  8
0
  6
ByLayer
 62
  256
370
   -1
100
AcDbMText
 10
144.4429000336295
 20
176.141060765226
 30
0
 40
1.540967697277665
 41
23.37134340871155
 71
    4
 72
    5
  1
Boiler met accumulatie
  7
standard
210
0
220
0
230
1
 50
0
 73
    1
 44
1
  0
LWPOLYLINE
  5
5B9
100
AcDbEntity
  8
0
  6
ByLayer
 62
  256
370
   -1
100
AcDbPolyline
 90
    4
 70
    1
 43
0
 10
112.4429000336295
 20
161.141060765226
 10
142.4429000336295
 20
161.141060765226
 10
142.4429000336295
 20
171.141060765226
 10
112.4429000336295
 20
171.141060765226
  0
LWPOLYLINE
  5
5BA
100
AcDbEntity
  8
0
  6
ByLayer
 62
  256
370
   -1
100
AcDbPolyline
 90
    4
 70
    1
 43
0
 10
142.4429000336295
 20
161.141060765226
 10
202.4429000336295
 20
161.141060765226
 10
202.4429000336295
 20
171.141060765226
 10
142.4429000336295
 20
171.141060765226
  0
LWPOLYLINE
  5
5BB
100
AcDbEntity
  8
0
  6
ByLayer
 62
  256
370
   -1
100
AcDbPolyline
 90
    4
 70
    1
 43
0
 10
112.4429000336295
 20
151.1410607652259
 10
142.4429000336295
 20
151.1410607652259
 10
142.4429000336295
 20
161.141060765226
 10
112.4429000336295
 20
161.141060765226
  0
LWPOLYLINE
  5
5BC
100
AcDbEntity
  8
0
  6
ByLayer
 62
  256
370
   -1
100
AcDbPolyline
 90
    4
 70
    1
 43
0
 10
142.4429000336295
 20
151.1410607652259
 10
202.4429000336295
 20
151.1410607652259
 10
202.4429000336295
 20
161.141060765226
 10
142.4429000336295
 20
161.141060765226
  0
MTEXT
  5
5BD
100
AcDbEntity
  8
0
  6
ByLayer
 62
  256
370
   -1
100
AcDbMText
 10
144.4429000336295
 20
156.141060765226
 30
0
 40
1.540967697277665
 41
11.8140864716288
 71
    4
 72
    5
  1
Kookfornuis
  7
standard
210
0
220
0
230
1
 50
0
 73
    1
 44
1
  0
LWPOLYLINE
  5
5BE
100
AcDbEntity
  8
0
  6
ByLayer
 62
  256
370
   -1
100
AcDbPolyline
 90
    4
 70
    1
 43
0
 10
112.4429000336295
 20
141.1410607652259
 10
142.4429000336295
 20
141.1410607652259
 10
142.4429000336295
 20
151.1410607652259
 10
112.4429000336295
 20
151.1410607652259
  0
LWPOLYLINE
  5
5BF
100
AcDbEntity
  8
0
  6
ByLayer
 62
  256
370
   -1
100
AcDbPolyline
 90
    4
 70
    1
 43
0
 10
142.4429000336295
 20
141.1410607652259
 10
202.4429000336295
 20
141.1410607652259
 10
202.4429000336295
 20
151.1410607652259
 10
142.4429000336295
 20
151.1410607652259
  0
MTEXT
  5
5C0
100
AcDbEntity
  8
0
  6
ByLayer
 62
  256
370
   -1
100
AcDbMText
 10
144.4429000336295
 20
146.1410607652259
 30
0
 40
1.540967697277665
 41
13.69749064246828
 71
    4
 72
    5
  1
Microgolfoven
  7
standard
210
0
220
0
230
1
 50
0
 73
    1
 44
1
  0
LWPOLYLINE
  5
5C1
100
AcDbEntity
  8
0
  6
ByLayer
 62
  256
370
   -1
100
AcDbPolyline
 90
    4
 70
    1
 43
0
 10
112.4429000336295
 20
131.1410607652259
 10
142.4429000336295
 20
131.1410607652259
 10
142.4429000336295
 20
141.1410607652259
 10
112.4429000336295
 20
141.1410607652259
  0
LWPOLYLINE
  5
5C2
100
AcDbEntity
  8
0
  6
ByLayer
 62
  256
370
   -1
100
AcDbPolyline
 90
    4
 70
    1
 43
0
 10
142.4429000336295
 20
131.1410607652259
 10
202.4429000336295
 20
131.1410607652259
 10
202.4429000336295
 20
141.1410607652259
 10
142.4429000336295
 20
141.1410607652259
  0
MTEXT
  5
5C3
100
AcDbEntity
  8
0
  6
ByLayer
 62
  256
370
   -1
100
AcDbMText
 10
144.4429000336295
 20
136.1410607652259
 30
0
 40
1.540967697277665
 41
16.9078408042967
 71
    4
 72
    5
  1
Elektrische oven
  7
standard
210
0
220
0
230
1
 50
0
 73
    1
 44
1
  0
LWPOLYLINE
  5
5C4
100
AcDbEntity
  8
0
  6
ByLayer
 62
  256
370
   -1
100
AcDbPolyline
 90
    4
 70
    1
 43
0
 10
112.4429000336295
 20
121.1410607652259
 10
142.4429000336295
 20
121.1410607652259
 10
142.4429000336295
 20
131.1410607652259
 10
112.4429000336295
 20
131.1410607652259
  0
LWPOLYLINE
  5
5C5
100
AcDbEntity
  8
0
  6
ByLayer
 62
  256
370
   -1
100
AcDbPolyline
 90
    4
 70
    1
 43
0
 10
142.4429000336295
 20
121.1410607652259
 10
202.4429000336295
 20
121.1410607652259
 10
202.4429000336295
 20
131.1410607652259
 10
142.4429000336295
 20
131.1410607652259
  0
MTEXT
  5
5C6
100
AcDbEntity
  8
0
  6
ByLayer
 62
  256
370
   -1
100
AcDbMText
 10
144.4429000336295
 20
126.1410607652259
 30
0
 40
1.540967697277665
 41
11.81408726412904
 71
    4
 72
    5
  1
Wasmashine
  7
standard
210
0
220
0
230
1
 50
0
 73
    1
 44
1
  0
LWPOLYLINE
  5
5C7
100
AcDbEntity
  8
0
  6
ByLayer
 62
  256
370
   -1
100
AcDbPolyline
 90
    4
 70
    1
 43
0
 10
112.4429000336295
 20
111.1410607652259
 10
142.4429000336295
 20
111.1410607652259
 10
142.4429000336295
 20
121.1410607652259
 10
112.4429000336295
 20
121.1410607652259
  0
LWPOLYLINE
  5
5C8
100
AcDbEntity
  8
0
  6
ByLayer
 62
  256
370
   -1
100
AcDbPolyline
 90
    4
 70
    1
 43
0
 10
142.4429000336295
 20
111.1410607652259
 10
202.4429000336295
 20
111.1410607652259
 10
202.4429000336295
 20
121.1410607652259
 10
142.4429000336295
 20
121.1410607652259
  0
MTEXT
  5
5C9
100
AcDbEntity
  8
0
  6
ByLayer
 62
  256
370
   -1
100
AcDbMText
 10
144.4429000336295
 20
116.1410607652259
 30
0
 40
1.540967697277665
 41
10.10190014132045
 71
    4
 72
    5
  1
Droogkast
  7
standard
210
0
220
0
230
1
 50
0
 73
    1
 44
1
  0
LWPOLYLINE
  5
5CA
100
AcDbEntity
  8
0
  6
ByLayer
 62
  256
370
   -1
100
AcDbPolyline
 90
    4
 70
    1
 43
0
 10
112.4429000336295
 20
101.1410607652259
 10
142.4429000336295
 20
101.1410607652259
 10
142.4429000336295
 20
111.1410607652259
 10
112.4429000336295
 20
111.1410607652259
  0
LWPOLYLINE
  5
5CB
100
AcDbEntity
  8
0
  6
ByLayer
 62
  256
370
   -1
100
AcDbPolyline
 90
    4
 70
    1
 43
0
 10
142.4429000336295
 20
101.1410607652259
 10
202.4429000336295
 20
101.1410607652259
 10
202.4429000336295
 20
111.1410607652259
 10
142.4429000336295
 20
111.1410607652259
  0
MTEXT
  5
5CC
100
AcDbEntity
  8
0
  6
ByLayer
 62
  256
370
   -1
100
AcDbMText
 10
144.4429000336295
 20
106.1410607652259
 30
0
 40
1.540967697277665
 41
16.43699035596219
 71
    4
 72
    5
  1
Vaatwasmashine
  7
standard
210
0
220
0
230
1
 50
0
 73
    1
 44
1
  0
LWPOLYLINE
  5
5CD
100
AcDbEntity
  8
0
  6
ByLayer
 62
  256
370
   -1
100
AcDbPolyline
 90
    4
 70
    1
 43
0
 10
112.4429000336295
 20
91.14106076522592
 10
142.4429000336295
 20
91.14106076522592
 10
142.4429000336295
 20
101.1410607652259
 10
112.4429000336295
 20
101.1410607652259
  0
LWPOLYLINE
  5
5CE
100
AcDbEntity
  8
0
  6
ByLayer
 62
  256
370
   -1
100
AcDbPolyline
 90
    4
 70
    1
 43
0
 10
142.4429000336295
 20
91.14106076522592
 10
202.4429000336295
 20
91.14106076522592
 10
202.4429000336295
 20
101.1410607652259
 10
142.4429000336295
 20
101.1410607652259
  0
MTEXT
  5
5CF
100
AcDbEntity
  8
0
  6
ByLayer
 62
  256
370
   -1
100
AcDbMText
 10
144.4429000336295
 20
96.14106076522592
 30
0
 40
1.540967697277665
 41
8.560932444042614
 71
    4
 72
    5
  1
Koelkast
  7
standard
210
0
220
0
230
1
 50
0
 73
    1
 44
1
  0
LWPOLYLINE
  5
5D0
100
AcDbEntity
  8
0
  6
ByLayer
 62
  256
370
   -1
100
AcDbPolyline
 90
    4
 70
    1
 43
0
 10
112.4429000336295
 20
81.14106076522592
 10
142.4429000336295
 20
81.14106076522592
 10
142.4429000336295
 20
91.14106076522592
 10
112.4429000336295
 20
91.14106076522592
  0
LWPOLYLINE
  5
5D1
100
AcDbEntity
  8
0
  6
ByLayer
 62
  256
370
   -1
100
AcDbPolyline
 90
    4
 70
    1
 43
0
 10
142.4429000336295
 20
81.14106076522592
 10
202.4429000336295
 20
81.14106076522592
 10
202.4429000336295
 20
91.14106076522592
 10
142.4429000336295
 20
91.14106076522592
  0
MTEXT
  5
5D2
100
AcDbEntity
  8
0
  6
ByLayer
 62
  256
370
   -1
100
AcDbMText
 10
144.4429000336295
 20
86.14106076522592
 30
0
 40
1.540967697277665
 41
11.12921114700545
 71
    4
 72
    5
  1
Diepvriezer
  7
standard
210
0
220
0
230
1
 50
0
 73
    1
 44
1
  0
LWPOLYLINE
  5
5D3
100
AcDbEntity
  8
0
  6
ByLayer
 62
  256
370
   -1
100
AcDbPolyline
 90
    4
 70
    1
 43
0
 10
112.4429000336295
 20
71.14106076522592
 10
142.4429000336295
 20
71.14106076522592
 10
142.4429000336295
 20
81.14106076522592
 10
112.4429000336295
 20
81.14106076522592
  0
LWPOLYLINE
  5
5D4
100
AcDbEntity
  8
0
  6
ByLayer
 62
  256
370
   -1
100
AcDbPolyline
 90
    4
 70
    1
 43
0
 10
142.4429000336295
 20
71.14106076522592
 10
202.4429000336295
 20
71.14106076522592
 10
202.4429000336295
 20
81.14106076522592
 10
142.4429000336295
 20
81.14106076522592
  0
MTEXT
  5
5D5
100
AcDbEntity
  8
0
  6
ByLayer
 62
  256
370
   -1
100
AcDbMText
 10
144.4429000336295
 20
76.14106076522592
 30
0
 40
1.540967697277665
 41
14.72480323315349
 71
    4
 72
    5
  1
Transformator
  7
standard
210
0
220
0
230
1
 50
0
 73
    1
 44
1
  0
LWPOLYLINE
  5
5D6
100
AcDbEntity
  8
0
  6
ByLayer
 62
  256
370
   -1
100
AcDbPolyline
 90
    4
 70
    1
 43
0
 10
112.4429000336295
 20
61.14106076522592
 10
142.4429000336295
 20
61.14106076522592
 10
142.4429000336295
 20
71.14106076522592
 10
112.4429000336295
 20
71.14106076522592
  0
LWPOLYLINE
  5
5D7
100
AcDbEntity
  8
0
  6
ByLayer
 62
  256
370
   -1
100
AcDbPolyline
 90
    4
 70
    1
 43
0
 10
142.4429000336295
 20
61.14106076522592
 10
202.4429000336295
 20
61.14106076522592
 10
202.4429000336295
 20
71.14106076522592
 10
142.4429000336295
 20
71.14106076522592
  0
MTEXT
  5
5D8
100
AcDbEntity
  8
0
  6
ByLayer
 62
  256
370
   -1
100
AcDbMText
 10
144.4429000336295
 20
66.14106076522592
 30
0
 40
1.540967697277665
 41
5.478996256987253
 71
    4
 72
    5
  1
Motor
  7
standard
210
0
220
0
230
1
 50
0
 73
    1
 44
1
  0
LWPOLYLINE
  5
5D9
100
AcDbEntity
  8
0
  6
ByLayer
 62
  256
370
   -1
100
AcDbPolyline
 90
    4
 70
    1
 43
0
 10
112.4429000336295
 20
51.14106076522592
 10
142.4429000336295
 20
51.14106076522592
 10
142.4429000336295
 20
61.14106076522592
 10
112.4429000336295
 20
61.14106076522592
  0
LWPOLYLINE
  5
5DA
100
AcDbEntity
  8
0
  6
ByLayer
 62
  256
370
   -1
100
AcDbPolyline
 90
    4
 70
    1
 43
0
 10
142.4429000336295
 20
51.14106076522592
 10
202.4429000336295
 20
51.14106076522592
 10
202.4429000336295
 20
61.14106076522592
 10
142.4429000336295
 20
61.14106076522592
  0
MTEXT
  5
5DB
100
AcDbEntity
  8
0
  6
ByLayer
 62
  256
370
   -1
100
AcDbMText
 10
144.4429000336295
 20
56.14106076522592
 30
0
 40
1.540967697277665
 41
10.74396922268601
 71
    4
 72
    5
  1
kWh teller
  7
standard
210
0
220
0
230
1
 50
0
 73
    1
 44
1
  0
MTEXT
  5
5DC
100
AcDbEntity
  8
0
  6
ByLayer
 62
  256
370
   -1
100
AcDbMText
 10
144.4429000336295
 20
396.141060765226
 30
0
 40
1.540967697277665
 41
44.2600190159756
 71
    4
 72
    5
  1
Aansluitpunt voor wandverlichtingstoestel
  7
standard
210
0
220
0
230
1
 50
0
 73
    1
 44
1
  0
INSERT
  5
5DD
100
AcDbEntity
  8
0
  6
ByLayer
 62
  256
370
   -1
100
AcDbBlockReference
  2
AansluitpuntVoorVerlichtingstoestel-0
 10
58.9643375820489
 20
51.54015455662943
 30
0
 41
1
 42
1
 43
0
 50
0
 70
    1
 71
    1
 44
0
 45
0
  0
INSERT
  5
5DE
100
AcDbEntity
  8
0
  6
ByLayer
 62
  256
370
   -1
100
AcDbBlockReference
  2
AansluitpuntVoorWandverlichtingstoestel-0
 10
58.9643375820489
 20
51.54015455662943
 30
0
 41
1
 42
1
 43
0
 50
0
 70
    1
 71
    1
 44
0
 45
0
  0
INSERT
  5
5DF
100
AcDbEntity
  8
0
  6
ByLayer
 62
  256
370
   -1
100
AcDbBlockReference
  2
Fluorecentiearmatuur-0
 10
58.9643375820489
 20
51.54015455662943
 30
0
 41
1
 42
1
 43
0
 50
0
 70
    1
 71
    1
 44
0
 45
0
  0
INSERT
  5
5E0
100
AcDbEntity
  8
0
  6
ByLayer
 62
  256
370
   -1
100
AcDbBlockReference
  2
ArmatuurMet3Buislampen-0
 10
58.9643375820489
 20
51.54015455662943
 30
0
 41
1
 42
1
 43
0
 50
0
 70
    1
 71
    1
 44
0
 45
0
  0
INSERT
  5
5E1
100
AcDbEntity
  8
0
  6
ByLayer
 62
  256
370
   -1
100
AcDbBlockReference
  2
Projector-0
 10
58.9643375820489
 20
51.54015455662943
 30
0
 41
1
 42
1
 43
0
 50
0
 70
    1
 71
    1
 44
0
 45
0
  0
INSERT
  5
5E2
100
AcDbEntity
  8
0
  6
ByLayer
 62
  256
370
   -1
100
AcDbBlockReference
  2
ProjectorMetWeinigDevergerendeLichtbundel-0
 10
58.9643375820489
 20
51.54015455662943
 30
0
 41
1
 42
1
 43
0
 50
0
 70
    1
 71
    1
 44
0
 45
0
  0
INSERT
  5
5E3
100
AcDbEntity
  8
0
  6
ByLayer
 62
  256
370
   -1
100
AcDbBlockReference
  2
ProjectorMetDevergerendeLichtbundel-0
 10
58.9643375820489
 20
51.54015455662943
 30
0
 41
1
 42
1
 43
0
 50
0
 70
    1
 71
    1
 44
0
 45
0
  0
INSERT
  5
5E4
100
AcDbEntity
  8
0
  6
ByLayer
 62
  256
370
   -1
100
AcDbBlockReference
  2
VerlichtingsarmatuurMetIngebouwdeEnkelpoligeSchakelaar-0
 10
58.9643375820489
 20
51.54015455662943
 30
0
 41
1
 42
1
 43
0
 50
0
 70
    1
 71
    1
 44
0
 45
0
  0
INSERT
  5
5E5
100
AcDbEntity
  8
0
  6
ByLayer
 62
  256
370
   -1
100
AcDbBlockReference
  2
NoodverlichtingstoestelAangeslotenOpEenSpecialeStroombaan-0
 10
58.9643375820489
 20
51.54015455662943
 30
0
 41
1
 42
1
 43
0
 50
0
 70
    1
 71
    1
 44
0
 45
0
  0
INSERT
  5
5E6
100
AcDbEntity
  8
0
  6
ByLayer
 62
  256
370
   -1
100
AcDbBlockReference
  2
AutonoomNoodverlichtingstoestel-0
 10
58.9643375820489
 20
51.54015455662943
 30
0
 41
1
 42
1
 43
0
 50
0
 70
    1
 71
    1
 44
0
 45
0
  0
INSERT
  5
5E7
100
AcDbEntity
  8
0
  6
ByLayer
 62
  256
370
   -1
100
AcDbBlockReference
  2
VoorschakeltoestelVoorOntladingslamp-0
 10
58.9643375820489
 20
51.54015455662943
 30
0
 41
1
 42
1
 43
0
 50
0
 70
    1
 71
    1
 44
0
 45
0
  0
INSERT
  5
5E8
100
AcDbEntity
  8
0
  6
ByLayer
 62
  256
370
   -1
100
AcDbBlockReference
  2
Bel-0
 10
58.9643375820489
 20
51.54015455662943
 30
0
 41
1
 42
1
 43
0
 50
0
 70
    1
 71
    1
 44
0
 45
0
  0
INSERT
  5
5E9
100
AcDbEntity
  8
0
  6
ByLayer
 62
  256
370
   -1
100
AcDbBlockReference
  2
Zoemer-0
 10
58.9643375820489
 20
51.54015455662943
 30
0
 41
1
 42
1
 43
0
 50
0
 70
    1
 71
    1
 44
0
 45
0
  0
INSERT
  5
5EA
100
AcDbEntity
  8
0
  6
ByLayer
 62
  256
370
   -1
100
AcDbBlockReference
  2
Sirene-0
 10
58.9643375820489
 20
51.54015455662943
 30
0
 41
1
 42
1
 43
0
 50
0
 70
    1
 71
    1
 44
0
 45
0
  0
INSERT
  5
5EB
100
AcDbEntity
  8
0
  6
ByLayer
 62
  256
370
   -1
100
AcDbBlockReference
  2
Hoorn-0
 10
58.9643375820489
 20
51.54015455662943
 30
0
 41
1
 42
1
 43
0
 50
0
 70
    1
 71
    1
 44
0
 45
0
  0
INSERT
  5
5EC
100
AcDbEntity
  8
0
  6
ByLayer
 62
  256
370
   -1
100
AcDbBlockReference
  2
Horloge-0
 10
58.9643375820489
 20
51.54015455662943
 30
0
 41
1
 42
1
 43
0
 50
0
 70
    1
 71
    1
 44
0
 45
0
  0
INSERT
  5
5ED
100
AcDbEntity
  8
0
  6
ByLayer
 62
  256
370
   -1
100
AcDbBlockReference
  2
Moederklok-0
 10
58.9643375820489
 20
51.54015455662943
 30
0
 41
1
 42
1
 43
0
 50
0
 70
    1
 71
    1
 44
0
 45
0
  0
INSERT
  5
5EE
100
AcDbEntity
  8
0
  6
ByLayer
 62
  256
370
   -1
100
AcDbBlockReference
  2
ElektrischDeurslot-0
 10
58.9643375820489
 20
51.54015455662943
 30
0
 41
1
 42
1
 43
0
 50
0
 70
    1
 71
    1
 44
0
 45
0
  0
INSERT
  5
5EF
100
AcDbEntity
  8
0
  6
ByLayer
 62
  256
370
   -1
100
AcDbBlockReference
  2
Ventilator-0
 10
58.9643375820489
 20
51.54015455662943
 30
0
 41
1
 42
1
 43
0
 50
0
 70
    1
 71
    1
 44
0
 45
0
  0
INSERT
  5
5F0
100
AcDbEntity
  8
0
  6
ByLayer
 62
  256
370
   -1
100
AcDbBlockReference
  2
Verwarmingstoestel-0
 10
58.9643375820489
 20
51.54015455662943
 30
0
 41
1
 42
1
 43
0
 50
0
 70
    1
 71
    1
 44
0
 45
0
  0
INSERT
  5
5F1
100
AcDbEntity
  8
0
  6
ByLayer
 62
  256
370
   -1
100
AcDbBlockReference
  2
VerwarmingstoestelMetAccumulatie-0
 10
58.9643375820489
 20
51.54015455662943
 30
0
 41
1
 42
1
 43
0
 50
0
 70
    1
 71
    1
 44
0
 45
0
  0
INSERT
  5
5F2
100
AcDbEntity
  8
0
  6
ByLayer
 62
  256
370
   -1
100
AcDbBlockReference
  2
VerwarmingstoestelMetAccumulatieEnIngebouwdeVentilator-0
 10
58.9643375820489
 20
51.54015455662943
 30
0
 41
1
 42
1
 43
0
 50
0
 70
    1
 71
    1
 44
0
 45
0
  0
INSERT
  5
5F3
100
AcDbEntity
  8
0
  6
ByLayer
 62
  256
370
   -1
100
AcDbBlockReference
  2
Boiler-0
 10
58.9643375820489
 20
51.54015455662943
 30
0
 41
1
 42
1
 43
0
 50
0
 70
    1
 71
    1
 44
0
 45
0
  0
INSERT
  5
5F4
100
AcDbEntity
  8
0
  6
ByLayer
 62
  256
370
   -1
100
AcDbBlockReference
  2
BoilerMetAccumulatie-0
 10
58.9643375820489
 20
51.54015455662943
 30
0
 41
1
 42
1
 43
0
 50
0
 70
    1
 71
    1
 44
0
 45
0
  0
INSERT
  5
5F5
100
AcDbEntity
  8
0
  6
ByLayer
 62
  256
370
   -1
100
AcDbBlockReference
  2
VastElektrischToestel-0
 10
58.9643375820489
 20
51.54015455662943
 30
0
 41
1
 42
1
 43
0
 50
0
 70
    1
 71
    1
 44
0
 45
0
  0
INSERT
  5
5F6
100
AcDbEntity
  8
0
  6
ByLayer
 62
  256
370
   -1
100
AcDbBlockReference
  2
Kookfornuis-0
 10
58.9643375820489
 20
51.54015455662943
 30
0
 41
1
 42
1
 43
0
 50
0
 70
    1
 71
    1
 44
0
 45
0
  0
INSERT
  5
5F7
100
AcDbEntity
  8
0
  6
ByLayer
 62
  256
370
   -1
100
AcDbBlockReference
  2
Microgolfoven-0
 10
58.9643375820489
 20
51.54015455662943
 30
0
 41
1
 42
1
 43
0
 50
0
 70
    1
 71
    1
 44
0
 45
0
  0
INSERT
  5
5F8
100
AcDbEntity
  8
0
  6
ByLayer
 62
  256
370
   -1
100
AcDbBlockReference
  2
ElektrischeOven-0
 10
58.9643375820489
 20
51.54015455662943
 30
0
 41
1
 42
1
 43
0
 50
0
 70
    1
 71
    1
 44
0
 45
0
  0
INSERT
  5
5F9
100
AcDbEntity
  8
0
  6
ByLayer
 62
  256
370
   -1
100
AcDbBlockReference
  2
Wasmashine-0
 10
58.9643375820489
 20
51.54015455662943
 30
0
 41
1
 42
1
 43
0
 50
0
 70
    1
 71
    1
 44
0
 45
0
  0
INSERT
  5
5FA
100
AcDbEntity
  8
0
  6
ByLayer
 62
  256
370
   -1
100
AcDbBlockReference
  2
Droogkast-0
 10
58.9643375820489
 20
51.54015455662943
 30
0
 41
1
 42
1
 43
0
 50
0
 70
    1
 71
    1
 44
0
 45
0
  0
INSERT
  5
5FB
100
AcDbEntity
  8
0
  6
ByLayer
 62
  256
370
   -1
100
AcDbBlockReference
  2
Vaatwasmashine-0
 10
58.9643375820489
 20
51.54015455662943
 30
0
 41
1
 42
1
 43
0
 50
0
 70
    1
 71
    1
 44
0
 45
0
  0
INSERT
  5
5FC
100
AcDbEntity
  8
0
  6
ByLayer
 62
  256
370
   -1
100
AcDbBlockReference
  2
Transformator-0
 10
58.9643375820489
 20
51.54015455662943
 30
0
 41
1
 42
1
 43
0
 50
0
 70
    1
 71
    1
 44
0
 45
0
  0
LWPOLYLINE
  5
5FD
100
AcDbEntity
  8
0
  6
ByLayer
 62
  256
370
   -1
100
AcDbPolyline
 90
    4
 70
    1
 43
0
 10
124.4429000336295
 20
93.14106076522592
 10
130.4429000336295
 20
93.14106076522592
 10
130.4429000336295
 20
99.14106076522592
 10
124.4429000336295
 20
99.14106076522592
  0
LINE
  5
5FE
100
AcDbEntity
  8
0
  6
ByLayer
 62
  256
370
   -1
100
AcDbLine
 10
123.4429000336295
 20
96.14106076522592
 11
124.4429000336296
 21
96.14106076522592
  0
LWPOLYLINE
  5
5FF
100
AcDbEntity
  8
0
  6
ByLayer
 62
  256
370
   -1
100
AcDbPolyline
 90
    4
 70
    1
 43
0
 10
124.4429000336295
 20
83.14106076522592
 10
130.4429000336295
 20
83.14106076522592
 10
130.4429000336295
 20
89.14106076522592
 10
124.4429000336295
 20
89.14106076522592
  0
LINE
  5
600
100
AcDbEntity
  8
0
  6
ByLayer
 62
  256
370
   -1
100
AcDbLine
 10
123.4429000336295
 20
86.14106076522592
 11
124.4429000336295
 21
86.14106076522592
  0
CIRCLE
  5
601
100
AcDbEntity
  8
0
  6
ByLayer
 62
  256
370
   -1
100
AcDbCircle
 10
127.4429000336295
 20
66.14106076522592
 40
1.999999999999991
  0
LWPOLYLINE
  5
602
100
AcDbEntity
  8
0
  6
ByLayer
 62
  256
370
   -1
100
AcDbPolyline
 90
    4
 70
    1
 43
0
 10
124.4429000336296
 20
53.14106076522592
 10
130.4429000336293
 20
53.14106076522592
 10
130.4429000336293
 20
59.14106076522592
 10
124.4429000336296
 20
59.14106076522592
  0
LINE
  5
603
100
AcDbEntity
  8
0
  6
ByLayer
 62
  256
370
   -1
100
AcDbLine
 10
123.4429000336296
 20
56.14106076522592
 11
124.4429000336296
 21
56.14106076522592
  0
LINE
  5
604
100
AcDbEntity
  8
0
  6
ByLayer
 62
  256
370
   -1
100
AcDbLine
 10
124.4429000336296
 20
57.14106076522592
 11
130.4429000336293
 21
57.14106076522592
  0
MTEXT
  5
605
100
AcDbEntity
  8
0
  6
ByLayer
 62
  256
370
   -1
100
AcDbMText
 10
144.4429000336295
 20
306.141060765226
 30
0
 40
1.54097
 41
46.35751416666739
 71
    4
 72
    5
  1
Voorschakeltoestel voor ontladingslamp \Pdat enkel gebruikt wordt wanneer dergelijk \Ptoestel niet is ingebouwd
  7
standard
210
0
220
0
230
1
 50
0
 73
    1
 44
1
  0
MTEXT
  5
606
100
AcDbEntity
  8
0
  6
ByLayer
 62
  256
370
   -1
100
AcDbMText
 10
144.4429000336295
 20
356.141060765226
 30
0
 40
1.54097
 41
48.45494555555621
 71
    4
 72
    5
  1
Projector met weinig divergerende lichtbundel \P(spot of zoeklicht)
  7
standard
210
0
220
0
230
1
 50
0
 73
    1
 44
1
  0
MTEXT
  5
607
100
AcDbEntity
  8
0
  6
ByLayer
 62
  256
370
   -1
100
AcDbMText
 10
144.4429000336295
 20
346.141060765226
 30
0
 40
1.54097
 41
53.50590277777843
 71
    4
 72
    5
  1
Projector met divergerende lichtbundel (floodlight, \Pbundellicht)
  7
standard
210
0
220
0
230
1
 50
0
 73
    1
 44
1
  0
MTEXT
  5
608
100
AcDbEntity
  8
0
  6
ByLayer
 62
  256
370
   -1
100
AcDbMText
 10
144.4429000336295
 20
336.141060765226
 30
0
 40
1.54097
 41
51.57969107027979
 71
    4
 72
    5
  1
Verlichtingsarmatuur met ingebouwde enkelpolige \Pschakelaar
  7
standard
210
0
220
0
230
1
 50
0
 73
    1
 44
1
  0
MTEXT
  5
609
100
AcDbEntity
  8
0
  6
ByLayer
 62
  256
370
   -1
100
AcDbMText
 10
144.4429000336295
 20
326.141060765226
 30
0
 40
1.54097
 41
55.3037042811164
 71
    4
 72
    5
  1
Noodverlichtingstoestel aangesloten op een speciale \Pstroombaan
  7
standard
210
0
220
0
230
1
 50
0
 73
    1
 44
1
  0
MTEXT
  5
60A
100
AcDbEntity
  8
0
  6
ByLayer
 62
  256
370
   -1
100
AcDbMText
 10
144.4429000336295
 20
196.141060765226
 30
0
 40
1.54097
 41
54.44760825166981
 71
    4
 72
    5
  1
Verwarmingstoestel met accumulatie en ingebouwde \Pventilator
  7
standard
210
0
220
0
230
1
 50
0
 73
    1
 44
1
  0
MTEXT
  5
60B
100
AcDbEntity
  8
0
  6
ByLayer
 62
  256
370
   -1
100
AcDbMText
 10
144.4429000336295
 20
166.141060765226
 30
0
 40
1.54097
 41
49.13982348861519
 71
    4
 72
    5
  1
Vast elektrich huishoudelijk toestel (algemeen \Psymbool)
  7
standard
210
0
220
0
230
1
 50
0
 73
    1
 44
1
  0
LWPOLYLINE
  5
60C
100
AcDbEntity
  8
0
  6
ByLayer
 62
  256
370
   -1
100
AcDbPolyline
 90
    4
 70
    1
 43
0
 10
228.7191392654455
 20
398.937572914552
 10
258.7191392654455
 20
398.937572914552
 10
258.7191392654455
 20
408.937572914552
 10
228.7191392654455
 20
408.937572914552
  0
LWPOLYLINE
  5
60D
100
AcDbEntity
  8
0
  6
ByLayer
 62
  256
370
   -1
100
AcDbPolyline
 90
    4
 70
    1
 43
0
 10
258.7191392654455
 20
398.937572914552
 10
318.7191392654455
 20
398.937572914552
 10
318.7191392654455
 20
408.937572914552
 10
258.7191392654455
 20
408.937572914552
  0
MTEXT
  5
60E
100
AcDbEntity
  8
0
  6
ByLayer
 62
  256
370
   -1
100
AcDbMText
 10
229.5065455408554
 20
416.778812954431
 30
0
 40
3
 41
23.33333424018904
 71
    1
 72
    5
  1
Schakelaars
  7
standard
210
0
220
0
230
1
 50
0
 73
    1
 44
1
  0
MTEXT
  5
60F
100
AcDbEntity
  8
0
  6
ByLayer
 62
  256
370
   -1
100
AcDbMText
 10
260.7191392654455
 20
403.937572914552
 30
0
 40
1.540967697277665
 41
32.10349398787827
 71
    4
 72
    5
  1
Schakelaar (algemeen symbool)
  7
standard
210
0
220
0
230
1
 50
0
 73
    1
 44
1
  0
LWPOLYLINE
  5
610
100
AcDbEntity
  8
0
  6
ByLayer
 62
  256
370
   -1
100
AcDbPolyline
 90
    4
 70
    1
 43
0
 10
228.7191392654455
 20
388.937572914552
 10
258.7191392654455
 20
388.937572914552
 10
258.7191392654455
 20
398.937572914552
 10
228.7191392654455
 20
398.937572914552
  0
LWPOLYLINE
  5
611
100
AcDbEntity
  8
0
  6
ByLayer
 62
  256
370
   -1
100
AcDbPolyline
 90
    4
 70
    1
 43
0
 10
258.7191392654455
 20
388.937572914552
 10
318.7191392654455
 20
388.937572914552
 10
318.7191392654455
 20
398.937572914552
 10
258.7191392654455
 20
398.937572914552
  0
LWPOLYLINE
  5
612
100
AcDbEntity
  8
0
  6
ByLayer
 62
  256
370
   -1
100
AcDbPolyline
 90
    4
 70
    1
 43
0
 10
228.7191392654455
 20
378.937572914552
 10
258.7191392654455
 20
378.937572914552
 10
258.7191392654455
 20
388.937572914552
 10
228.7191392654455
 20
388.937572914552
  0
LWPOLYLINE
  5
613
100
AcDbEntity
  8
0
  6
ByLayer
 62
  256
370
   -1
100
AcDbPolyline
 90
    4
 70
    1
 43
0
 10
258.7191392654455
 20
378.937572914552
 10
318.7191392654455
 20
378.937572914552
 10
318.7191392654455
 20
388.937572914552
 10
258.7191392654455
 20
388.937572914552
  0
MTEXT
  5
614
100
AcDbEntity
  8
0
  6
ByLayer
 62
  256
370
   -1
100
AcDbMText
 10
260.7191392654455
 20
383.937572914552
 30
0
 40
1.540967697277665
 41
49.65340437144788
 71
    4
 72
    5
  1
Enkelpolige schakelaar met vertraagde opening
  7
standard
210
0
220
0
230
1
 50
0
 73
    1
 44
1
  0
LWPOLYLINE
  5
615
100
AcDbEntity
  8
0
  6
ByLayer
 62
  256
370
   -1
100
AcDbPolyline
 90
    4
 70
    1
 43
0
 10
228.7191392654455
 20
368.937572914552
 10
258.7191392654455
 20
368.937572914552
 10
258.7191392654455
 20
378.937572914552
 10
228.7191392654455
 20
378.937572914552
  0
LWPOLYLINE
  5
616
100
AcDbEntity
  8
0
  6
ByLayer
 62
  256
370
   -1
100
AcDbPolyline
 90
    4
 70
    1
 43
0
 10
258.7191392654455
 20
368.937572914552
 10
318.7191392654455
 20
368.937572914552
 10
318.7191392654455
 20
378.937572914552
 10
258.7191392654455
 20
378.937572914552
  0
LWPOLYLINE
  5
617
100
AcDbEntity
  8
0
  6
ByLayer
 62
  256
370
   -1
100
AcDbPolyline
 90
    4
 70
    1
 43
0
 10
228.7191392654455
 20
358.937572914552
 10
258.7191392654455
 20
358.937572914552
 10
258.7191392654455
 20
368.937572914552
 10
228.7191392654455
 20
368.937572914552
  0
LWPOLYLINE
  5
618
100
AcDbEntity
  8
0
  6
ByLayer
 62
  256
370
   -1
100
AcDbPolyline
 90
    4
 70
    1
 43
0
 10
258.7191392654455
 20
358.937572914552
 10
318.7191392654455
 20
358.937572914552
 10
318.7191392654455
 20
368.937572914552
 10
258.7191392654455
 20
368.937572914552
  0
LWPOLYLINE
  5
619
100
AcDbEntity
  8
0
  6
ByLayer
 62
  256
370
   -1
100
AcDbPolyline
 90
    4
 70
    1
 43
0
 10
228.7191392654455
 20
348.937572914552
 10
258.7191392654455
 20
348.937572914552
 10
258.7191392654455
 20
358.937572914552
 10
228.7191392654455
 20
358.937572914552
  0
LWPOLYLINE
  5
61A
100
AcDbEntity
  8
0
  6
ByLayer
 62
  256
370
   -1
100
AcDbPolyline
 90
    4
 70
    1
 43
0
 10
258.7191392654455
 20
348.937572914552
 10
318.7191392654455
 20
348.937572914552
 10
318.7191392654455
 20
358.937572914552
 10
258.7191392654455
 20
358.937572914552
  0
LWPOLYLINE
  5
61B
100
AcDbEntity
  8
0
  6
ByLayer
 62
  256
370
   -1
100
AcDbPolyline
 90
    4
 70
    1
 43
0
 10
228.7191392654455
 20
338.937572914552
 10
258.7191392654455
 20
338.937572914552
 10
258.7191392654455
 20
348.937572914552
 10
228.7191392654455
 20
348.937572914552
  0
LWPOLYLINE
  5
61C
100
AcDbEntity
  8
0
  6
ByLayer
 62
  256
370
   -1
100
AcDbPolyline
 90
    4
 70
    1
 43
0
 10
258.7191392654455
 20
338.937572914552
 10
318.7191392654455
 20
338.937572914552
 10
318.7191392654455
 20
348.937572914552
 10
258.7191392654455
 20
348.937572914552
  0
LWPOLYLINE
  5
61D
100
AcDbEntity
  8
0
  6
ByLayer
 62
  256
370
   -1
100
AcDbPolyline
 90
    4
 70
    1
 43
0
 10
228.7191392654455
 20
328.9375729145511
 10
258.7191392654455
 20
328.9375729145511
 10
258.7191392654455
 20
338.937572914552
 10
228.7191392654455
 20
338.937572914552
  0
LWPOLYLINE
  5
61E
100
AcDbEntity
  8
0
  6
ByLayer
 62
  256
370
   -1
100
AcDbPolyline
 90
    4
 70
    1
 43
0
 10
258.7191392654455
 20
328.9375729145511
 10
318.7191392654455
 20
328.9375729145511
 10
318.7191392654455
 20
338.937572914552
 10
258.7191392654455
 20
338.937572914552
  0
LWPOLYLINE
  5
61F
100
AcDbEntity
  8
0
  6
ByLayer
 62
  256
370
   -1
100
AcDbPolyline
 90
    4
 70
    1
 43
0
 10
228.7191392654455
 20
318.937572914552
 10
258.7191392654455
 20
318.937572914552
 10
258.7191392654455
 20
328.9375729145511
 10
228.7191392654455
 20
328.9375729145511
  0
LWPOLYLINE
  5
620
100
AcDbEntity
  8
0
  6
ByLayer
 62
  256
370
   -1
100
AcDbPolyline
 90
    4
 70
    1
 43
0
 10
258.7191392654455
 20
318.937572914552
 10
318.7191392654455
 20
318.937572914552
 10
318.7191392654455
 20
328.9375729145511
 10
258.7191392654455
 20
328.9375729145511
  0
LWPOLYLINE
  5
621
100
AcDbEntity
  8
0
  6
ByLayer
 62
  256
370
   -1
100
AcDbPolyline
 90
    4
 70
    1
 43
0
 10
228.7191392654455
 20
308.937572914552
 10
258.7191392654455
 20
308.937572914552
 10
258.7191392654455
 20
318.937572914552
 10
228.7191392654455
 20
318.937572914552
  0
LWPOLYLINE
  5
622
100
AcDbEntity
  8
0
  6
ByLayer
 62
  256
370
   -1
100
AcDbPolyline
 90
    4
 70
    1
 43
0
 10
258.7191392654455
 20
308.937572914552
 10
318.7191392654455
 20
308.937572914552
 10
318.7191392654455
 20
318.937572914552
 10
258.7191392654455
 20
318.937572914552
  0
LWPOLYLINE
  5
623
100
AcDbEntity
  8
0
  6
ByLayer
 62
  256
370
   -1
100
AcDbPolyline
 90
    4
 70
    1
 43
0
 10
228.7191392654455
 20
298.937572914552
 10
258.7191392654455
 20
298.937572914552
 10
258.7191392654455
 20
308.937572914552
 10
228.7191392654455
 20
308.937572914552
  0
LWPOLYLINE
  5
624
100
AcDbEntity
  8
0
  6
ByLayer
 62
  256
370
   -1
100
AcDbPolyline
 90
    4
 70
    1
 43
0
 10
258.7191392654455
 20
298.937572914552
 10
318.7191392654455
 20
298.937572914552
 10
318.7191392654455
 20
308.937572914552
 10
258.7191392654455
 20
308.937572914552
  0
LWPOLYLINE
  5
625
100
AcDbEntity
  8
0
  6
ByLayer
 62
  256
370
   -1
100
AcDbPolyline
 90
    4
 70
    1
 43
0
 10
228.7191392654455
 20
288.9375729145519
 10
258.7191392654455
 20
288.9375729145519
 10
258.7191392654455
 20
298.937572914552
 10
228.7191392654455
 20
298.937572914552
  0
LWPOLYLINE
  5
626
100
AcDbEntity
  8
0
  6
ByLayer
 62
  256
370
   -1
100
AcDbPolyline
 90
    4
 70
    1
 43
0
 10
258.7191392654455
 20
288.9375729145519
 10
318.7191392654455
 20
288.9375729145519
 10
318.7191392654455
 20
298.937572914552
 10
258.7191392654455
 20
298.937572914552
  0
MTEXT
  5
627
100
AcDbEntity
  8
0
  6
ByLayer
 62
  256
370
   -1
100
AcDbMText
 10
260.7191392654455
 20
293.9375729145519
 30
0
 40
1.540967697277665
 41
6.677526688203454
 71
    4
 72
    5
  1
Dimmer
  7
standard
210
0
220
0
230
1
 50
0
 73
    1
 44
1
  0
LWPOLYLINE
  5
628
100
AcDbEntity
  8
0
  6
ByLayer
 62
  256
370
   -1
100
AcDbPolyline
 90
    4
 70
    1
 43
0
 10
228.7191392654455
 20
278.9375729145519
 10
258.7191392654455
 20
278.9375729145519
 10
258.7191392654455
 20
288.9375729145519
 10
228.7191392654455
 20
288.9375729145519
  0
LWPOLYLINE
  5
629
100
AcDbEntity
  8
0
  6
ByLayer
 62
  256
370
   -1
100
AcDbPolyline
 90
    4
 70
    1
 43
0
 10
258.7191392654455
 20
278.9375729145519
 10
318.7191392654455
 20
278.9375729145519
 10
318.7191392654455
 20
288.9375729145519
 10
258.7191392654455
 20
288.9375729145519
  0
MTEXT
  5
62A
100
AcDbEntity
  8
0
  6
ByLayer
 62
  256
370
   -1
100
AcDbMText
 10
260.7191392654455
 20
283.9375729145519
 30
0
 40
1.540967697277665
 41
9.074587550635306
 71
    4
 72
    5
  1
Drukknop
  7
standard
210
0
220
0
230
1
 50
0
 73
    1
 44
1
  0
LWPOLYLINE
  5
62B
100
AcDbEntity
  8
0
  6
ByLayer
 62
  256
370
   -1
100
AcDbPolyline
 90
    4
 70
    1
 43
0
 10
228.7191392654455
 20
268.9375729145519
 10
258.7191392654455
 20
268.9375729145519
 10
258.7191392654455
 20
278.9375729145519
 10
228.7191392654455
 20
278.9375729145519
  0
LWPOLYLINE
  5
62C
100
AcDbEntity
  8
0
  6
ByLayer
 62
  256
370
   -1
100
AcDbPolyline
 90
    4
 70
    1
 43
0
 10
258.7191392654455
 20
268.9375729145519
 10
318.7191392654455
 20
268.9375729145519
 10
318.7191392654455
 20
278.9375729145519
 10
258.7191392654455
 20
278.9375729145519
  0
MTEXT
  5
62D
100
AcDbEntity
  8
0
  6
ByLayer
 62
  256
370
   -1
100
AcDbMText
 10
260.7191392654455
 20
273.9375729145519
 30
0
 40
1.540967697277665
 41
50.8519348026634
 71
    4
 72
    5
  1
Drukknop met verklikkerlamp.\POm de drukknop in het duister terug te vinden.
  7
standard
210
0
220
0
230
1
 50
0
 73
    1
 44
1
  0
LWPOLYLINE
  5
62E
100
AcDbEntity
  8
0
  6
ByLayer
 62
  256
370
   -1
100
AcDbPolyline
 90
    4
 70
    1
 43
0
 10
228.7191392654455
 20
258.9375729145519
 10
258.7191392654455
 20
258.9375729145519
 10
258.7191392654455
 20
268.9375729145519
 10
228.7191392654455
 20
268.9375729145519
  0
LWPOLYLINE
  5
62F
100
AcDbEntity
  8
0
  6
ByLayer
 62
  256
370
   -1
100
AcDbPolyline
 90
    4
 70
    1
 43
0
 10
258.7191392654455
 20
258.9375729145519
 10
318.7191392654455
 20
258.9375729145519
 10
318.7191392654455
 20
268.9375729145519
 10
258.7191392654455
 20
268.9375729145519
  0
MTEXT
  5
630
100
AcDbEntity
  8
0
  6
ByLayer
 62
  256
370
   -1
100
AcDbMText
 10
260.7191392654455
 20
263.9375729145519
 30
0
 40
1.540967697277665
 41
57.10141473707132
 71
    4
 72
    5
  1
Drukknop met afgeschermde toegang (te breken ruit).
  7
standard
210
0
220
0
230
1
 50
0
 73
    1
 44
1
  0
LWPOLYLINE
  5
631
100
AcDbEntity
  8
0
  6
ByLayer
 62
  256
370
   -1
100
AcDbPolyline
 90
    4
 70
    1
 43
0
 10
228.7191392654455
 20
248.9375729145519
 10
258.7191392654455
 20
248.9375729145519
 10
258.7191392654455
 20
258.9375729145519
 10
228.7191392654455
 20
258.9375729145519
  0
LWPOLYLINE
  5
632
100
AcDbEntity
  8
0
  6
ByLayer
 62
  256
370
   -1
100
AcDbPolyline
 90
    4
 70
    1
 43
0
 10
258.7191392654455
 20
248.9375729145519
 10
318.7191392654455
 20
248.9375729145519
 10
318.7191392654455
 20
258.9375729145519
 10
258.7191392654455
 20
258.9375729145519
  0
MTEXT
  5
633
100
AcDbEntity
  8
0
  6
ByLayer
 62
  256
370
   -1
100
AcDbMText
 10
260.7191392654455
 20
253.9375729145519
 30
0
 40
1.540967697277665
 41
8.903368917604359
 71
    4
 72
    5
  1
Minuterie
  7
standard
210
0
220
0
230
1
 50
0
 73
    1
 44
1
  0
LWPOLYLINE
  5
634
100
AcDbEntity
  8
0
  6
ByLayer
 62
  256
370
   -1
100
AcDbPolyline
 90
    4
 70
    1
 43
0
 10
228.7191392654455
 20
238.9375729145519
 10
258.7191392654455
 20
238.9375729145519
 10
258.7191392654455
 20
248.9375729145519
 10
228.7191392654455
 20
248.9375729145519
  0
LWPOLYLINE
  5
635
100
AcDbEntity
  8
0
  6
ByLayer
 62
  256
370
   -1
100
AcDbPolyline
 90
    4
 70
    1
 43
0
 10
258.7191392654455
 20
238.9375729145519
 10
318.7191392654455
 20
238.9375729145519
 10
318.7191392654455
 20
248.9375729145519
 10
258.7191392654455
 20
248.9375729145519
  0
MTEXT
  5
636
100
AcDbEntity
  8
0
  6
ByLayer
 62
  256
370
   -1
100
AcDbMText
 10
260.7191392654455
 20
243.9375729145519
 30
0
 40
1.540967697277665
 41
28.12266094112939
 71
    4
 72
    5
  1
Schakelklok, tijdschakelaar
  7
standard
210
0
220
0
230
1
 50
0
 73
    1
 44
1
  0
LWPOLYLINE
  5
637
100
AcDbEntity
  8
0
  6
ByLayer
 62
  256
370
   -1
100
AcDbPolyline
 90
    4
 70
    1
 43
0
 10
228.7191392654455
 20
228.9375729145519
 10
258.7191392654455
 20
228.9375729145519
 10
258.7191392654455
 20
238.9375729145519
 10
228.7191392654455
 20
238.9375729145519
  0
LWPOLYLINE
  5
638
100
AcDbEntity
  8
0
  6
ByLayer
 62
  256
370
   -1
100
AcDbPolyline
 90
    4
 70
    1
 43
0
 10
258.7191392654455
 20
228.9375729145519
 10
318.7191392654455
 20
228.9375729145519
 10
318.7191392654455
 20
238.9375729145519
 10
258.7191392654455
 20
238.9375729145519
  0
MTEXT
  5
639
100
AcDbEntity
  8
0
  6
ByLayer
 62
  256
370
   -1
100
AcDbMText
 10
260.7191392654455
 20
233.9375729145519
 30
0
 40
1.540967697277665
 41
16.9506462550546
 71
    4
 72
    5
  1
Impulsschakelaar
  7
standard
210
0
220
0
230
1
 50
0
 73
    1
 44
1
  0
LWPOLYLINE
  5
63A
100
AcDbEntity
  8
0
  6
ByLayer
 62
  256
370
   -1
100
AcDbPolyline
 90
    4
 70
    1
 43
0
 10
228.7191392654455
 20
218.9375729145518
 10
258.7191392654455
 20
218.9375729145518
 10
258.7191392654455
 20
228.9375729145519
 10
228.7191392654455
 20
228.9375729145519
  0
LWPOLYLINE
  5
63B
100
AcDbEntity
  8
0
  6
ByLayer
 62
  256
370
   -1
100
AcDbPolyline
 90
    4
 70
    1
 43
0
 10
258.7191392654455
 20
218.9375729145518
 10
318.7191392654455
 20
218.9375729145518
 10
318.7191392654455
 20
228.9375729145519
 10
258.7191392654455
 20
228.9375729145519
  0
MTEXT
  5
63C
100
AcDbEntity
  8
0
  6
ByLayer
 62
  256
370
   -1
100
AcDbMText
 10
260.7191392654455
 20
223.9375729145519
 30
0
 40
1.540967697277665
 41
12.67017963678327
 71
    4
 72
    5
  1
Thermostaat
  7
standard
210
0
220
0
230
1
 50
0
 73
    1
 44
1
  0
LWPOLYLINE
  5
63D
100
AcDbEntity
  8
0
  6
ByLayer
 62
  256
370
   -1
100
AcDbPolyline
 90
    4
 70
    1
 43
0
 10
228.7191392654455
 20
208.9375729145518
 10
258.7191392654455
 20
208.9375729145518
 10
258.7191392654455
 20
218.9375729145518
 10
228.7191392654455
 20
218.9375729145518
  0
LWPOLYLINE
  5
63E
100
AcDbEntity
  8
0
  6
ByLayer
 62
  256
370
   -1
100
AcDbPolyline
 90
    4
 70
    1
 43
0
 10
258.7191392654455
 20
208.9375729145518
 10
318.7191392654455
 20
208.9375729145518
 10
318.7191392654455
 20
218.9375729145518
 10
258.7191392654455
 20
218.9375729145518
  0
MTEXT
  5
63F
100
AcDbEntity
  8
0
  6
ByLayer
 62
  256
370
   -1
100
AcDbMText
 10
260.7191392654455
 20
213.9375729145518
 30
0
 40
1.540967697277665
 41
49.52499118917426
 71
    4
 72
    5
  1
Rondecontrole of elektrische slotvergrendeling
  7
standard
210
0
220
0
230
1
 50
0
 73
    1
 44
1
  0
MTEXT
  5
640
100
AcDbEntity
  8
0
  6
ByLayer
 62
  256
370
   -1
100
AcDbMText
 10
260.7191392654455
 20
373.937572914552
 30
0
 40
1.540967697277665
 41
23.24293022643851
 71
    4
 72
    5
  1
Enkelpolige schakelaar
  7
standard
210
0
220
0
230
1
 50
0
 73
    1
 44
1
  0
MTEXT
  5
641
100
AcDbEntity
  8
0
  6
ByLayer
 62
  256
370
   -1
100
AcDbMText
 10
260.7191392654455
 20
363.937572914552
 30
0
 40
1.540967697277665
 41
23.07171159340758
 71
    4
 72
    5
  1
Tweepolige schakelaar
  7
standard
210
0
220
0
230
1
 50
0
 73
    1
 44
1
  0
MTEXT
  5
642
100
AcDbEntity
  8
0
  6
ByLayer
 62
  256
370
   -1
100
AcDbMText
 10
260.7191392654455
 20
353.937572914552
 30
0
 40
1.540967697277665
 41
21.87318116219172
 71
    4
 72
    5
  1
Driepolige schakelaar
  7
standard
210
0
220
0
230
1
 50
0
 73
    1
 44
1
  0
MTEXT
  5
643
100
AcDbEntity
  8
0
  6
ByLayer
 62
  256
370
   -1
100
AcDbMText
 10
260.7191392654455
 20
323.9375729145511
 30
0
 40
1.540967697277665
 41
47.89841496788136
 71
    4
 72
    5
  1
Tweepolige wisselschakelaar, dubbele richting
  7
standard
210
0
220
0
230
1
 50
0
 73
    1
 44
1
  0
LWPOLYLINE
  5
644
100
AcDbEntity
  8
0
  6
ByLayer
 62
  256
370
   -1
100
AcDbPolyline
 90
    4
 70
    1
 43
0
 10
228.7191392654455
 20
173.7410560722531
 10
258.7191392654455
 20
173.7410560722531
 10
258.7191392654455
 20
183.7410560722531
 10
228.7191392654455
 20
183.7410560722531
  0
LWPOLYLINE
  5
645
100
AcDbEntity
  8
0
  6
ByLayer
 62
  256
370
   -1
100
AcDbPolyline
 90
    4
 70
    1
 43
0
 10
258.7191392654455
 20
173.7410560722531
 10
318.7191392654455
 20
173.7410560722531
 10
318.7191392654455
 20
183.7410560722531
 10
258.7191392654455
 20
183.7410560722531
  0
MTEXT
  5
646
100
AcDbEntity
  8
0
  6
ByLayer
 62
  256
370
   -1
100
AcDbMText
 10
229.5065455408554
 20
191.5822961121319
 30
0
 40
3
 41
27.99999936399397
 71
    1
 72
    5
  1
Stopcontacten
  7
standard
210
0
220
0
230
1
 50
0
 73
    1
 44
1
  0
MTEXT
  5
647
100
AcDbEntity
  8
0
  6
ByLayer
 62
  256
370
   -1
100
AcDbMText
 10
260.7191392654455
 20
178.7410560722531
 30
0
 40
1.540967697277665
 41
33.3020244190941
 71
    4
 72
    5
  1
Stopcontact (algemeen symbool)
  7
standard
210
0
220
0
230
1
 50
0
 73
    1
 44
1
  0
LWPOLYLINE
  5
648
100
AcDbEntity
  8
0
  6
ByLayer
 62
  256
370
   -1
100
AcDbPolyline
 90
    4
 70
    1
 43
0
 10
228.7191392654455
 20
163.7410560722531
 10
258.7191392654455
 20
163.7410560722531
 10
258.7191392654455
 20
173.7410560722531
 10
228.7191392654455
 20
173.7410560722531
  0
LWPOLYLINE
  5
649
100
AcDbEntity
  8
0
  6
ByLayer
 62
  256
370
   -1
100
AcDbPolyline
 90
    4
 70
    1
 43
0
 10
258.7191392654455
 20
163.7410560722531
 10
318.7191392654455
 20
163.7410560722531
 10
318.7191392654455
 20
173.7410560722531
 10
258.7191392654455
 20
173.7410560722531
  0
MTEXT
  5
64A
100
AcDbEntity
  8
0
  6
ByLayer
 62
  256
370
   -1
100
AcDbMText
 10
260.7191392654455
 20
168.7410560722531
 30
0
 40
1.540967697277665
 41
44.34562816127215
 71
    4
 72
    5
  1
Meervoudig stopcontact (voor 3 stekkers)
  7
standard
210
0
220
0
230
1
 50
0
 73
    1
 44
1
  0
LWPOLYLINE
  5
64B
100
AcDbEntity
  8
0
  6
ByLayer
 62
  256
370
   -1
100
AcDbPolyline
 90
    4
 70
    1
 43
0
 10
228.7191392654455
 20
153.7410560722531
 10
258.7191392654455
 20
153.7410560722531
 10
258.7191392654455
 20
163.7410560722531
 10
228.7191392654455
 20
163.7410560722531
  0
LWPOLYLINE
  5
64C
100
AcDbEntity
  8
0
  6
ByLayer
 62
  256
370
   -1
100
AcDbPolyline
 90
    4
 70
    1
 43
0
 10
258.7191392654455
 20
153.7410560722531
 10
318.7191392654455
 20
153.7410560722531
 10
318.7191392654455
 20
163.7410560722531
 10
258.7191392654455
 20
163.7410560722531
  0
MTEXT
  5
64D
100
AcDbEntity
  8
0
  6
ByLayer
 62
  256
370
   -1
100
AcDbMText
 10
260.7191392654455
 20
158.7410560722531
 30
0
 40
1.540967697277665
 41
57.74348557465535
 71
    4
 72
    5
  1
Half waterdicht, waterdicht of hermetisch stopcontact
  7
standard
210
0
220
0
230
1
 50
0
 73
    1
 44
1
  0
LWPOLYLINE
  5
64E
100
AcDbEntity
  8
0
  6
ByLayer
 62
  256
370
   -1
100
AcDbPolyline
 90
    4
 70
    1
 43
0
 10
228.7191392654455
 20
143.7410560722531
 10
258.7191392654455
 20
143.7410560722531
 10
258.7191392654455
 20
153.7410560722531
 10
228.7191392654455
 20
153.7410560722531
  0
LWPOLYLINE
  5
64F
100
AcDbEntity
  8
0
  6
ByLayer
 62
  256
370
   -1
100
AcDbPolyline
 90
    4
 70
    1
 43
0
 10
258.7191392654455
 20
143.7410560722531
 10
318.7191392654455
 20
143.7410560722531
 10
318.7191392654455
 20
153.7410560722531
 10
258.7191392654455
 20
153.7410560722531
  0
MTEXT
  5
650
100
AcDbEntity
  8
0
  6
ByLayer
 62
  256
370
   -1
100
AcDbMText
 10
260.7191392654455
 20
148.7410560722531
 30
0
 40
1.540967697277665
 41
36.89761588396068
 71
    4
 72
    5
  1
Stopcontact met kinderbescherming
  7
standard
210
0
220
0
230
1
 50
0
 73
    1
 44
1
  0
LWPOLYLINE
  5
651
100
AcDbEntity
  8
0
  6
ByLayer
 62
  256
370
   -1
100
AcDbPolyline
 90
    4
 70
    1
 43
0
 10
228.7191392654455
 20
133.7410560722531
 10
258.7191392654455
 20
133.7410560722531
 10
258.7191392654455
 20
143.7410560722531
 10
228.7191392654455
 20
143.7410560722531
  0
LWPOLYLINE
  5
652
100
AcDbEntity
  8
0
  6
ByLayer
 62
  256
370
   -1
100
AcDbPolyline
 90
    4
 70
    1
 43
0
 10
258.7191392654455
 20
133.7410560722531
 10
318.7191392654455
 20
133.7410560722531
 10
318.7191392654455
 20
143.7410560722531
 10
258.7191392654455
 20
143.7410560722531
  0
MTEXT
  5
653
100
AcDbEntity
  8
0
  6
ByLayer
 62
  256
370
   -1
100
AcDbMText
 10
260.7191392654455
 20
138.7410560722531
 30
0
 40
1.540967697277665
 41
54.61874519515391
 71
    4
 72
    5
  1
Stopcontact met contact voor beschermingsgeleider
  7
standard
210
0
220
0
230
1
 50
0
 73
    1
 44
1
  0
LWPOLYLINE
  5
654
100
AcDbEntity
  8
0
  6
ByLayer
 62
  256
370
   -1
100
AcDbPolyline
 90
    4
 70
    1
 43
0
 10
228.7191392654455
 20
123.7410560722531
 10
258.7191392654455
 20
123.7410560722531
 10
258.7191392654455
 20
133.7410560722531
 10
228.7191392654455
 20
133.7410560722531
  0
LWPOLYLINE
  5
655
100
AcDbEntity
  8
0
  6
ByLayer
 62
  256
370
   -1
100
AcDbPolyline
 90
    4
 70
    1
 43
0
 10
258.7191392654455
 20
123.7410560722531
 10
318.7191392654455
 20
123.7410560722531
 10
318.7191392654455
 20
133.7410560722531
 10
258.7191392654455
 20
133.7410560722531
  0
LWPOLYLINE
  5
656
100
AcDbEntity
  8
0
  6
ByLayer
 62
  256
370
   -1
100
AcDbPolyline
 90
    4
 70
    1
 43
0
 10
228.7191392654455
 20
113.7410560722531
 10
258.7191392654455
 20
113.7410560722531
 10
258.7191392654455
 20
123.7410560722531
 10
228.7191392654455
 20
123.7410560722531
  0
LWPOLYLINE
  5
657
100
AcDbEntity
  8
0
  6
ByLayer
 62
  256
370
   -1
100
AcDbPolyline
 90
    4
 70
    1
 43
0
 10
258.7191392654455
 20
113.7410560722531
 10
318.7191392654455
 20
113.7410560722531
 10
318.7191392654455
 20
123.7410560722531
 10
258.7191392654455
 20
123.7410560722531
  0
MTEXT
  5
658
100
AcDbEntity
  8
0
  6
ByLayer
 62
  256
370
   -1
100
AcDbMText
 10
260.7191392654455
 20
118.7410560722531
 30
0
 40
1.540967697277665
 41
41.30649568450504
 71
    4
 72
    5
  1
Stopcontact met tweepolige schakelaar
  7
standard
210
0
220
0
230
1
 50
0
 73
    1
 44
1
  0
LWPOLYLINE
  5
659
100
AcDbEntity
  8
0
  6
ByLayer
 62
  256
370
   -1
100
AcDbPolyline
 90
    4
 70
    1
 43
0
 10
228.7191392654455
 20
103.7410560722531
 10
258.7191392654455
 20
103.7410560722531
 10
258.7191392654455
 20
113.7410560722531
 10
228.7191392654455
 20
113.7410560722531
  0
LWPOLYLINE
  5
65A
100
AcDbEntity
  8
0
  6
ByLayer
 62
  256
370
   -1
100
AcDbPolyline
 90
    4
 70
    1
 43
0
 10
258.7191392654455
 20
103.7410560722531
 10
318.7191392654455
 20
103.7410560722531
 10
318.7191392654455
 20
113.7410560722531
 10
258.7191392654455
 20
113.7410560722531
  0
LWPOLYLINE
  5
65B
100
AcDbEntity
  8
0
  6
ByLayer
 62
  256
370
   -1
100
AcDbPolyline
 90
    4
 70
    1
 43
0
 10
228.7191392654455
 20
93.74105607225306
 10
258.7191392654455
 20
93.74105607225306
 10
258.7191392654455
 20
103.7410560722531
 10
228.7191392654455
 20
103.7410560722531
  0
LWPOLYLINE
  5
65C
100
AcDbEntity
  8
0
  6
ByLayer
 62
  256
370
   -1
100
AcDbPolyline
 90
    4
 70
    1
 43
0
 10
258.7191392654455
 20
93.74105607225306
 10
318.7191392654455
 20
93.74105607225306
 10
318.7191392654455
 20
103.7410560722531
 10
258.7191392654455
 20
103.7410560722531
  0
MTEXT
  5
65D
100
AcDbEntity
  8
0
  6
ByLayer
 62
  256
370
   -1
100
AcDbMText
 10
260.7191392654455
 20
98.74105607225306
 30
0
 40
1.540967697277665
 41
56.54495481675105
 71
    4
 72
    5
  1
Stopcontact met tweepolige vergrendelingsschakelaar
  7
standard
210
0
220
0
230
1
 50
0
 73
    1
 44
1
  0
INSERT
  5
65E
100
AcDbEntity
  8
0
  6
ByLayer
 62
  256
370
   -1
100
AcDbBlockReference
  2
schakelaar-0
 10
228.7191386328844
 20
91.86429662377066
 30
0
 41
1
 42
1
 43
0
 50
0
 70
    1
 71
    1
 44
0
 45
0
  0
INSERT
  5
65F
100
AcDbEntity
  8
0
  6
ByLayer
 62
  256
370
   -1
100
AcDbBlockReference
  2
SchakelaarMetPermanentBrandendeVerklikkerlamp-0
 10
228.7191386328844
 20
91.86429662377066
 30
0
 41
1
 42
1
 43
0
 50
0
 70
    1
 71
    1
 44
0
 45
0
  0
INSERT
  5
660
100
AcDbEntity
  8
0
  6
ByLayer
 62
  256
370
   -1
100
AcDbBlockReference
  2
EnkelpoligeSchakelaarMetVertraagdeOpening-0
 10
228.7191386328844
 20
91.86429662377066
 30
0
 41
1
 42
1
 43
0
 50
0
 70
    1
 71
    1
 44
0
 45
0
  0
INSERT
  5
661
100
AcDbEntity
  8
0
  6
ByLayer
 62
  256
370
   -1
100
AcDbBlockReference
  2
EnkelpoligeSchakelaar-0
 10
228.7191386328844
 20
91.86429662377066
 30
0
 41
1
 42
1
 43
0
 50
0
 70
    1
 71
    1
 44
0
 45
0
  0
INSERT
  5
662
100
AcDbEntity
  8
0
  6
ByLayer
 62
  256
370
   -1
100
AcDbBlockReference
  2
TweepoligeSchakelaar-0
 10
228.7191386328844
 20
91.86429662377066
 30
0
 41
1
 42
1
 43
0
 50
0
 70
    1
 71
    1
 44
0
 45
0
  0
INSERT
  5
663
100
AcDbEntity
  8
0
  6
ByLayer
 62
  256
370
   -1
100
AcDbBlockReference
  2
DriepoligeSchakelaar-0
 10
228.7191386328844
 20
91.86429662377066
 30
0
 41
1
 42
1
 43
0
 50
0
 70
    1
 71
    1
 44
0
 45
0
  0
INSERT
  5
664
100
AcDbEntity
  8
0
  6
ByLayer
 62
  256
370
   -1
100
AcDbBlockReference
  2
EnkelpoligeOmschakelaar-0
 10
228.7191386328844
 20
91.86429662377066
 30
0
 41
1
 42
1
 43
0
 50
0
 70
    1
 71
    1
 44
0
 45
0
  0
INSERT
  5
665
100
AcDbEntity
  8
0
  6
ByLayer
 62
  256
370
   -1
100
AcDbBlockReference
  2
EnkelpoligeWisselschakelaar-0
 10
228.7191386328844
 20
91.86429662377066
 30
0
 41
1
 42
1
 43
0
 50
0
 70
    1
 71
    1
 44
0
 45
0
  0
INSERT
  5
666
100
AcDbEntity
  8
0
  6
ByLayer
 62
  256
370
   -1
100
AcDbBlockReference
  2
TweepoligeWisselschakelaar-0
 10
228.7191386328844
 20
91.86429662377066
 30
0
 41
1
 42
1
 43
0
 50
0
 70
    1
 71
    1
 44
0
 45
0
  0
INSERT
  5
667
100
AcDbEntity
  8
0
  6
ByLayer
 62
  256
370
   -1
100
AcDbBlockReference
  2
Kruisschakelaar-0
 10
228.7191386328844
 20
91.86429662377066
 30
0
 41
1
 42
1
 43
0
 50
0
 70
    1
 71
    1
 44
0
 45
0
  0
INSERT
  5
668
100
AcDbEntity
  8
0
  6
ByLayer
 62
  256
370
   -1
100
AcDbBlockReference
  2
EnkelpoligeSchakelaarMetSignalisatielamp-0
 10
228.7191386328844
 20
91.86429662377066
 30
0
 41
1
 42
1
 43
0
 50
0
 70
    1
 71
    1
 44
0
 45
0
  0
INSERT
  5
669
100
AcDbEntity
  8
0
  6
ByLayer
 62
  256
370
   -1
100
AcDbBlockReference
  2
Dimmer-0
 10
228.7191386328844
 20
91.86429662377066
 30
0
 41
1
 42
1
 43
0
 50
0
 70
    1
 71
    1
 44
0
 45
0
  0
INSERT
  5
66A
100
AcDbEntity
  8
0
  6
ByLayer
 62
  256
370
   -1
100
AcDbBlockReference
  2
Drukknop-0
 10
228.7191386328844
 20
91.86429662377066
 30
0
 41
1
 42
1
 43
0
 50
0
 70
    1
 71
    1
 44
0
 45
0
  0
INSERT
  5
66B
100
AcDbEntity
  8
0
  6
ByLayer
 62
  256
370
   -1
100
AcDbBlockReference
  2
DrukknopMetVerklikkerlamp-0
 10
228.7191386328844
 20
91.86429662377066
 30
0
 41
1
 42
1
 43
0
 50
0
 70
    1
 71
    1
 44
0
 45
0
  0
INSERT
  5
66C
100
AcDbEntity
  8
0
  6
ByLayer
 62
  256
370
   -1
100
AcDbBlockReference
  2
DrukknopMetAfgeschermdeToegang-0
 10
228.7191386328844
 20
91.86429662377066
 30
0
 41
1
 42
1
 43
0
 50
0
 70
    1
 71
    1
 44
0
 45
0
  0
INSERT
  5
66D
100
AcDbEntity
  8
0
  6
ByLayer
 62
  256
370
   -1
100
AcDbBlockReference
  2
Schakelklok-0
 10
228.7191386328844
 20
91.86429662377066
 30
0
 41
1
 42
1
 43
0
 50
0
 70
    1
 71
    1
 44
0
 45
0
  0
INSERT
  5
66E
100
AcDbEntity
  8
0
  6
ByLayer
 62
  256
370
   -1
100
AcDbBlockReference
  2
Impulsschakelaar-0
 10
228.7191386328844
 20
91.86429662377066
 30
0
 41
1
 42
1
 43
0
 50
0
 70
    1
 71
    1
 44
0
 45
0
  0
INSERT
  5
66F
100
AcDbEntity
  8
0
  6
ByLayer
 62
  256
370
   -1
100
AcDbBlockReference
  2
Thermostaat-0
 10
228.7191386328844
 20
91.86429662377066
 30
0
 41
1
 42
1
 43
0
 50
0
 70
    1
 71
    1
 44
0
 45
0
  0
INSERT
  5
670
100
AcDbEntity
  8
0
  6
ByLayer
 62
  256
370
   -1
100
AcDbBlockReference
  2
Rondecontrole-0
 10
228.7191386328844
 20
91.86429662377066
 30
0
 41
1
 42
1
 43
0
 50
0
 70
    1
 71
    1
 44
0
 45
0
  0
INSERT
  5
671
100
AcDbEntity
  8
0
  6
ByLayer
 62
  256
370
   -1
100
AcDbBlockReference
  2
Stopcontact-0
 10
228.7191386328844
 20
91.86429662377066
 30
0
 41
1
 42
1
 43
0
 50
0
 70
    1
 71
    1
 44
0
 45
0
  0
INSERT
  5
672
100
AcDbEntity
  8
0
  6
ByLayer
 62
  256
370
   -1
100
AcDbBlockReference
  2
MeervoudigStopcontact3-0
 10
228.7191386328844
 20
91.86429662377066
 30
0
 41
1
 42
1
 43
0
 50
0
 70
    1
 71
    1
 44
0
 45
0
  0
INSERT
  5
673
100
AcDbEntity
  8
0
  6
ByLayer
 62
  256
370
   -1
100
AcDbBlockReference
  2
StopcontactMetKinderbescherming-0
 10
228.7191386328844
 20
91.86429662377066
 30
0
 41
1
 42
1
 43
0
 50
0
 70
    1
 71
    1
 44
0
 45
0
  0
INSERT
  5
674
100
AcDbEntity
  8
0
  6
ByLayer
 62
  256
370
   -1
100
AcDbBlockReference
  2
StopcontactMetContactVoorBeschermgeleider-0
 10
228.7191386328844
 20
91.86429662377066
 30
0
 41
1
 42
1
 43
0
 50
0
 70
    1
 71
    1
 44
0
 45
0
  0
INSERT
  5
675
100
AcDbEntity
  8
0
  6
ByLayer
 62
  256
370
   -1
100
AcDbBlockReference
  2
StopcontactMetContactVoorBeschermingsgeleiderEnKinderbescherming-0
 10
228.7191386328844
 20
91.86429662377066
 30
0
 41
1
 42
1
 43
0
 50
0
 70
    1
 71
    1
 44
0
 45
0
  0
INSERT
  5
676
100
AcDbEntity
  8
0
  6
ByLayer
 62
  256
370
   -1
100
AcDbBlockReference
  2
StopcontactMetTweepoligeSchakelaar-0
 10
228.7191386328844
 20
91.86429662377066
 30
0
 41
1
 42
1
 43
0
 50
0
 70
    1
 71
    1
 44
0
 45
0
  0
INSERT
  5
677
100
AcDbEntity
  8
0
  6
ByLayer
 62
  256
370
   -1
100
AcDbBlockReference
  2
StopcontactMetBeschermingstransformator-0
 10
228.7191386328844
 20
91.86429662377066
 30
0
 41
1
 42
1
 43
0
 50
0
 70
    1
 71
    1
 44
0
 45
0
  0
INSERT
  5
678
100
AcDbEntity
  8
0
  6
ByLayer
 62
  256
370
   -1
100
AcDbBlockReference
  2
StopcontactMetTweepoligeVergrendelingsschakelaar-0
 10
228.7191386328844
 20
91.86429662377066
 30
0
 41
1
 42
1
 43
0
 50
0
 70
    1
 71
    1
 44
0
 45
0
  0
MTEXT
  5
679
100
AcDbEntity
  8
0
  6
ByLayer
 62
  256
370
   -1
100
AcDbMText
 10
260.7191392654455
 20
313.937572914552
 30
0
 40
1.54097
 41
54.74724209972667
 71
    4
 72
    5
  1
KruisschakelaarLaat toe een stroombaan te openen \Pof te sluiten op een willekeurig aantal plaatsen in \Pcombinatie met twee wisselschakelaars op \Pde twee uiteinden
  7
standard
210
0
220
0
230
1
 50
0
 73
    1
 44
1
  0
MTEXT
  5
67A
100
AcDbEntity
  8
0
  6
ByLayer
 62
  256
370
   -1
100
AcDbMText
 10
260.7191392654455
 20
333.9375729145511
 30
0
 40
1.54097
 41
55.47492237750436
 71
    4
 72
    5
  1
Enkelpolige wisselschakelaar, dubbele richting. Om \Peen stroombaan te openen of sluiten op 2 plaatsen
  7
standard
210
0
220
0
230
1
 50
0
 73
    1
 44
1
  0
MTEXT
  5
67B
100
AcDbEntity
  8
0
  6
ByLayer
 62
  256
370
   -1
100
AcDbMText
 10
260.7191392654455
 20
343.937572914552
 30
0
 40
1.54097
 41
54.06236575167021
 71
    4
 72
    5
  1
Enkelpolige omschakelaar\PDubbele aansteking om 2 stroombanen afzonderlijk \Pte openen of sluiten op 1 plaats
  7
standard
210
0
220
0
230
1
 50
0
 73
    1
 44
1
  0
MTEXT
  5
67C
100
AcDbEntity
  8
0
  6
ByLayer
 62
  256
370
   -1
100
AcDbMText
 10
260.7191392654455
 20
303.937572914552
 30
0
 40
1.54097
 41
54.44760904417128
 71
    4
 72
    5
  1
Enkelpolige schakelaar met signalisatielamp.De lamp \Pbrandt als het toestel dat door \Pdeze schakelaar bediend wordt werkt.
  7
standard
210
0
220
0
230
1
 50
0
 73
    1
 44
1
  0
LWPOLYLINE
  5
67D
100
AcDbEntity
  8
0
  6
ByLayer
 62
  256
370
   -1
100
AcDbPolyline
 90
    4
 70
    1
 43
0
 10
240.2191392654455
 20
252.437572914552
 10
247.2191392654455
 20
252.437572914552
 10
247.2191392654455
 20
255.4375729145519
 10
240.2191392654455
 20
255.4375729145519
  0
MTEXT
  5
67E
100
AcDbEntity
  8
0
  6
ByLayer
 62
  256
370
   -1
100
AcDbMText
 10
260.7191392654455
 20
393.937572914552
 30
0
 40
1.54097
 41
44.1744730066454
 71
    4
 72
    5
  1
Schakelaar met een permanent brandende \Pverklikkerlamp
  7
standard
210
0
220
0
230
1
 50
0
 73
    1
 44
1
  0
LWPOLYLINE
  5
67F
100
AcDbEntity
  8
0
  6
ByLayer
 62
  256
370
   -1
100
AcDbPolyline
 90
    3
 70
    0
 43
0
 10
245.3858059321121
 20
160.4077227389197
 42
0.41421356237311
 10
243.7191392654455
 20
158.7410560722532
 42
0.4142135623731149
 10
245.3858059321121
 20
157.0743894055864
 42
0.4142135623731149
  0
LINE
  5
680
100
AcDbEntity
  8
0
  6
ByLayer
 62
  256
370
   -1
100
AcDbLine
 10
243.7199039668698
 20
158.7414384229655
 11
242.3865706335367
 21
158.7414384229655
  0
MTEXT
  5
681
100
AcDbEntity
  8
0
  6
ByLayer
 62
  256
370
   -1
100
AcDbMText
 10
260.7191392654455
 20
128.7410560722531
 30
0
 40
1.54097
 41
54.61882681386967
 71
    4
 72
    5
  1
Stopcontact met contact voor beschermingsgeleider \Pen kinderbescherming
  7
standard
210
0
220
0
230
1
 50
0
 73
    1
 44
1
  0
MTEXT
  5
682
100
AcDbEntity
  8
0
  6
ByLayer
 62
  256
370
   -1
100
AcDbMText
 10
260.7191392654455
 20
108.7410560722531
 30
0
 40
1.54097
 41
47.25641538414868
 71
    4
 72
    5
  1
Stopcontact met beschermingstransformator, \Pbv. stopcontact voor scheerapparaten.
  7
standard
210
0
220
0
230
1
 50
0
 73
    1
 44
1
  0
ENDSEC
  0
SECTION
  2
OBJECTS
  0
DICTIONARY
  5
C
330
0
100
AcDbDictionary
281
    1
  3
ACAD_GROUP
350
D
  0
DICTIONARY
  5
D
330
C
100
AcDbDictionary
281
    1
  0
ENDSEC
  0
EOF
