999
dxfrw 0.6.3
  0
SECTION
  2
HEADER
  9
$ACADVER
  1
AC1021
  9
$DWGCODEPAGE
  3
ANSI_1252
  9
$INSBASE
 10
0
 20
0
 30
0
  9
$EXTMIN
 10
38.51218795888533
 20
-84.1035242291
 30
0
  9
$EXTMAX
 10
996.6400177737677
 20
640.2651248164688
 30
0
  9
$LIMMIN
 10
0
 20
0
  9
$LIMMAX
 10
420
 20
297
  9
$ORTHOMODE
 70
    0
  9
$REGENMODE
 70
    1
  9
$FILLMODE
 70
    1
  9
$QTEXTMODE
 70
    0
  9
$MIRRTEXT
 70
    0
  9
$LTSCALE
 40
1
  9
$ATTMODE
 70
    0
  9
$TEXTSIZE
 40
2.5
  9
$TRACEWID
 40
15.68
  9
$TEXTSTYLE
  7
STANDARD
  9
$CLAYER
  8
0
  9
$CELTYPE
  6
BYLAYER
  9
$CECOLOR
 62
  256
  9
$CELTSCALE
 40
1
  9
$DISPSILH
 70
    0
  9
$DIMSCALE
 40
1
  9
$DIMASZ
 40
2.5
  9
$DIMEXO
 40
0.625
  9
$DIMDLI
 40
3.75
  9
$DIMRND
 40
0
  9
$DIMDLE
 40
0
  9
$DIMEXE
 40
1.25
  9
$DIMTP
 40
0
  9
$DIMTM
 40
0
  9
$DIMTXT
 40
2.5
  9
$DIMCEN
 40
2.5
  9
$DIMTSZ
 40
0
  9
$DIMTOL
 70
    0
  9
$DIMLIM
 70
    0
  9
$DIMTIH
 70
    0
  9
$DIMTOH
 70
    0
  9
$DIMSE1
 70
    0
  9
$DIMSE2
 70
    0
  9
$DIMTAD
 70
    1
  9
$DIMZIN
 70
    8
  9
$DIMBLK
  1

  9
$DIMASO
 70
    1
  9
$DIMSHO
 70
    1
  9
$DIMPOST
  1

  9
$DIMAPOST
  1

  9
$DIMALT
 70
    0
  9
$DIMALTD
 70
    3
  9
$DIMALTF
 40
0.03937
  9
$DIMLFAC
 40
1
  9
$DIMTOFL
 70
    1
  9
$DIMTVP
 40
0
  9
$DIMTIX
 70
    0
  9
$DIMSOXD
 70
    0
  9
$DIMSAH
 70
    0
  9
$DIMBLK1
  1

  9
$DIMBLK2
  1

  9
$DIMSTYLE
  2
Standard
  9
$DIMCLRD
 70
    0
  9
$DIMCLRE
 70
    0
  9
$DIMCLRT
 70
    0
  9
$DIMTFAC
 40
1
  9
$DIMGAP
 40
0.625
  9
$DIMJUST
 70
    0
  9
$DIMSD1
 70
    0
  9
$DIMSD2
 70
    0
  9
$DIMTOLJ
 70
    0
  9
$DIMTZIN
 70
    8
  9
$DIMALTZ
 70
    0
  9
$DIMALTTZ
 70
    0
  9
$DIMUPT
 70
    0
  9
$DIMDEC
 70
    2
  9
$DIMTDEC
 70
    2
  9
$DIMALTU
 70
    2
  9
$DIMALTTD
 70
    3
  9
$DIMTXSTY
  7
STANDARD
  9
$DIMAUNIT
 70
    0
  9
$DIMADEC
 70
    0
  9
$DIMALTRND
 40
0
  9
$DIMAZIN
 70
    0
  9
$DIMDSEP
 70
   44
  9
$DIMATFIT
 70
    3
  9
$DIMFRAC
 70
    0
  9
$DIMLDRBLK
  1
STANDARD
  9
$DIMLUNIT
 70
    2
  9
$DIMLWD
 70
   -2
  9
$DIMLWE
 70
   -2
  9
$DIMTMOVE
 70
    0
  9
$DIMFXL
 40
1
  9
$DIMFXLON
 70
    0
  9
$DIMJOGANG
 40
0.7854
  9
$DIMTFILL
 70
    0
  9
$DIMTFILLCLR
 70
    0
  9
$DIMARCSYM
 70
    0
  9
$DIMLTYPE
  6

  9
$DIMLTEX1
  6

  9
$DIMLTEX2
  6

  9
$LUNITS
 70
    2
  9
$LUPREC
 70
    4
  9
$SKETCHINC
 40
1
  9
$FILLETRAD
 40
0
  9
$AUNITS
 70
    0
  9
$AUPREC
 70
    2
  9
$MENU
  1
.
  9
$ELEVATION
 40
0
  9
$PELEVATION
 40
0
  9
$THICKNESS
 40
0
  9
$LIMCHECK
 70
    0
  9
$CHAMFERA
 40
0
  9
$CHAMFERB
 40
0
  9
$CHAMFERC
 40
0
  9
$CHAMFERD
 40
0
  9
$SKPOLY
 70
    0
  9
$USRTIMER
 70
    1
  9
$ANGBASE
 50
0
  9
$ANGDIR
 70
    0
  9
$PDMODE
 70
   34
  9
$PDSIZE
 40
0
  9
$PLINEWID
 40
0
  9
$SPLFRAME
 70
    0
  9
$SPLINETYPE
 70
    2
  9
$SPLINESEGS
 70
    8
  9
$HANDSEED
  5
20000
  9
$SURFTAB1
 70
    6
  9
$SURFTAB2
 70
    6
  9
$SURFTYPE
 70
    6
  9
$SURFU
 70
    6
  9
$SURFV
 70
    6
  9
$UCSBASE
  2

  9
$UCSNAME
  2

  9
$UCSORG
 10
0
 20
0
 30
0
  9
$UCSXDIR
 10
1
 20
0
 30
0
  9
$UCSYDIR
 10
0
 20
1
 30
0
  9
$UCSORTHOREF
  2

  9
$UCSORTHOVIEW
 70
    0
  9
$UCSORGTOP
 10
0
 20
0
 30
0
  9
$UCSORGBOTTOM
 10
0
 20
0
 30
0
  9
$UCSORGLEFT
 10
0
 20
0
 30
0
  9
$UCSORGRIGHT
 10
0
 20
0
 30
0
  9
$UCSORGFRONT
 10
0
 20
0
 30
0
  9
$UCSORGBACK
 10
0
 20
0
 30
0
  9
$PUCSBASE
  2

  9
$PUCSNAME
  2

  9
$PUCSORG
 10
0
 20
0
 30
0
  9
$PUCSXDIR
 10
1
 20
0
 30
0
  9
$PUCSYDIR
 10
0
 20
1
 30
0
  9
$PUCSORTHOREF
  2

  9
$PUCSORTHOVIEW
 70
    0
  9
$PUCSORGTOP
 10
0
 20
0
 30
0
  9
$PUCSORGBOTTOM
 10
0
 20
0
 30
0
  9
$PUCSORGLEFT
 10
0
 20
0
 30
0
  9
$PUCSORGRIGHT
 10
0
 20
0
 30
0
  9
$PUCSORGFRONT
 10
0
 20
0
 30
0
  9
$PUCSORGBACK
 10
0
 20
0
 30
0
  9
$USERI1
 70
    0
  9
$USERI2
 70
    0
  9
$USERI3
 70
    0
  9
$USERI4
 70
    0
  9
$USERI5
 70
    0
  9
$USERR1
 40
0
  9
$USERR2
 40
0
  9
$USERR3
 40
0
  9
$USERR4
 40
0
  9
$USERR5
 40
0
  9
$WORLDVIEW
 70
    1
  9
$SHADEDGE
 70
    3
  9
$SHADEDIF
 70
   70
  9
$TILEMODE
 70
    1
  9
$MAXACTVP
 70
   64
  9
$PINSBASE
 10
24.5435688177291
 20
27.21939184124331
 30
0
  9
$PLIMCHECK
 70
    0
  9
$PEXTMIN
 10
0
 20
0
 30
0
  9
$PEXTMAX
 10
0
 20
0
 30
0
  9
$GRIDMODE
 70
    1
  9
$SNAPSTYLE
 70
    0
  9
$GRIDUNIT
 10
0
 20
0
  9
$PLIMMIN
 10
0
 20
0
  9
$PLIMMAX
 10
297
 20
210
  9
$UNITMODE
 70
    0
  9
$VISRETAIN
 70
    1
  9
$PLINEGEN
 70
    0
  9
$PSLTSCALE
 70
    1
  9
$TREEDEPTH
 70
 3020
  9
$CMLSTYLE
  2
Standard
  9
$CMLJUST
 70
    0
  9
$CMLSCALE
 40
20
  9
$PROXYGRAPHICS
 70
    1
  9
$MEASUREMENT
 70
    1
  9
$CELWEIGHT
370
   -1
  9
$ENDCAPS
280
    0
  9
$JOINSTYLE
280
    0
  9
$LWDISPLAY
290
    0
  9
$INSUNITS
 70
    4
  9
$HYPERLINKBASE
  1

  9
$STYLESHEET
  1

  9
$XEDIT
290
    1
  9
$CEPSNTYPE
380
    0
  9
$PSTYLEMODE
290
    1
  9
$EXTNAMES
290
    1
  9
$PSVPSCALE
 40
0.2553945718437701
  9
$OLESTARTUP
290
    0
  9
$SORTENTS
280
  127
  9
$INDEXCTL
280
    0
  9
$HIDETEXT
280
    1
  9
$XCLIPFRAME
290
    0
  9
$HALOGAP
280
    0
  9
$OBSCOLOR
 70
  257
  9
$OBSLTYPE
280
    0
  9
$INTERSECTIONDISPLAY
280
    0
  9
$INTERSECTIONCOLOR
 70
  257
  9
$DIMASSOC
280
    1
  9
$PROJECTNAME
  1

  9
$CAMERADISPLAY
290
    0
  9
$LENSLENGTH
 40
50
  9
$CAMERAHEIGHT
 40
0
  9
$STEPSPERSEC
 40
2
  9
$STEPSIZE
 40
50
  9
$3DDWFPREC
 40
2
  9
$PSOLWIDTH
 40
5
  9
$PSOLHEIGHT
 40
80
  9
$LOFTANG1
 40
1.570796326794897
  9
$LOFTANG2
 40
1.570796326794897
  9
$LOFTMAG1
 40
0
  9
$LOFTMAG2
 40
0
  9
$LOFTPARAM
 70
    7
  9
$LOFTNORMALS
280
    1
  9
$LATITUDE
 40
1
  9
$LONGITUDE
 40
1
  9
$NORTHDIRECTION
 40
0
  9
$TIMEZONE
 70
-8000
  9
$LIGHTGLYPHDISPLAY
280
    1
  9
$TILEMODELIGHTSYNCH
280
    1
  9
$SOLIDHIST
280
    1
  9
$SHOWHIST
280
    1
  9
$DWFFRAME
280
    2
  9
$DGNFRAME
280
    0
  9
$REALWORLDSCALE
290
    1
  9
$INTERFERECOLOR
 62
    1
  9
$CSHADOW
280
    0
  9
$SHADOWPLANELOCATION
 40
0
  0
ENDSEC
  0
SECTION
  2
CLASSES
  0
ENDSEC
  0
SECTION
  2
TABLES
  0
TABLE
  2
VPORT
  5
8
330
0
100
AcDbSymbolTable
 70
    1
  0
VPORT
  5
31
330
2
100
AcDbSymbolTableRecord
100
AcDbViewportTableRecord
  2
*ACTIVE
 70
    0
 10
0
 20
0
 11
1
 21
1
 12
563.0689907289865
 22
324.0791300122156
 13
0
 23
0
 14
10
 24
10
 15
10
 25
10
 16
0
 26
0
 36
1
 17
0
 27
0
 37
0
 40
739.1667828360809
 41
1.644644644644645
 42
50
 43
0
 44
0
 50
0
 51
0
 71
    0
 72
  100
 73
    1
 74
    3
 75
    0
 76
    1
 77
    0
 78
    0
281
    0
 65
    1
110
0
120
0
130
0
111
1
121
0
131
0
112
0
122
1
132
0
 79
    0
146
0
348
10020
 60
    7
 61
    5
292
1
282
    1
141
0
142
0
 63
  250
421
3358443
  0
ENDTAB
  0
TABLE
  2
LTYPE
  5
5
330
0
100
AcDbSymbolTable
 70
    4
  0
LTYPE
  5
14
330
5
100
AcDbSymbolTableRecord
100
AcDbLinetypeTableRecord
  2
ByBlock
 70
    0
  3

 72
   65
 73
    0
 40
0
  0
LTYPE
  5
15
330
5
100
AcDbSymbolTableRecord
100
AcDbLinetypeTableRecord
  2
ByLayer
 70
    0
  3

 72
   65
 73
    0
 40
0
  0
LTYPE
  5
16
330
5
100
AcDbSymbolTableRecord
100
AcDbLinetypeTableRecord
  2
Continuous
 70
    0
  3
Solid line
 72
   65
 73
    0
 40
0
  0
LTYPE
  5
32
330
5
100
AcDbSymbolTableRecord
100
AcDbLinetypeTableRecord
  2
DOT
 70
    0
  3
Dot . . . . . . . . . . . . . . . . . . . . . .
 72
   65
 73
    2
 40
6.35
 49
0
 74
    0
 49
-6.35
 74
    0
  0
LTYPE
  5
33
330
5
100
AcDbSymbolTableRecord
100
AcDbLinetypeTableRecord
  2
DOTTINY
 70
    0
  3
Dot (.15x) .....................................
 72
   65
 73
    2
 40
0.9525
 49
0
 74
    0
 49
-0.9525
 74
    0
  0
LTYPE
  5
34
330
5
100
AcDbSymbolTableRecord
100
AcDbLinetypeTableRecord
  2
DOT2
 70
    0
  3
Dot (.5x) .....................................
 72
   65
 73
    2
 40
3.175
 49
0
 74
    0
 49
-3.175
 74
    0
  0
LTYPE
  5
35
330
5
100
AcDbSymbolTableRecord
100
AcDbLinetypeTableRecord
  2
DOTX2
 70
    0
  3
Dot (2x) .  .  .  .  .  .  .  .  .  .  .  .  .
 72
   65
 73
    2
 40
12.7
 49
0
 74
    0
 49
-12.7
 74
    0
  0
LTYPE
  5
36
330
5
100
AcDbSymbolTableRecord
100
AcDbLinetypeTableRecord
  2
DASHED
 70
    0
  3
Dashed _ _ _ _ _ _ _ _ _ _ _ _ _ _ _ _ _
 72
   65
 73
    2
 40
19.05
 49
12.7
 74
    0
 49
-6.35
 74
    0
  0
LTYPE
  5
37
330
5
100
AcDbSymbolTableRecord
100
AcDbLinetypeTableRecord
  2
DASHEDTINY
 70
    0
  3
Dashed (.15x) _ _ _ _ _ _ _ _ _ _ _ _ _ _ _ _ _
 72
   65
 73
    2
 40
2.8575
 49
1.905
 74
    0
 49
-0.9525
 74
    0
  0
LTYPE
  5
38
330
5
100
AcDbSymbolTableRecord
100
AcDbLinetypeTableRecord
  2
DASHED2
 70
    0
  3
Dashed (.5x) _ _ _ _ _ _ _ _ _ _ _ _ _ _ _ _ _
 72
   65
 73
    2
 40
9.524999999999999
 49
6.35
 74
    0
 49
-3.175
 74
    0
  0
LTYPE
  5
39
330
5
100
AcDbSymbolTableRecord
100
AcDbLinetypeTableRecord
  2
DASHEDX2
 70
    0
  3
Dashed (2x) ____  ____  ____  ____  ____  ___
 72
   65
 73
    2
 40
38.09999999999999
 49
25.4
 74
    0
 49
-12.7
 74
    0
  0
LTYPE
  5
3A
330
5
100
AcDbSymbolTableRecord
100
AcDbLinetypeTableRecord
  2
DASHDOT
 70
    0
  3
Dash dot __ . __ . __ . __ . __ . __ . __ . __
 72
   65
 73
    4
 40
25.4
 49
12.7
 74
    0
 49
-6.35
 74
    0
 49
0
 74
    0
 49
-6.35
 74
    0
  0
LTYPE
  5
3B
330
5
100
AcDbSymbolTableRecord
100
AcDbLinetypeTableRecord
  2
DASHDOTTINY
 70
    0
  3
Dash dot (.15x) _._._._._._._._._._._._._._._.
 72
   65
 73
    4
 40
3.81
 49
1.905
 74
    0
 49
-0.9525
 74
    0
 49
0
 74
    0
 49
-0.9525
 74
    0
  0
LTYPE
  5
3C
330
5
100
AcDbSymbolTableRecord
100
AcDbLinetypeTableRecord
  2
DASHDOT2
 70
    0
  3
Dash dot (.5x) _._._._._._._._._._._._._._._.
 72
   65
 73
    4
 40
12.7
 49
6.35
 74
    0
 49
-3.175
 74
    0
 49
0
 74
    0
 49
-3.175
 74
    0
  0
LTYPE
  5
3D
330
5
100
AcDbSymbolTableRecord
100
AcDbLinetypeTableRecord
  2
DASHDOTX2
 70
    0
  3
Dash dot (2x) ____  .  ____  .  ____  .  ___
 72
   65
 73
    4
 40
50.8
 49
25.4
 74
    0
 49
-12.7
 74
    0
 49
0
 74
    0
 49
-12.7
 74
    0
  0
LTYPE
  5
3E
330
5
100
AcDbSymbolTableRecord
100
AcDbLinetypeTableRecord
  2
DIVIDE
 70
    0
  3
Divide ____ . . ____ . . ____ . . ____ . . ____
 72
   65
 73
    6
 40
31.75
 49
12.7
 74
    0
 49
-6.35
 74
    0
 49
0
 74
    0
 49
-6.35
 74
    0
 49
0
 74
    0
 49
-6.35
 74
    0
  0
LTYPE
  5
3F
330
5
100
AcDbSymbolTableRecord
100
AcDbLinetypeTableRecord
  2
DIVIDETINY
 70
    0
  3
Divide (.15x) __..__..__..__..__..__..__..__.._
 72
   65
 73
    6
 40
4.7625
 49
1.905
 74
    0
 49
-0.9525
 74
    0
 49
0
 74
    0
 49
-0.9525
 74
    0
 49
0
 74
    0
 49
-0.9525
 74
    0
  0
LTYPE
  5
40
330
5
100
AcDbSymbolTableRecord
100
AcDbLinetypeTableRecord
  2
DIVIDE2
 70
    0
  3
Divide (.5x) __..__..__..__..__..__..__..__.._
 72
   65
 73
    6
 40
15.875
 49
6.35
 74
    0
 49
-3.175
 74
    0
 49
0
 74
    0
 49
-3.175
 74
    0
 49
0
 74
    0
 49
-3.175
 74
    0
  0
LTYPE
  5
41
330
5
100
AcDbSymbolTableRecord
100
AcDbLinetypeTableRecord
  2
DIVIDEX2
 70
    0
  3
Divide (2x) ________  .  .  ________  .  .  _
 72
   65
 73
    6
 40
63.5
 49
25.4
 74
    0
 49
-12.7
 74
    0
 49
0
 74
    0
 49
-12.7
 74
    0
 49
0
 74
    0
 49
-12.7
 74
    0
  0
LTYPE
  5
42
330
5
100
AcDbSymbolTableRecord
100
AcDbLinetypeTableRecord
  2
BORDER
 70
    0
  3
Border __ __ . __ __ . __ __ . __ __ . __ __ .
 72
   65
 73
    6
 40
44.45
 49
12.7
 74
    0
 49
-6.35
 74
    0
 49
12.7
 74
    0
 49
-6.35
 74
    0
 49
0
 74
    0
 49
-6.35
 74
    0
  0
LTYPE
  5
43
330
5
100
AcDbSymbolTableRecord
100
AcDbLinetypeTableRecord
  2
BORDERTINY
 70
    0
  3
Border (.15x) __.__.__.__.__.__.__.__.__.__.__.
 72
   65
 73
    6
 40
6.6675
 49
1.905
 74
    0
 49
-0.9525
 74
    0
 49
1.905
 74
    0
 49
-0.9525
 74
    0
 49
0
 74
    0
 49
-0.9525
 74
    0
  0
LTYPE
  5
44
330
5
100
AcDbSymbolTableRecord
100
AcDbLinetypeTableRecord
  2
BORDER2
 70
    0
  3
Border (.5x) __.__.__.__.__.__.__.__.__.__.__.
 72
   65
 73
    6
 40
22.225
 49
6.35
 74
    0
 49
-3.175
 74
    0
 49
6.35
 74
    0
 49
-3.175
 74
    0
 49
0
 74
    0
 49
-3.175
 74
    0
  0
LTYPE
  5
45
330
5
100
AcDbSymbolTableRecord
100
AcDbLinetypeTableRecord
  2
BORDERX2
 70
    0
  3
Border (2x) ____  ____  .  ____  ____  .  ___
 72
   65
 73
    6
 40
88.89999999999999
 49
25.4
 74
    0
 49
-12.7
 74
    0
 49
25.4
 74
    0
 49
-12.7
 74
    0
 49
0
 74
    0
 49
-12.7
 74
    0
  0
LTYPE
  5
46
330
5
100
AcDbSymbolTableRecord
100
AcDbLinetypeTableRecord
  2
CENTER
 70
    0
  3
Center ____ _ ____ _ ____ _ ____ _ ____ _ ____
 72
   65
 73
    4
 40
50.8
 49
31.75
 74
    0
 49
-6.35
 74
    0
 49
6.35
 74
    0
 49
-6.35
 74
    0
  0
LTYPE
  5
47
330
5
100
AcDbSymbolTableRecord
100
AcDbLinetypeTableRecord
  2
CENTERTINY
 70
    0
  3
Center (.15x) ___ _ ___ _ ___ _ ___ _ ___ _ ___
 72
   65
 73
    4
 40
7.62
 49
4.7625
 74
    0
 49
-0.9525
 74
    0
 49
0.9525
 74
    0
 49
-0.9525
 74
    0
  0
LTYPE
  5
48
330
5
100
AcDbSymbolTableRecord
100
AcDbLinetypeTableRecord
  2
CENTER2
 70
    0
  3
Center (.5x) ___ _ ___ _ ___ _ ___ _ ___ _ ___
 72
   65
 73
    4
 40
28.575
 49
19.05
 74
    0
 49
-3.175
 74
    0
 49
3.175
 74
    0
 49
-3.175
 74
    0
  0
LTYPE
  5
49
330
5
100
AcDbSymbolTableRecord
100
AcDbLinetypeTableRecord
  2
CENTERX2
 70
    0
  3
Center (2x) ________  __  ________  __  _____
 72
   65
 73
    4
 40
101.6
 49
63.5
 74
    0
 49
-12.7
 74
    0
 49
12.7
 74
    0
 49
-12.7
 74
    0
  0
ENDTAB
  0
TABLE
  2
LAYER
  5
2
330
0
100
AcDbSymbolTable
 70
    1
  0
LAYER
  5
10
330
2
100
AcDbSymbolTableRecord
100
AcDbLayerTableRecord
  2
0
 70
    0
 62
    6
  6
CONTINUOUS
370
   35
390
F
  0
LAYER
  5
4A
330
2
100
AcDbSymbolTableRecord
100
AcDbLayerTableRecord
  2
tekst
 70
    0
 62
    8
  6
CONTINUOUS
370
   35
390
F
  0
ENDTAB
  0
TABLE
  2
STYLE
  5
3
330
0
100
AcDbSymbolTable
 70
    3
  0
STYLE
  5
4B
330
2
100
AcDbSymbolTableRecord
100
AcDbTextStyleTableRecord
  2
standard
 70
    0
 40
0
 41
1
 50
0
 71
    0
 42
1
  3
standard
  4

  0
ENDTAB
  0
TABLE
  2
VIEW
  5
6
330
0
100
AcDbSymbolTable
 70
    0
  0
ENDTAB
  0
TABLE
  2
UCS
  5
7
330
0
100
AcDbSymbolTable
 70
    0
  0
ENDTAB
  0
TABLE
  2
APPID
  5
9
330
0
100
AcDbSymbolTable
 70
    1
  0
APPID
  5
12
330
9
100
AcDbSymbolTableRecord
100
AcDbRegAppTableRecord
  2
ACAD
 70
    0
  0
APPID
  5
4C
330
9
100
AcDbSymbolTableRecord
100
AcDbRegAppTableRecord
  2
LibreCad
 70
    0
  0
ENDTAB
  0
TABLE
  2
DIMSTYLE
  5
A
330
0
100
AcDbSymbolTable
 70
    1
100
AcDbDimStyleTable
 71
    1
  0
DIMSTYLE
105
4D
330
A
100
AcDbSymbolTableRecord
100
AcDbDimStyleTableRecord
  2
Standard
 70
    0
 40
1
 41
2.5
 42
0.625
 43
0.38
 44
1.25
 45
0
 46
0
 47
0
 48
0
 49
1
140
2.5
141
0.09
142
0
143
25.4
144
1
145
0
146
1
147
0.625
148
0
 71
    0
 72
    0
 73
    0
 74
    1
 75
    0
 76
    0
 77
    0
 78
    8
 79
    0
170
    0
171
    2
172
    0
173
    0
174
    0
175
    0
176
    0
177
    0
178
    0
179
    0
271
    2
272
    4
273
    2
274
    2
275
    0
276
    0
277
    2
278
   44
279
    0
280
    0
281
    0
282
    0
283
    1
284
    0
285
    0
286
    0
288
    0
289
    3
340
STANDARD
341

371
   -2
372
   -2
  0
ENDTAB
  0
TABLE
  2
BLOCK_RECORD
  5
1
330
0
100
AcDbSymbolTable
 70
    2
  0
BLOCK_RECORD
  5
1F
330
1
100
AcDbSymbolTableRecord
100
AcDbBlockTableRecord
  2
*Model_Space
 70
    0
280
    1
281
    0
  0
BLOCK_RECORD
  5
1E
330
1
100
AcDbSymbolTableRecord
100
AcDbBlockTableRecord
  2
*Paper_Space
 70
    0
280
    1
281
    0
  0
BLOCK_RECORD
  5
4E
330
1
100
AcDbSymbolTableRecord
100
AcDbBlockTableRecord
  2
sk 1p
 70
    0
280
    1
281
    0
  0
BLOCK_RECORD
  5
51
330
1
100
AcDbSymbolTableRecord
100
AcDbBlockTableRecord
  2
noodlicht-0
 70
    0
280
    1
281
    0
  0
BLOCK_RECORD
  5
54
330
1
100
AcDbSymbolTableRecord
100
AcDbBlockTableRecord
  2
TL 1-0
 70
    0
280
    1
281
    0
  0
BLOCK_RECORD
  5
57
330
1
100
AcDbSymbolTableRecord
100
AcDbBlockTableRecord
  2
TL 2-0
 70
    0
280
    1
281
    0
  0
BLOCK_RECORD
  5
5A
330
1
100
AcDbSymbolTableRecord
100
AcDbBlockTableRecord
  2
stopk enkel
 70
    0
280
    1
281
    0
  0
BLOCK_RECORD
  5
5D
330
1
100
AcDbSymbolTableRecord
100
AcDbBlockTableRecord
  2
stopk 2-voud
 70
    0
280
    1
281
    0
  0
BLOCK_RECORD
  5
60
330
1
100
AcDbSymbolTableRecord
100
AcDbBlockTableRecord
  2
kader
 70
    0
280
    1
281
    0
  0
BLOCK_RECORD
  5
63
330
1
100
AcDbSymbolTableRecord
100
AcDbBlockTableRecord
  2
sk 2p om
 70
    0
280
    1
281
    0
  0
BLOCK_RECORD
  5
66
330
1
100
AcDbSymbolTableRecord
100
AcDbBlockTableRecord
  2
lamp-1
 70
    0
280
    1
281
    0
  0
BLOCK_RECORD
  5
69
330
1
100
AcDbSymbolTableRecord
100
AcDbBlockTableRecord
  2
sk 2p
 70
    0
280
    1
281
    0
  0
BLOCK_RECORD
  5
6C
330
1
100
AcDbSymbolTableRecord
100
AcDbBlockTableRecord
  2
sk 1p om
 70
    0
280
    1
281
    0
  0
BLOCK_RECORD
  5
6F
330
1
100
AcDbSymbolTableRecord
100
AcDbBlockTableRecord
  2
doosje
 70
    0
280
    1
281
    0
  0
ENDTAB
  0
ENDSEC
  0
SECTION
  2
BLOCKS
  0
BLOCK
  5
20
330
1F
100
AcDbEntity
  8
0
100
AcDbBlockBegin
  2
*Model_Space
 70
    0
 10
0
 20
0
 30
0
  3
*Model_Space
  1

  0
ENDBLK
  5
21
330
1F
100
AcDbEntity
  8
0
100
AcDbBlockEnd
  0
BLOCK
  5
1C
330
1B
100
AcDbEntity
  8
0
100
AcDbBlockBegin
  2
*Paper_Space
 70
    0
 10
0
 20
0
 30
0
  3
*Paper_Space
  1

  0
ENDBLK
  5
1D
330
1F
100
AcDbEntity
  8
0
100
AcDbBlockEnd
  0
BLOCK
  5
4F
330
4E
100
AcDbEntity
  8
0
100
AcDbBlockBegin
  2
sk 1p
 70
    0
 10
0
 20
0
  3
sk 1p
  1

  0
CIRCLE
  5
72
100
AcDbEntity
  8
0
  6
ByLayer
 62
  256
370
   -1
100
AcDbCircle
 10
0
 20
0
 40
70.7106781187
  0
LINE
  5
73
100
AcDbEntity
  8
0
  6
ByLayer
 62
  256
370
   -1
100
AcDbLine
 10
150
 20
150
 11
50
 21
50
  0
LINE
  5
74
100
AcDbEntity
  8
0
  6
ByLayer
 62
  256
370
   -1
100
AcDbLine
 10
150
 20
150
 11
200
 21
100
  0
ENDBLK
  5
50
330
4E
100
AcDbEntity
  8
0
100
AcDbBlockEnd
  0
BLOCK
  5
52
330
51
100
AcDbEntity
  8
0
100
AcDbBlockBegin
  2
noodlicht-0
 70
    0
 10
0
 20
0
  3
noodlicht-0
  1

  0
HATCH
  5
75
100
AcDbEntity
  8
0
  6
ByLayer
 62
  256
370
   -1
100
AcDbHatch
 10
0
 20
0
 30
0
210
0
220
0
230
1
  2
SOLID
 70
    1
 71
    0
 91
    1
 92
    0
 93
    1
 72
    2
 10
0.0473933649287
 20
-0.0236966824647
 40
10
 50
0
 51
360
 73
    1
 97
    0
 75
    0
 76
    1
 98
    0
  0
LINE
  5
76
100
AcDbEntity
  8
0
  6
ByLayer
 62
  256
370
   -1
100
AcDbLine
 10
-29.9526066351
 20
29.9763033175
 11
30.0473933649
 21
29.9763033175
  0
LINE
  5
77
100
AcDbEntity
  8
0
  6
ByLayer
 62
  256
370
   -1
100
AcDbLine
 10
30.0473933649
 20
29.9763033175
 11
30.0473933649
 21
-30.0236966825
  0
LINE
  5
78
100
AcDbEntity
  8
0
  6
ByLayer
 62
  256
370
   -1
100
AcDbLine
 10
30.0473933649
 20
-30.0236966825
 11
-29.9526066351
 21
-30.0236966825
  0
LINE
  5
79
100
AcDbEntity
  8
0
  6
ByLayer
 62
  256
370
   -1
100
AcDbLine
 10
-29.9526066351
 20
-30.0236966825
 11
-29.9526066351
 21
29.9763033175
  0
CIRCLE
  5
7A
100
AcDbEntity
  8
0
  6
ByLayer
 62
  256
370
   -1
100
AcDbCircle
 10
0.0473933649287
 20
-0.0236966824647
 40
10
  0
LINE
  5
7B
100
AcDbEntity
  8
0
  6
ByLayer
 62
  256
370
   -1
100
AcDbLine
 10
-19.9526066351
 20
-20.0236966825
 11
20.0473933649
 21
19.9763033175
  0
LINE
  5
7C
100
AcDbEntity
  8
0
  6
ByLayer
 62
  256
370
   -1
100
AcDbLine
 10
-19.9526066351
 20
19.9763033175
 11
20.0473933649
 21
-20.0236966825
  0
ENDBLK
  5
53
330
51
100
AcDbEntity
  8
0
100
AcDbBlockEnd
  0
BLOCK
  5
55
330
54
100
AcDbEntity
  8
0
100
AcDbBlockBegin
  2
TL 1-0
 70
    0
 10
0
 20
0
  3
TL 1-0
  1

  0
LINE
  5
7D
100
AcDbEntity
  8
0
  6
ByLayer
 62
  256
370
   -1
100
AcDbLine
 10
-40
 20
0
 11
40
 21
0
  0
LINE
  5
7E
100
AcDbEntity
  8
0
  6
ByLayer
 62
  256
370
   -1
100
AcDbLine
 10
-40
 20
10
 11
-40
 21
-10
  0
LINE
  5
7F
100
AcDbEntity
  8
0
  6
ByLayer
 62
  256
370
   -1
100
AcDbLine
 10
40
 20
10
 11
40
 21
-10
  0
ENDBLK
  5
56
330
54
100
AcDbEntity
  8
0
100
AcDbBlockEnd
  0
BLOCK
  5
58
330
57
100
AcDbEntity
  8
0
100
AcDbBlockBegin
  2
TL 2-0
 70
    0
 10
0
 20
0
  3
TL 2-0
  1

  0
LINE
  5
80
100
AcDbEntity
  8
0
  6
ByLayer
 62
  256
370
   -1
100
AcDbLine
 10
-40
 20
-10
 11
40
 21
-10
  0
LINE
  5
81
100
AcDbEntity
  8
0
  6
ByLayer
 62
  256
370
   -1
100
AcDbLine
 10
-40
 20
0
 11
-40
 21
-20
  0
LINE
  5
82
100
AcDbEntity
  8
0
  6
ByLayer
 62
  256
370
   -1
100
AcDbLine
 10
40
 20
0
 11
40
 21
-20
  0
LINE
  5
83
100
AcDbEntity
  8
0
  6
ByLayer
 62
  256
370
   -1
100
AcDbLine
 10
-40
 20
0
 11
-40
 21
20
  0
LINE
  5
84
100
AcDbEntity
  8
0
  6
ByLayer
 62
  256
370
   -1
100
AcDbLine
 10
40
 20
0
 11
40
 21
20
  0
LINE
  5
85
100
AcDbEntity
  8
0
  6
ByLayer
 62
  256
370
   -1
100
AcDbLine
 10
-40
 20
10
 11
40
 21
10
  0
ENDBLK
  5
59
330
57
100
AcDbEntity
  8
0
100
AcDbBlockEnd
  0
BLOCK
  5
5B
330
5A
100
AcDbEntity
  8
0
100
AcDbBlockBegin
  2
stopk enkel
 70
    0
 10
0
 20
0
  3
stopk enkel
  1

  0
ARC
  5
86
100
AcDbEntity
  8
0
  6
ByLayer
 62
  256
370
   -1
100
AcDbCircle
 10
0
 20
-40
 40
20
100
AcDbArc
 50
0
 51
180
  0
LINE
  5
87
100
AcDbEntity
  8
0
  6
ByLayer
 62
  256
370
   -1
100
AcDbLine
 10
-30
 20
-40
 11
-20
 21
-40
  0
LINE
  5
88
100
AcDbEntity
  8
0
  6
ByLayer
 62
  256
370
   -1
100
AcDbLine
 10
20
 20
-40
 11
30
 21
-40
  0
LINE
  5
89
100
AcDbEntity
  8
0
  6
ByLayer
 62
  256
370
   -1
100
AcDbLine
 10
0
 20
-20
 11
0
 21
0
  0
LINE
  5
8A
100
AcDbEntity
  8
0
  6
ByLayer
 62
  256
370
   -1
100
AcDbLine
 10
0
 20
0
 11
-40
 21
0
  0
LINE
  5
8B
100
AcDbEntity
  8
0
  6
ByLayer
 62
  256
370
   -1
100
AcDbLine
 10
-30
 20
-20
 11
30
 21
-20
  0
MTEXT
  5
8C
100
AcDbEntity
  8
0
  6
ByLayer
 62
  256
370
   70
100
AcDbMText
 10
10
 20
0
 30
0
 40
10
 41
4.44444444444491
 71
    1
 72
    5
  1
h
  7
standard
210
0
220
0
230
1
 50
0
 73
    2
 44
0.884736
  0
ENDBLK
  5
5C
330
5A
100
AcDbEntity
  8
0
100
AcDbBlockEnd
  0
BLOCK
  5
5E
330
5D
100
AcDbEntity
  8
0
100
AcDbBlockBegin
  2
stopk 2-voud
 70
    0
 10
0
 20
0
  3
stopk 2-voud
  1

  0
ARC
  5
8D
100
AcDbEntity
  8
0
  6
ByLayer
 62
  256
370
   -1
100
AcDbCircle
 10
0
 20
-40
 40
20
100
AcDbArc
 50
0
 51
180
  0
LINE
  5
8E
100
AcDbEntity
  8
0
  6
ByLayer
 62
  256
370
   -1
100
AcDbLine
 10
-30
 20
-40
 11
-20
 21
-40
  0
LINE
  5
8F
100
AcDbEntity
  8
0
  6
ByLayer
 62
  256
370
   -1
100
AcDbLine
 10
0
 20
-20
 11
0
 21
0
  0
LINE
  5
90
100
AcDbEntity
  8
0
  6
ByLayer
 62
  256
370
   -1
100
AcDbLine
 10
0
 20
0
 11
-40
 21
0
  0
LINE
  5
91
100
AcDbEntity
  8
0
  6
ByLayer
 62
  256
370
   -1
100
AcDbLine
 10
-30
 20
-20
 11
30
 21
-20
  0
MTEXT
  5
92
100
AcDbEntity
  8
0
  6
ByLayer
 62
  256
370
   70
100
AcDbMText
 10
10
 20
0
 30
0
 40
10
 41
4.44444444444491
 71
    1
 72
    5
  1
h
  7
standard
210
0
220
0
230
1
 50
0
 73
    2
 44
0.884736
  0
ARC
  5
93
100
AcDbEntity
  8
0
  6
ByLayer
 62
  256
370
   -1
100
AcDbCircle
 10
0
 20
-80
 40
20
100
AcDbArc
 50
0
 51
180
  0
LINE
  5
94
100
AcDbEntity
  8
0
  6
ByLayer
 62
  256
370
   -1
100
AcDbLine
 10
-30
 20
-80
 11
-20
 21
-80
  0
LINE
  5
95
100
AcDbEntity
  8
0
  6
ByLayer
 62
  256
370
   -1
100
AcDbLine
 10
20
 20
-80
 11
30
 21
-80
  0
LINE
  5
96
100
AcDbEntity
  8
0
  6
ByLayer
 62
  256
370
   -1
100
AcDbLine
 10
-30
 20
-60
 11
30
 21
-60
  0
LINE
  5
97
100
AcDbEntity
  8
0
  6
ByLayer
 62
  256
370
   -1
100
AcDbLine
 10
0
 20
-60
 11
0
 21
-20
  0
MTEXT
  5
98
100
AcDbEntity
  8
0
  6
ByLayer
 62
  256
370
   70
100
AcDbMText
 10
10
 20
-40
 30
0
 40
10
 41
4.44444444444491
 71
    1
 72
    5
  1
h
  7
standard
210
0
220
0
230
1
 50
0
 73
    2
 44
0.884736
  0
ENDBLK
  5
5F
330
5D
100
AcDbEntity
  8
0
100
AcDbBlockEnd
  0
BLOCK
  5
61
330
60
100
AcDbEntity
  8
0
100
AcDbBlockBegin
  2
kader
 70
    0
 10
0
 20
0
  3
kader
  1

  0
MTEXT
  5
99
100
AcDbEntity
  8
0
  6
ByLayer
 62
  256
370
   -1
100
AcDbMText
 10
-150
 20
59.99999783609254
 30
0
 40
25
 41
233.3333537476418
 71
    9
 72
    5
  1
Situatieschets
  7
standard
210
0
220
0
230
1
 50
0
 73
    2
 44
0.884736
  0
LINE
  5
9A
100
AcDbEntity
  8
0
  6
ByLayer
 62
  256
370
   -1
100
AcDbLine
 10
0
 20
0
 11
0
 21
100
  0
LINE
  5
9B
100
AcDbEntity
  8
0
  6
ByLayer
 62
  256
370
   -1
100
AcDbLine
 10
0
 20
100
 11
-420
 21
100
  0
LINE
  5
9C
100
AcDbEntity
  8
0
  6
ByLayer
 62
  256
370
   -1
100
AcDbLine
 10
-420
 20
100
 11
-420
 21
0
  0
LINE
  5
9D
100
AcDbEntity
  8
0
  6
ByLayer
 62
  256
370
   -1
100
AcDbLine
 10
-420
 20
0
 11
0
 21
0
  0
MTEXT
  5
9E
100
AcDbEntity
  8
0
  6
ByLayer
 62
  256
370
   -1
100
AcDbMText
 10
-120
 20
80
 30
0
 40
20
 41
66.11111111111235
 71
    1
 72
    5
  1
Blz 3
  7
standard
210
0
220
0
230
1
 50
0
 73
    2
 44
0.884736
  0
MTEXT
  5
9F
100
AcDbEntity
  8
0
  6
ByLayer
 62
  256
370
   -1
100
AcDbMText
 10
-160
 20
30
 30
0
 40
15
 41
105.000000000001
 71
    1
 72
    5
  1
2012-01-03
  7
standard
210
0
220
0
230
1
 50
0
 73
    2
 44
0.884736
  0
ENDBLK
  5
62
330
60
100
AcDbEntity
  8
0
100
AcDbBlockEnd
  0
BLOCK
  5
64
330
63
100
AcDbEntity
  8
0
100
AcDbBlockBegin
  2
sk 2p om
 70
    0
 10
0
 20
0
  3
sk 2p om
  1

  0
CIRCLE
  5
A0
100
AcDbEntity
  8
0
  6
ByLayer
 62
  256
370
   -1
100
AcDbCircle
 10
0
 20
0
 40
70.7106781187
  0
LINE
  5
A1
100
AcDbEntity
  8
0
  6
ByLayer
 62
  256
370
   -1
100
AcDbLine
 10
-150
 20
-150
 11
-50
 21
-50
  0
LINE
  5
A2
100
AcDbEntity
  8
0
  6
ByLayer
 62
  256
370
   -1
100
AcDbLine
 10
-150
 20
-150
 11
-200
 21
-100
  0
LINE
  5
A3
100
AcDbEntity
  8
0
  6
ByLayer
 62
  256
370
   -1
100
AcDbLine
 10
150
 20
150
 11
50
 21
50
  0
LINE
  5
A4
100
AcDbEntity
  8
0
  6
ByLayer
 62
  256
370
   -1
100
AcDbLine
 10
150
 20
150
 11
200
 21
100
  0
LINE
  5
A5
100
AcDbEntity
  8
0
  6
ByLayer
 62
  256
370
   -1
100
AcDbLine
 10
120
 20
120
 11
160
 21
80
  0
LINE
  5
A6
100
AcDbEntity
  8
0
  6
ByLayer
 62
  256
370
   -1
100
AcDbLine
 10
-120
 20
-120
 11
-160
 21
-80
  0
ENDBLK
  5
65
330
63
100
AcDbEntity
  8
0
100
AcDbBlockEnd
  0
BLOCK
  5
67
330
66
100
AcDbEntity
  8
0
100
AcDbBlockBegin
  2
lamp-1
 70
    0
 10
0
 20
0
  3
lamp-1
  1

  0
LINE
  5
A7
100
AcDbEntity
  8
0
  6
ByLayer
 62
  256
370
   -1
100
AcDbLine
 10
-20.0925651659
 20
20.151806872
 11
19.9074348341
 21
-19.848193128
  0
LINE
  5
A8
100
AcDbEntity
  8
0
  6
ByLayer
 62
  256
370
   -1
100
AcDbLine
 10
-20.0925651659
 20
-19.848193128
 11
19.9074348341
 21
20.151806872
  0
ENDBLK
  5
68
330
66
100
AcDbEntity
  8
0
100
AcDbBlockEnd
  0
BLOCK
  5
6A
330
69
100
AcDbEntity
  8
0
100
AcDbBlockBegin
  2
sk 2p
 70
    0
 10
0
 20
0
  3
sk 2p
  1

  0
CIRCLE
  5
A9
100
AcDbEntity
  8
0
  6
ByLayer
 62
  256
370
   -1
100
AcDbCircle
 10
0
 20
0
 40
7.07106781187
  0
LINE
  5
AA
100
AcDbEntity
  8
0
  6
ByLayer
 62
  256
370
   -1
100
AcDbLine
 10
15
 20
15
 11
5
 21
5
  0
LINE
  5
AB
100
AcDbEntity
  8
0
  6
ByLayer
 62
  256
370
   -1
100
AcDbLine
 10
15
 20
15
 11
20
 21
10
  0
LINE
  5
AC
100
AcDbEntity
  8
0
  6
ByLayer
 62
  256
370
   -1
100
AcDbLine
 10
12
 20
12
 11
16
 21
8
  0
ENDBLK
  5
6B
330
69
100
AcDbEntity
  8
0
100
AcDbBlockEnd
  0
BLOCK
  5
6D
330
6C
100
AcDbEntity
  8
0
100
AcDbBlockBegin
  2
sk 1p om
 70
    0
 10
0
 20
0
  3
sk 1p om
  1

  0
CIRCLE
  5
AD
100
AcDbEntity
  8
0
  6
ByLayer
 62
  256
370
   -1
100
AcDbCircle
 10
0
 20
0
 40
7.07106781187
  0
LINE
  5
AE
100
AcDbEntity
  8
0
  6
ByLayer
 62
  256
370
   -1
100
AcDbLine
 10
-15
 20
-15
 11
-5
 21
-5
  0
LINE
  5
AF
100
AcDbEntity
  8
0
  6
ByLayer
 62
  256
370
   -1
100
AcDbLine
 10
-15
 20
-15
 11
-20
 21
-10
  0
LINE
  5
B0
100
AcDbEntity
  8
0
  6
ByLayer
 62
  256
370
   -1
100
AcDbLine
 10
15
 20
15
 11
5
 21
5
  0
LINE
  5
B1
100
AcDbEntity
  8
0
  6
ByLayer
 62
  256
370
   -1
100
AcDbLine
 10
15
 20
15
 11
20
 21
10
  0
ENDBLK
  5
6E
330
6C
100
AcDbEntity
  8
0
100
AcDbBlockEnd
  0
BLOCK
  5
70
330
6F
100
AcDbEntity
  8
0
100
AcDbBlockBegin
  2
doosje
 70
    0
 10
0
 20
0
  3
doosje
  1

  0
HATCH
  5
B2
100
AcDbEntity
  8
0
  6
ByLayer
 62
  256
370
   -1
100
AcDbHatch
 10
0
 20
0
 30
0
210
0
220
0
230
1
  2
SOLID
 70
    1
 71
    0
 91
    1
 92
    0
 93
    1
 72
    2
 10
0
 20
0
 40
5.38516480713
 50
0
 51
360
 73
    1
 97
    0
 75
    0
 76
    1
 98
    0
  0
CIRCLE
  5
B3
100
AcDbEntity
  8
0
  6
ByLayer
 62
  256
370
   -1
100
AcDbCircle
 10
0
 20
0
 40
5.38516480713
  0
CIRCLE
  5
B4
100
AcDbEntity
  8
0
  6
ByLayer
 62
  256
370
   -1
100
AcDbCircle
 10
0
 20
0
 40
14
  0
ENDBLK
  5
71
330
6F
100
AcDbEntity
  8
0
100
AcDbBlockEnd
  0
ENDSEC
  0
SECTION
  2
ENTITIES
  0
INSERT
  5
B5
100
AcDbEntity
  8
0
  6
ByLayer
 62
  256
370
   -1
100
AcDbBlockReference
  2
noodlicht-0
 10
750
 20
340
 30
0
 41
0.5
 42
0.5
 43
0
 50
0
 70
    1
 71
    1
 44
1
 45
1
  0
INSERT
  5
B6
100
AcDbEntity
  8
0
  6
ByLayer
 62
  256
370
   -1
100
AcDbBlockReference
  2
lamp-1
 10
750
 20
560
 30
0
 41
0.7
 42
0.7
 43
0
 50
0
 70
    1
 71
    1
 44
1
 45
1
  0
INSERT
  5
B7
100
AcDbEntity
  8
0
  6
ByLayer
 62
  256
370
   -1
100
AcDbBlockReference
  2
sk 1p
 10
670
 20
280
 30
0
 41
0.1
 42
0.1
 43
0
 50
0
 70
    1
 71
    1
 44
1
 45
1
  0
INSERT
  5
B8
100
AcDbEntity
  8
0
  6
ByLayer
 62
  256
370
   -1
100
AcDbBlockReference
  2
sk 1p
 10
820
 20
280
 30
0
 41
0.1
 42
0.1
 43
0
 50
0
 70
    1
 71
    1
 44
1
 45
1
  0
ARC
  5
B9
100
AcDbEntity
  8
0
  6
ByLayer
 62
  256
370
   -1
100
AcDbCircle
 10
660
 20
380
 40
10
100
AcDbArc
 50
270
 51
90
  0
LINE
  5
BA
100
AcDbEntity
  8
0
  6
ByLayer
 62
  256
370
   -1
100
AcDbLine
 10
660
 20
395
 11
660
 21
390
  0
LINE
  5
BB
100
AcDbEntity
  8
0
  6
ByLayer
 62
  256
370
   -1
100
AcDbLine
 10
660
 20
370
 11
660
 21
365
  0
LINE
  5
BC
100
AcDbEntity
  8
0
  6
ByLayer
 62
  256
370
   -1
100
AcDbLine
 10
670
 20
380
 11
680
 21
380
  0
LINE
  5
BD
100
AcDbEntity
  8
0
  6
ByLayer
 62
  256
370
   -1
100
AcDbLine
 10
680
 20
380
 11
680
 21
400
  0
LINE
  5
BE
100
AcDbEntity
  8
0
  6
ByLayer
 62
  256
370
   -1
100
AcDbLine
 10
670
 20
395
 11
670
 21
365
  0
INSERT
  5
BF
100
AcDbEntity
  8
0
  6
ByLayer
 62
  256
370
   -1
100
AcDbBlockReference
  2
noodlicht-0
 10
78.79364047427259
 20
341.5905363969804
 30
0
 41
0.5
 42
0.5
 43
0
 50
0
 70
    1
 71
    1
 44
1
 45
1
  0
INSERT
  5
C0
100
AcDbEntity
  8
0
  6
ByLayer
 62
  256
370
   -1
100
AcDbBlockReference
  2
lamp-1
 10
750.064795616
 20
59.8937351896
 30
0
 41
0.7
 42
0.7
 43
0
 50
0
 70
    1
 71
    1
 44
1
 45
1
  0
LINE
  5
C1
100
AcDbEntity
  8
tekst
  6
ByLayer
 62
    1
370
   50
100
AcDbLine
 10
698.3543416544543
 20
50.93878727361902
 11
700.8191216838229
 21
50.93878727361902
  0
LINE
  5
C2
100
AcDbEntity
  8
0
  6
ByLayer
 62
    7
370
   50
100
AcDbLine
 10
38.51218795888533
 20
280.0156999510621
 11
38.51218795888533
 21
0
  0
LINE
  5
C3
100
AcDbEntity
  8
0
  6
ByLayer
 62
    7
370
   50
100
AcDbLine
 10
797.5232256485839
 20
83.44307391091823
 11
797.5232256485839
 21
296.062444933931
  0
LINE
  5
C4
100
AcDbEntity
  8
0
  6
ByLayer
 62
    7
370
   50
100
AcDbLine
 10
797.5232256485839
 20
367.4704601076976
 11
797.5232256485839
 21
581.6945056289973
  0
LINE
  5
C5
100
AcDbEntity
  8
0
  6
ByLayer
 62
    7
370
   50
100
AcDbLine
 10
797.5232256485839
 20
581.6945056289973
 11
952.3743147332686
 21
581.6945056289973
  0
LINE
  5
C6
100
AcDbEntity
  8
0
  6
ByLayer
 62
    7
370
   50
100
AcDbLine
 10
925.897185511535
 20
581.6945056289973
 11
925.897185511535
 21
594.5319016152923
  0
LINE
  5
C7
100
AcDbEntity
  8
0
  6
ByLayer
 62
    7
370
   50
100
AcDbLine
 10
38.51218795888533
 20
582.4968428781407
 11
696.4287322565099
 21
582.4968428781407
  0
LINE
  5
C8
100
AcDbEntity
  8
0
  6
ByLayer
 62
    7
370
   50
100
AcDbLine
 10
696.4287322565099
 20
582.4968428781407
 11
696.4287322565099
 21
362.6564366128369
  0
LINE
  5
C9
100
AcDbEntity
  8
0
  6
ByLayer
 62
    7
370
   50
100
AcDbLine
 10
696.4287322565099
 20
296.8647821830745
 11
696.4287322565099
 21
83.44307391091823
  0
LINE
  5
CA
100
AcDbEntity
  8
0
  6
ByLayer
 62
    7
370
   50
100
AcDbLine
 10
696.4287322565099
 20
83.44307391091823
 11
696.4287322565099
 21
71.88941752325265
  0
LINE
  5
CB
100
AcDbEntity
  8
0
  6
ByLayer
 62
    9
370
   50
100
AcDbLine
 10
696.4287322565099
 20
50.93878727361902
 11
696.4287322565099
 21
71.88941752325265
  0
LINE
  5
CC
100
AcDbEntity
  8
0
  6
ByLayer
 62
    9
370
   50
100
AcDbLine
 10
696.4287322565099
 20
29.57736035242394
 11
696.4287322565099
 21
50.93878727361902
  0
MTEXT
  5
CD
100
AcDbEntity
  8
0
  6
ByLayer
 62
    7
370
   50
100
AcDbMText
 10
872.4617950726628
 20
488.5464110785114
 30
0
 40
20
 41
42.22222222222221
 71
    2
 72
    5
  1
1.02
  7
standard
210
0
220
0
230
1
 50
0
 73
    2
 44
0.96
  0
MTEXT
  5
CE
100
AcDbEntity
  8
0
  6
ByLayer
 62
    5
370
   50
100
AcDbMText
 10
840.645374449
 20
506.724669604
 30
0
 40
10
 41
78.88889403176226
 71
    4
 72
    5
  1
Lavabo's_L
  7
standard
210
0
220
0
230
1
 50
0
 73
    1
 44
0.9216
  0
LINE
  5
CF
100
AcDbEntity
  8
0
  6
ByLayer
 62
    7
370
   70
100
AcDbLine
 10
576.678414097
 20
25.8964757709
 11
946.678414097
 21
25.8964757709
  0
LINE
  5
D0
100
AcDbEntity
  8
0
  6
ByLayer
 62
    7
370
   70
100
AcDbLine
 10
946.678414097
 20
25.8964757709
 11
946.678414097
 21
-84.1035242291
  0
LINE
  5
D1
100
AcDbEntity
  8
0
  6
ByLayer
 62
    7
370
   70
100
AcDbLine
 10
946.678414097
 20
-84.1035242291
 11
576.678414097
 21
-84.1035242291
  0
LINE
  5
D2
100
AcDbEntity
  8
0
  6
ByLayer
 62
    7
370
   70
100
AcDbLine
 10
576.678414097
 20
-84.1035242291
 11
576.678414097
 21
25.8964757709
  0
MTEXT
  5
D3
100
AcDbEntity
  8
0
  6
ByLayer
 62
    7
370
   70
100
AcDbMText
 10
596.678414097
 20
-24.10352639300746
 30
0
 40
25
 41
338.1944648587541
 71
    7
 72
    5
  1
Situatieschets blz14
  7
standard
210
0
220
0
230
1
 50
0
 73
    1
 44
0.884736
  0
ARC
  5
D4
100
AcDbEntity
  8
0
  6
ByLayer
 62
  256
370
   -1
100
AcDbCircle
 10
590
 20
130
 40
10
100
AcDbArc
 50
180
 51
0
  0
LINE
  5
D5
100
AcDbEntity
  8
0
  6
ByLayer
 62
  256
370
   -1
100
AcDbLine
 10
605
 20
130
 11
600
 21
130
  0
LINE
  5
D6
100
AcDbEntity
  8
0
  6
ByLayer
 62
  256
370
   -1
100
AcDbLine
 10
580
 20
130
 11
575
 21
130
  0
LINE
  5
D7
100
AcDbEntity
  8
0
  6
ByLayer
 62
  256
370
   -1
100
AcDbLine
 10
590
 20
120
 11
590
 21
110
  0
LINE
  5
D8
100
AcDbEntity
  8
0
  6
ByLayer
 62
  256
370
   -1
100
AcDbLine
 10
605
 20
120
 11
575
 21
120
  0
ARC
  5
D9
100
AcDbEntity
  8
0
  6
ByLayer
 62
  256
370
   -1
100
AcDbCircle
 10
590
 20
110
 40
10
100
AcDbArc
 50
180
 51
0
  0
LINE
  5
DA
100
AcDbEntity
  8
0
  6
ByLayer
 62
  256
370
   -1
100
AcDbLine
 10
605
 20
110
 11
600
 21
110
  0
LINE
  5
DB
100
AcDbEntity
  8
0
  6
ByLayer
 62
  256
370
   -1
100
AcDbLine
 10
580
 20
110
 11
575
 21
110
  0
LINE
  5
DC
100
AcDbEntity
  8
0
  6
ByLayer
 62
  256
370
   -1
100
AcDbLine
 10
590
 20
100
 11
590
 21
90
  0
LINE
  5
DD
100
AcDbEntity
  8
0
  6
ByLayer
 62
  256
370
   -1
100
AcDbLine
 10
605
 20
100
 11
575
 21
100
  0
MTEXT
  5
DE
100
AcDbEntity
  8
0
  6
ByLayer
 62
  256
370
   -1
100
AcDbMText
 10
676.49470504
 20
372.499689728
 30
0
 40
5
 41
2.222222222222455
 71
    1
 72
    5
  1
h
  7
standard
210
0
220
0
230
1
 50
0
 73
    2
 44
0.96
  0
MTEXT
  5
DF
100
AcDbEntity
  8
0
  6
ByLayer
 62
  256
370
   -1
100
AcDbMText
 10
583.18017365
 20
113.476294747
 30
0
 40
5
 41
2.222222222222455
 71
    1
 72
    5
  1
h
  7
standard
210
0
220
0
230
1
 50
0
 73
    2
 44
0.96
  0
MTEXT
  5
E0
100
AcDbEntity
  8
0
  6
ByLayer
 62
  256
370
   -1
100
AcDbMText
 10
583.18017365
 20
93.476294747
 30
0
 40
5
 41
2.222222222222455
 71
    1
 72
    5
  1
h
  7
standard
210
0
220
0
230
1
 50
0
 73
    2
 44
0.96
  0
INSERT
  5
E1
100
AcDbEntity
  8
0
  6
ByLayer
 62
  256
370
   -1
100
AcDbBlockReference
  2
sk 1p
 10
670
 20
310
 30
0
 41
0.1
 42
0.1
 43
0
 50
0
 70
    1
 71
    1
 44
1
 45
1
  0
LINE
  5
E2
100
AcDbEntity
  8
0
  6
ByLayer
 62
  256
370
   -1
100
AcDbLine
 10
270
 20
580
 11
270
 21
582.4968428781407
  0
MTEXT
  5
E3
100
AcDbEntity
  8
0
  6
ByLayer
 62
    7
370
   50
100
AcDbMText
 10
370
 20
320
 30
0
 40
20
 41
42.22222222222346
 71
    2
 72
    5
  1
1.03
  7
standard
210
0
220
0
230
1
 50
0
 73
    2
 44
0.96
  0
MTEXT
  5
E4
100
AcDbEntity
  8
0
  6
ByLayer
 62
    5
370
   50
100
AcDbMText
 10
317.3999455865222
 20
340.562872980469
 30
0
 40
10
 41
81.94444232442342
 71
    4
 72
    5
  1
Stille ruimte
  7
standard
210
0
220
0
230
1
 50
0
 73
    1
 44
0.9216
  0
MTEXT
  5
E5
100
AcDbEntity
  8
0
  6
ByLayer
 62
    7
370
   70
100
AcDbMText
 10
806.678414097
 20
-64.1035242291
 30
0
 40
15
 41
105
 71
    7
 72
    5
  1
2017-12-20
  7
standard
210
0
220
0
230
1
 50
0
 73
    1
 44
0.884736
  0
LINE
  5
E6
100
AcDbEntity
  8
0
  6
DASHED
 62
    7
370
   -1
100
AcDbLine
 10
300
 20
83.4431
 11
300
 21
582.497
  0
LINE
  5
E7
100
AcDbEntity
  8
0
  6
DASHED
 62
    7
370
   -1
100
AcDbLine
 10
270
 20
582.497
 11
270
 21
83.4431
  0
ARC
  5
E8
100
AcDbEntity
  8
0
  6
ByLayer
 62
  256
370
   -1
100
AcDbCircle
 10
676
 20
231
 40
10
100
AcDbArc
 50
270
 51
90
  0
LINE
  5
E9
100
AcDbEntity
  8
0
  6
ByLayer
 62
  256
370
   -1
100
AcDbLine
 10
676
 20
246
 11
676
 21
241
  0
LINE
  5
EA
100
AcDbEntity
  8
0
  6
ByLayer
 62
  256
370
   -1
100
AcDbLine
 10
676
 20
221
 11
676
 21
216
  0
LINE
  5
EB
100
AcDbEntity
  8
0
  6
ByLayer
 62
  256
370
   -1
100
AcDbLine
 10
686
 20
246
 11
686
 21
216
  0
ARC
  5
EC
100
AcDbEntity
  8
0
  6
ByLayer
 62
  256
370
   -1
100
AcDbCircle
 10
656
 20
231
 40
10
100
AcDbArc
 50
270
 51
90
  0
LINE
  5
ED
100
AcDbEntity
  8
0
  6
ByLayer
 62
  256
370
   -1
100
AcDbLine
 10
656
 20
246
 11
656
 21
241
  0
LINE
  5
EE
100
AcDbEntity
  8
0
  6
ByLayer
 62
  256
370
   -1
100
AcDbLine
 10
656
 20
221
 11
656
 21
216
  0
LINE
  5
EF
100
AcDbEntity
  8
0
  6
ByLayer
 62
  256
370
   -1
100
AcDbLine
 10
666
 20
246
 11
666
 21
216
  0
ARC
  5
F0
100
AcDbEntity
  8
0
  6
ByLayer
 62
  256
370
   -1
100
AcDbCircle
 10
636
 20
231
 40
10
100
AcDbArc
 50
270
 51
90
  0
LINE
  5
F1
100
AcDbEntity
  8
0
  6
ByLayer
 62
  256
370
   -1
100
AcDbLine
 10
636
 20
246
 11
636
 21
241
  0
LINE
  5
F2
100
AcDbEntity
  8
0
  6
ByLayer
 62
  256
370
   -1
100
AcDbLine
 10
636
 20
221
 11
636
 21
216
  0
LINE
  5
F3
100
AcDbEntity
  8
0
  6
ByLayer
 62
  256
370
   -1
100
AcDbLine
 10
646
 20
246
 11
646
 21
216
  0
LINE
  5
F4
100
AcDbEntity
  8
0
  6
ByLayer
 62
  256
370
   -1
100
AcDbLine
 10
646
 20
230.9999847412112
 11
696
 21
231
  0
MTEXT
  5
F5
100
AcDbEntity
  8
0
  6
ByLayer
 62
    4
370
   -1
100
AcDbMText
 10
740
 20
530
 30
0
 40
10
 41
31.11111111111111
 71
    7
 72
    5
  1
W4-1
  7
standard
210
0
220
0
230
1
 50
0
 73
    2
 44
0.96
  0
MTEXT
  5
F6
100
AcDbEntity
  8
0
  6
ByLayer
 62
    4
370
   -1
100
AcDbMText
 10
720
 20
370
 30
0
 40
10
 41
33.33333333333333
 71
    7
 72
    5
  1
W4-2
  7
standard
210
0
220
0
230
1
 50
0
 73
    2
 44
0.96
  0
MTEXT
  5
F7
100
AcDbEntity
  8
0
  6
ByLayer
 62
    4
370
   -1
100
AcDbMText
 10
480
 20
300
 30
0
 40
10
 41
32.22222222222222
 71
    7
 72
    5
  1
W7-2
  7
standard
210
0
220
0
230
1
 50
0
 73
    2
 44
0.96
  0
MTEXT
  5
F8
100
AcDbEntity
  8
0
  6
ByLayer
 62
    4
370
   -1
100
AcDbMText
 10
586
 20
321
 30
0
 40
10
 41
32.22222222222222
 71
    7
 72
    5
  1
W7-7
  7
standard
210
0
220
0
230
1
 50
0
 73
    2
 44
0.96
  0
MTEXT
  5
F9
100
AcDbEntity
  8
0
  6
ByLayer
 62
    4
370
   -1
100
AcDbMText
 10
624
 20
327
 30
0
 40
10
 41
32.22222222222285
 71
    7
 72
    5
  1
W7-5
  7
standard
210
0
220
0
230
1
 50
0
 73
    2
 44
0.96
  0
MTEXT
  5
FA
100
AcDbEntity
  8
0
  6
ByLayer
 62
    4
370
   -1
100
AcDbMText
 10
621
 20
255
 30
0
 40
10
 41
33.33333333333334
 71
    7
 72
    5
  1
W7-4
  7
standard
210
0
220
0
230
1
 50
0
 73
    2
 44
0.96
  0
MTEXT
  5
FB
100
AcDbEntity
  8
0
  6
ByLayer
 62
    4
370
   -1
100
AcDbMText
 10
585
 20
260
 30
0
 40
10
 41
32.22222222222285
 71
    7
 72
    5
  1
W7-6
  7
standard
210
0
220
0
230
1
 50
0
 73
    2
 44
0.96
  0
MTEXT
  5
FC
100
AcDbEntity
  8
0
  6
ByLayer
 62
    4
370
   -1
100
AcDbMText
 10
623
 20
376
 30
0
 40
10
 41
32.22222222222222
 71
    7
 72
    5
  1
W2-2
  7
standard
210
0
220
0
230
1
 50
0
 73
    2
 44
0.96
  0
MTEXT
  5
FD
100
AcDbEntity
  8
0
  6
ByLayer
 62
    4
370
   -1
100
AcDbMText
 10
601
 20
226
 30
0
 40
10
 41
30
 71
    7
 72
    5
  1
W2-1
  7
standard
210
0
220
0
230
1
 50
0
 73
    2
 44
0.96
  0
MTEXT
  5
FE
100
AcDbEntity
  8
0
  6
ByLayer
 62
    4
370
   -1
100
AcDbMText
 10
573
 20
136
 30
0
 40
10
 41
33.33333333333396
 71
    7
 72
    5
  1
W6-4
  7
standard
210
0
220
0
230
1
 50
0
 73
    2
 44
0.96
  0
MTEXT
  5
FF
100
AcDbEntity
  8
0
  6
ByLayer
 62
    4
370
   -1
100
AcDbMText
 10
760
 20
60
 30
0
 40
10
 41
31.11111111111111
 71
    7
 72
    5
  1
W4-1
  7
standard
210
0
220
0
230
1
 50
0
 73
    2
 44
0.96
  0
MTEXT
  5
100
100
AcDbEntity
  8
0
  6
ByLayer
 62
    4
370
   -1
100
AcDbMText
 10
664
 20
328
 30
0
 40
10
 41
32.22222222222222
 71
    7
 72
    5
  1
W7-2
  7
standard
210
0
220
0
230
1
 50
0
 73
    2
 44
0.96
  0
MTEXT
  5
101
100
AcDbEntity
  8
0
  6
ByLayer
 62
    4
370
   -1
100
AcDbMText
 10
660
 20
260
 30
0
 40
10
 41
32.22222222222285
 71
    7
 72
    5
  1
W7-3
  7
standard
210
0
220
0
230
1
 50
0
 73
    2
 44
0.96
  0
LINE
  5
102
100
AcDbEntity
  8
0
  6
ByLayer
 62
    6
370
   -1
100
AcDbLine
 10
430
 20
330
 11
560
 21
330
  0
LINE
  5
103
100
AcDbEntity
  8
0
  6
ByLayer
 62
    6
370
   -1
100
AcDbLine
 10
560
 20
330
 11
560
 21
340
  0
LINE
  5
104
100
AcDbEntity
  8
0
  6
ByLayer
 62
    6
370
   -1
100
AcDbLine
 10
560
 20
340
 11
560
 21
320
  0
LINE
  5
105
100
AcDbEntity
  8
0
  6
ByLayer
 62
    6
370
   -1
100
AcDbLine
 10
430
 20
320
 11
430
 21
340
  0
CIRCLE
  5
106
100
AcDbEntity
  8
0
  6
ByLayer
 62
    6
370
   -1
100
AcDbCircle
 10
640
 20
280
 40
7.071067811870001
  0
LINE
  5
107
100
AcDbEntity
  8
0
  6
ByLayer
 62
    6
370
   -1
100
AcDbLine
 10
655
 20
295
 11
645
 21
285
  0
LINE
  5
108
100
AcDbEntity
  8
0
  6
ByLayer
 62
    6
370
   -1
100
AcDbLine
 10
655
 20
295
 11
660
 21
290
  0
CIRCLE
  5
109
100
AcDbEntity
  8
0
  6
ByLayer
 62
    6
370
   -1
100
AcDbCircle
 10
610
 20
280
 40
7.071067811870001
  0
LINE
  5
10A
100
AcDbEntity
  8
0
  6
ByLayer
 62
    6
370
   -1
100
AcDbLine
 10
625
 20
295
 11
615
 21
285
  0
LINE
  5
10B
100
AcDbEntity
  8
0
  6
ByLayer
 62
    6
370
   -1
100
AcDbLine
 10
625
 20
295
 11
630
 21
290
  0
CIRCLE
  5
10C
100
AcDbEntity
  8
0
  6
ByLayer
 62
    6
370
   -1
100
AcDbCircle
 10
640
 20
310
 40
7.071067811870001
  0
LINE
  5
10D
100
AcDbEntity
  8
0
  6
ByLayer
 62
    6
370
   -1
100
AcDbLine
 10
655
 20
325
 11
645
 21
315
  0
LINE
  5
10E
100
AcDbEntity
  8
0
  6
ByLayer
 62
    6
370
   -1
100
AcDbLine
 10
655
 20
325
 11
660
 21
320
  0
CIRCLE
  5
10F
100
AcDbEntity
  8
0
  6
ByLayer
 62
    6
370
   -1
100
AcDbCircle
 10
610
 20
310
 40
7.071067811870001
  0
LINE
  5
110
100
AcDbEntity
  8
0
  6
ByLayer
 62
    6
370
   -1
100
AcDbLine
 10
625
 20
325
 11
615
 21
315
  0
LINE
  5
111
100
AcDbEntity
  8
0
  6
ByLayer
 62
    6
370
   -1
100
AcDbLine
 10
625
 20
325
 11
630
 21
320
  0
MTEXT
  5
112
100
AcDbEntity
  8
0
  6
ByLayer
 62
    4
370
   -1
100
AcDbMText
 10
580
 20
210
 30
0
 40
10
 41
32.22222222222222
 71
    7
 72
    5
  1
W7-2
  7
standard
210
0
220
0
230
1
 50
0
 73
    2
 44
0.96
  0
LINE
  5
113
100
AcDbEntity
  8
0
  6
ByLayer
 62
    6
370
   -1
100
AcDbLine
 10
546
 20
224.0000000000001
 11
574
 21
196.0000000000001
  0
LINE
  5
114
100
AcDbEntity
  8
0
  6
ByLayer
 62
    6
370
   -1
100
AcDbLine
 10
546
 20
196.0000000000001
 11
574
 21
224.0000000000001
  0
INSERT
  5
115
100
AcDbEntity
  8
0
  6
ByLayer
 62
    7
370
   -1
100
AcDbBlockReference
  2
lamp-1
 10
400.0647956161301
 20
179.8937351896
 30
0
 41
0.7
 42
0.7
 43
0
 50
0
 70
    1
 71
    1
 44
1
 45
1
  0
INSERT
  5
116
100
AcDbEntity
  8
0
  6
ByLayer
 62
    7
370
   -1
100
AcDbBlockReference
  2
lamp-1
 10
477.5570502477905
 20
179.8599429807454
 30
0
 41
0.7
 42
0.7
 43
0
 50
0
 70
    1
 71
    1
 44
1
 45
1
  0
MTEXT
  5
117
100
AcDbEntity
  8
0
  6
ByLayer
 62
    4
370
   -1
100
AcDbMText
 10
497.4922546316604
 20
179.9662077911453
 30
0
 40
10
 41
33.33333333333334
 71
    7
 72
    5
  1
W7-4
  7
standard
210
0
220
0
230
1
 50
0
 73
    2
 44
0.96
  0
MTEXT
  5
118
100
AcDbEntity
  8
0
  6
ByLayer
 62
    4
370
   -1
100
AcDbMText
 10
419.9999999999999
 20
179.9999999999999
 30
0
 40
10
 41
33.33333333333334
 71
    7
 72
    5
  1
W7-4
  7
standard
210
0
220
0
230
1
 50
0
 73
    2
 44
0.96
  0
MTEXT
  5
119
100
AcDbEntity
  8
0
  6
ByLayer
 62
    4
370
   -1
100
AcDbMText
 10
580
 20
460
 30
0
 40
10
 41
32.22222222222222
 71
    7
 72
    5
  1
W7-2
  7
standard
210
0
220
0
230
1
 50
0
 73
    2
 44
0.96
  0
LINE
  5
11A
100
AcDbEntity
  8
0
  6
ByLayer
 62
    6
370
   -1
100
AcDbLine
 10
546
 20
474.0000000000001
 11
574
 21
446.0000000000001
  0
LINE
  5
11B
100
AcDbEntity
  8
0
  6
ByLayer
 62
    6
370
   -1
100
AcDbLine
 10
546
 20
446.0000000000001
 11
574
 21
474.0000000000001
  0
INSERT
  5
11C
100
AcDbEntity
  8
0
  6
ByLayer
 62
    7
370
   -1
100
AcDbBlockReference
  2
lamp-1
 10
400.8680949517534
 20
480.6970345252234
 30
0
 41
0.7
 42
0.7
 43
0
 50
0
 70
    1
 71
    1
 44
1
 45
1
  0
INSERT
  5
11D
100
AcDbEntity
  8
0
  6
ByLayer
 62
    7
370
   -1
100
AcDbBlockReference
  2
lamp-1
 10
478.4014187046922
 20
482.8004286813717
 30
0
 41
0.7
 42
0.7
 43
0
 50
0
 70
    1
 71
    1
 44
1
 45
1
  0
MTEXT
  5
11E
100
AcDbEntity
  8
0
  6
ByLayer
 62
    4
370
   -1
100
AcDbMText
 10
498.3366230885621
 20
482.9066934917715
 30
0
 40
10
 41
32.22222222222285
 71
    7
 72
    5
  1
W7-5
  7
standard
210
0
220
0
230
1
 50
0
 73
    2
 44
0.96
  0
MTEXT
  5
11F
100
AcDbEntity
  8
0
  6
ByLayer
 62
    4
370
   -1
100
AcDbMText
 10
420.8032993356234
 20
480.8032993356234
 30
0
 40
10
 41
32.22222222222285
 71
    7
 72
    5
  1
W7-5
  7
standard
210
0
220
0
230
1
 50
0
 73
    2
 44
0.96
  0
MTEXT
  5
120
100
AcDbEntity
  8
0
  6
ByLayer
 62
    4
370
   -1
100
AcDbMText
 10
70
 20
300
 30
0
 40
10
 41
30
 71
    7
 72
    5
  1
W7-1
  7
standard
210
0
220
0
230
1
 50
0
 73
    2
 44
0.96
  0
MTEXT
  5
121
100
AcDbEntity
  8
0
  6
ByLayer
 62
    4
370
   -1
100
AcDbMText
 10
129.0806255536308
 20
262.9679632663546
 30
0
 40
10
 41
32.22222222222285
 71
    7
 72
    5
  1
W7-3
  7
standard
210
0
220
0
230
1
 50
0
 73
    2
 44
0.96
  0
MTEXT
  5
122
100
AcDbEntity
  8
0
  6
ByLayer
 62
    4
370
   -1
100
AcDbMText
 10
127.1281220283939
 20
331.0154597411178
 30
0
 40
10
 41
32.22222222222285
 71
    7
 72
    5
  1
W7-3
  7
standard
210
0
220
0
230
1
 50
0
 73
    2
 44
0.96
  0
LINE
  5
123
100
AcDbEntity
  8
0
  6
ByLayer
 62
    6
370
   -1
100
AcDbLine
 10
127.9525035252369
 20
315.9525035252369
 11
155.9525035252369
 21
287.9525035252369
  0
LINE
  5
124
100
AcDbEntity
  8
0
  6
ByLayer
 62
    6
370
   -1
100
AcDbLine
 10
127.9525035252369
 20
287.9525035252369
 11
155.9525035252369
 21
315.9525035252369
  0
LINE
  5
125
100
AcDbEntity
  8
0
  6
ByLayer
 62
    6
370
   -1
100
AcDbLine
 10
126
 20
384.0000000000001
 11
154
 21
356.0000000000001
  0
LINE
  5
126
100
AcDbEntity
  8
0
  6
ByLayer
 62
    6
370
   -1
100
AcDbLine
 10
126
 20
356.0000000000001
 11
154
 21
384.0000000000001
  0
MTEXT
  5
127
100
AcDbEntity
  8
0
  6
ByLayer
 62
    4
370
   -1
100
AcDbMText
 10
218.0474964747631
 20
188.0474964747631
 30
0
 40
10
 41
32.22222222222285
 71
    7
 72
    5
  1
W7-6
  7
standard
210
0
220
0
230
1
 50
0
 73
    2
 44
0.96
  0
MTEXT
  5
128
100
AcDbEntity
  8
0
  6
ByLayer
 62
    4
370
   -1
100
AcDbMText
 10
140
 20
189.9999999999999
 30
0
 40
10
 41
32.22222222222285
 71
    7
 72
    5
  1
W7-6
  7
standard
210
0
220
0
230
1
 50
0
 73
    2
 44
0.96
  0
MTEXT
  5
129
100
AcDbEntity
  8
0
  6
ByLayer
 62
    4
370
   -1
100
AcDbMText
 10
218.0474964747631
 20
468.0474964747631
 30
0
 40
10
 41
32.22222222222222
 71
    7
 72
    5
  1
W7-7
  7
standard
210
0
220
0
230
1
 50
0
 73
    2
 44
0.96
  0
LINE
  5
12A
100
AcDbEntity
  8
0
  6
ByLayer
 62
    6
370
   -1
100
AcDbLine
 10
106
 20
484
 11
134
 21
456
  0
LINE
  5
12B
100
AcDbEntity
  8
0
  6
ByLayer
 62
    6
370
   -1
100
AcDbLine
 10
106
 20
456
 11
134
 21
484
  0
LINE
  5
12C
100
AcDbEntity
  8
0
  6
ByLayer
 62
    6
370
   -1
100
AcDbLine
 10
184.0474964747631
 20
482.0474964747632
 11
212.0474964747631
 21
454.0474964747632
  0
LINE
  5
12D
100
AcDbEntity
  8
0
  6
ByLayer
 62
    6
370
   -1
100
AcDbLine
 10
184.0474964747631
 20
454.0474964747632
 11
212.0474964747631
 21
482.0474964747632
  0
LINE
  5
12E
100
AcDbEntity
  8
0
  6
ByLayer
 62
    6
370
   -1
100
AcDbLine
 10
106
 20
204
 11
134
 21
176
  0
LINE
  5
12F
100
AcDbEntity
  8
0
  6
ByLayer
 62
    6
370
   -1
100
AcDbLine
 10
106
 20
176
 11
134
 21
204
  0
LINE
  5
130
100
AcDbEntity
  8
0
  6
ByLayer
 62
    6
370
   -1
100
AcDbLine
 10
184.0474964747631
 20
202.0474964747632
 11
212.0474964747631
 21
174.0474964747632
  0
LINE
  5
131
100
AcDbEntity
  8
0
  6
ByLayer
 62
    6
370
   -1
100
AcDbLine
 10
184.0474964747631
 20
174.0474964747632
 11
212.0474964747631
 21
202.0474964747632
  0
MTEXT
  5
132
100
AcDbEntity
  8
0
  6
ByLayer
 62
    4
370
   -1
100
AcDbMText
 10
140
 20
469.9999999999999
 30
0
 40
10
 41
32.22222222222222
 71
    7
 72
    5
  1
W7-7
  7
standard
210
0
220
0
230
1
 50
0
 73
    2
 44
0.96
  0
MTEXT
  5
133
100
AcDbEntity
  8
0
  6
ByLayer
 62
    4
370
   -1
100
AcDbMText
 10
803
 20
260
 30
0
 40
10
 41
32.22222222222347
 71
    7
 72
    5
  1
W5-6
  7
standard
210
0
220
0
230
1
 50
0
 73
    2
 44
0.884736
  0
INSERT
  5
134
100
AcDbEntity
  8
0
  6
ByLayer
 62
  256
370
   -1
100
AcDbBlockReference
  2
noodlicht-0
 10
829.97630331755
 20
70.01184834125003
 30
0
 41
0.5
 42
0.5
 43
0
 50
0
 70
    1
 71
    1
 44
1
 45
1
  0
MTEXT
  5
135
100
AcDbEntity
  8
0
  6
ByLayer
 62
    4
370
   -1
100
AcDbMText
 10
854.0545408148835
 20
67.40585220315191
 30
0
 40
10
 41
33.33333333333334
 71
    7
 72
    5
  1
W4-9
  7
standard
210
0
220
0
230
1
 50
0
 73
    2
 44
0.96
  0
LINE
  5
136
100
AcDbEntity
  8
0
  6
ByLayer
 62
    7
370
   -1
100
AcDbLine
 10
780
 20
120
 11
797.5232256485839
 21
120
  0
LINE
  5
137
100
AcDbEntity
  8
0
  6
ByLayer
 62
    7
370
   -1
100
AcDbLine
 10
696.4287322565099
 20
120
 11
710
 21
120
  0
LINE
  5
138
100
AcDbEntity
  8
0
  6
ByLayer
 62
    7
370
   50
100
AcDbLine
 10
38.51218795888533
 20
83.44307391091823
 11
696.4287322565099
 21
83.44307391091823
  0
LINE
  5
139
100
AcDbEntity
  8
0
  6
ByLayer
 62
    7
370
   50
100
AcDbLine
 10
797.5232256485839
 20
83.44307391091823
 11
955.5836637298424
 21
83.44307391091823
  0
LINE
  5
13A
100
AcDbEntity
  8
0
  6
ByLayer
 62
    7
370
   50
100
AcDbLine
 10
696.4287322565099
 20
71.88941752325265
 11
797.5232256485839
 21
71.88941752325265
  0
LINE
  5
13B
100
AcDbEntity
  8
0
  6
ByLayer
 62
    7
370
   50
100
AcDbLine
 10
696.4287322565099
 20
50.93878727361902
 11
797.5232256485839
 21
50.93878727361902
  0
LINE
  5
13C
100
AcDbEntity
  8
0
  6
ByLayer
 62
    7
370
   50
100
AcDbLine
 10
797.5232256485839
 20
29.57736035242394
 11
696.4287322565099
 21
29.57736035242394
  0
LINE
  5
13D
100
AcDbEntity
  8
0
  6
ByLayer
 62
    7
370
   -1
100
AcDbLine
 10
797.5232256485839
 20
83.44307391091823
 11
797.5232256485839
 21
29.57736035242394
  0
LINE
  5
13E
100
AcDbEntity
  8
tekst
  6
ByLayer
 62
    7
370
   -1
100
AcDbLine
 10
860
 20
292.8
 11
975.2
 21
292.8
  0
LINE
  5
13F
100
AcDbEntity
  8
tekst
  6
ByLayer
 62
    7
370
   -1
100
AcDbLine
 10
860
 20
235.2
 11
975.2
 21
235.2
  0
LINE
  5
140
100
AcDbEntity
  8
tekst
  6
ByLayer
 62
    7
370
   -1
100
AcDbLine
 10
975.2
 20
177.6
 11
860
 21
177.6
  0
LINE
  5
141
100
AcDbEntity
  8
tekst
  6
ByLayer
 62
    7
370
   -1
100
AcDbLine
 10
860
 20
120
 11
975.2
 21
120
  0
LINE
  5
142
100
AcDbEntity
  8
tekst
  6
ByLayer
 62
    7
370
   -1
100
AcDbLine
 10
860
 20
120
 11
860
 21
292.8
  0
LINE
  5
143
100
AcDbEntity
  8
tekst
  6
ByLayer
 62
    7
370
   -1
100
AcDbLine
 10
917.6
 20
292.8
 11
917.6
 21
120
  0
LINE
  5
144
100
AcDbEntity
  8
tekst
  6
ByLayer
 62
    7
370
   -1
100
AcDbLine
 10
975.2
 20
292.8
 11
975.2
 21
120
  0
MTEXT
  5
145
100
AcDbEntity
  8
tekst
  6
ByLayer
 62
    7
370
   -1
100
AcDbMText
 10
923.36
 20
136.128
 30
0
 40
11.52
 41
47.36000000000107
 71
    7
 72
    1
  1
achter\Pmidden
  7
standard
210
0
220
0
230
1
 50
0
 73
    2
 44
1
  0
MTEXT
  5
146
100
AcDbEntity
  8
tekst
  6
ByLayer
 62
    7
370
   -1
100
AcDbMText
 10
848.48
 20
96.96000000000001
 30
0
 40
11.52
 41
148.1600177737677
 71
    7
 72
    1
  1
positie schakelaars
  7
standard
210
0
220
0
230
1
 50
0
 73
    2
 44
1
  0
MTEXT
  5
147
100
AcDbEntity
  8
tekst
  6
ByLayer
 62
    7
370
   -1
100
AcDbMText
 10
865.76
 20
136.128
 30
0
 40
11.52
 41
47.36000000000107
 71
    7
 72
    1
  1
voor\Pmidden
  7
standard
210
0
220
0
230
1
 50
0
 73
    2
 44
1
  0
LINE
  5
148
100
AcDbEntity
  8
tekst
  6
ByLayer
 62
  256
370
   -1
100
AcDbLine
 10
970
 20
370
 11
870
 21
370
  0
LINE
  5
149
100
AcDbEntity
  8
tekst
  6
ByLayer
 62
  256
370
   -1
100
AcDbLine
 10
920
 20
420
 11
920
 21
320
  0
LINE
  5
14A
100
AcDbEntity
  8
tekst
  6
ByLayer
 62
  256
370
   -1
100
AcDbLine
 10
965
 20
373
 11
970
 21
370
  0
LINE
  5
14B
100
AcDbEntity
  8
tekst
  6
ByLayer
 62
  256
370
   -1
100
AcDbLine
 10
970
 20
370
 11
965
 21
367
  0
MTEXT
  5
14C
100
AcDbEntity
  8
tekst
  6
ByLayer
 62
  256
370
   -1
100
AcDbMText
 10
974
 20
370
 30
0
 40
10
 41
5.555555555555555
 71
    7
 72
    1
  1
N
  7
standard
210
0
220
0
230
1
 50
0
 73
    2
 44
1
  0
MTEXT
  5
14D
100
AcDbEntity
  8
tekst
  6
ByLayer
 62
  256
370
   -1
100
AcDbMText
 10
850
 20
370
 30
0
 40
10
 41
5.555555555555555
 71
    7
 72
    1
  1
Z
  7
standard
210
0
220
0
230
1
 50
0
 73
    2
 44
1
  0
MTEXT
  5
14E
100
AcDbEntity
  8
tekst
  6
ByLayer
 62
  256
370
   -1
100
AcDbMText
 10
920
 20
300
 30
0
 40
10
 41
5.555555555555555
 71
    7
 72
    1
  1
O
  7
standard
210
0
220
0
230
1
 50
0
 73
    2
 44
1
  0
MTEXT
  5
14F
100
AcDbEntity
  8
tekst
  6
ByLayer
 62
  256
370
   -1
100
AcDbMText
 10
920
 20
430
 30
0
 40
10
 41
8.888888888888889
 71
    7
 72
    1
  1
W
  7
standard
210
0
220
0
230
1
 50
0
 73
    2
 44
1
  0
MTEXT
  5
150
100
AcDbEntity
  8
tekst
  6
ByLayer
 62
    7
370
   -1
100
AcDbMText
 10
865.76
 20
193.728
 30
0
 40
11.52
 41
35.84000592458852
 71
    7
 72
    1
  1
voor\PWest
  7
standard
210
0
220
0
230
1
 50
0
 73
    2
 44
1
  0
MTEXT
  5
151
100
AcDbEntity
  8
tekst
  6
ByLayer
 62
    7
370
   -1
100
AcDbMText
 10
923.36
 20
193.728
 30
0
 40
11.52
 41
32.00000592458852
 71
    7
 72
    1
  1
voor\POost
  7
standard
210
0
220
0
230
1
 50
0
 73
    2
 44
1
  0
MTEXT
  5
152
100
AcDbEntity
  8
tekst
  6
ByLayer
 62
    7
370
   -1
100
AcDbMText
 10
923.36
 20
251.328
 30
0
 40
11.52
 41
46.08000000000108
 71
    7
 72
    1
  1
achter\POost
  7
standard
210
0
220
0
230
1
 50
0
 73
    2
 44
1
  0
MTEXT
  5
153
100
AcDbEntity
  8
tekst
  6
ByLayer
 62
    7
370
   -1
100
AcDbMText
 10
865.76
 20
251.328
 30
0
 40
11.52
 41
46.08000000000108
 71
    7
 72
    1
  1
achter \PWest
  7
standard
210
0
220
0
230
1
 50
0
 73
    2
 44
1
  0
LINE
  5
154
100
AcDbEntity
  8
tekst
  6
ByLayer
 62
    7
370
   -1
100
AcDbLine
 10
700
 20
270
 11
704
 21
261
  0
LINE
  5
155
100
AcDbEntity
  8
tekst
  6
ByLayer
 62
    7
370
   -1
100
AcDbLine
 10
704
 20
261
 11
709
 21
266
  0
LINE
  5
156
100
AcDbEntity
  8
tekst
  6
ByLayer
 62
    7
370
   -1
100
AcDbLine
 10
709
 20
266
 11
700
 21
270
  0
LINE
  5
157
100
AcDbEntity
  8
tekst
  6
ByLayer
 62
  256
370
   -1
100
AcDbLine
 10
760
 20
210
 11
700
 21
270
  0
LINE
  5
158
100
AcDbEntity
  8
tekst
  6
ByLayer
 62
  256
370
   -1
100
AcDbLine
 10
860.0000000000001
 20
210
 11
760
 21
210
  0
MTEXT
  5
159
100
AcDbEntity
  8
0
  6
ByLayer
 62
    4
370
   -1
100
AcDbMText
 10
770
 20
90
 30
0
 40
10
 41
17.77777777777778
 71
    7
 72
    5
  1
W4
  7
standard
210
0
220
0
230
1
 50
0
 73
    2
 44
0.96
  0
INSERT
  5
15A
100
AcDbEntity
  8
0
  6
ByLayer
 62
  256
370
   -1
100
AcDbBlockReference
  2
sk 1p
 10
705
 20
89
 30
0
 41
0.1
 42
0.1
 43
0
 50
0
 70
    1
 71
    1
 44
1
 45
1
  0
LINE
  5
15B
100
AcDbEntity
  8
0
  6
DOT2
 62
    7
370
   -1
100
AcDbLine
 10
696.4287322565099
 20
83.44307391091823
 11
797.5232256485839
 21
83.44307391091823
  0
INSERT
  5
15C
100
AcDbEntity
  8
0
  6
ByLayer
 62
  256
370
   -1
100
AcDbBlockReference
  2
doosje
 10
750
 20
90
 30
0
 41
0.5
 42
0.5
 43
0
 50
0
 70
    1
 71
    1
 44
0.5
 45
0.5
  0
INSERT
  5
15D
100
AcDbEntity
  8
0
  6
ByLayer
 62
  256
370
   -1
100
AcDbBlockReference
  2
doosje
 10
700
 20
350
 30
0
 41
0.5
 42
0.5
 43
0
 50
0
 70
    1
 71
    1
 44
0.5
 45
0.5
  0
LINE
  5
15E
100
AcDbEntity
  8
0
  6
ByLayer
 62
   96
420
32768
370
   35
100
AcDbLine
 10
926.1616575885746
 20
594.9481170827606
 11
926.1616575885746
 21
621.21855342148
  0
LINE
  5
15F
100
AcDbEntity
  8
0
  6
ByLayer
 62
   96
420
32768
370
   35
100
AcDbLine
 10
797.5232256485839
 20
296.062444933931
 11
797.5232256485839
 21
367.4704601076976
  0
LINE
  5
160
100
AcDbEntity
  8
0
  6
ByLayer
 62
   96
420
32768
370
   35
100
AcDbLine
 10
696.4287322565099
 20
362.6564366128369
 11
696.4287322565099
 21
296.8647821830745
  0
LINE
  5
161
100
AcDbEntity
  8
0
  6
ByLayer
 62
   96
420
32768
370
   35
100
AcDbLine
 10
38.51218795888533
 20
385.9242168379968
 11
38.51218795888533
 21
280.0156999510621
  0
LINE
  5
162
100
AcDbEntity
  8
0
  6
ByLayer
 62
   96
420
32768
370
   35
100
AcDbLine
 10
780
 20
122
 11
710
 21
122
  0
LINE
  5
163
100
AcDbEntity
  8
0
  6
ByLayer
 62
    7
370
   50
100
AcDbLine
 10
38.51218795888533
 20
590
 11
38.51218795888533
 21
385.9242168379968
  0
LINE
  5
164
100
AcDbEntity
  8
0
  6
ByLayer
 62
   96
420
32768
370
   35
100
AcDbLine
 10
38.51218795888533
 20
640.2651248164688
 11
38.51218795888533
 21
590
  0
MTEXT
  5
165
100
AcDbEntity
  8
0
  6
ByLayer
 62
    4
370
   -1
100
AcDbMText
 10
698
 20
105
 30
0
 40
10
 41
31.11111111111111
 71
    7
 72
    5
  1
W4-1
  7
standard
210
0
220
0
230
1
 50
0
 73
    2
 44
0.96
  0
ENDSEC
  0
SECTION
  2
OBJECTS
  0
DICTIONARY
  5
C
330
0
100
AcDbDictionary
281
    1
  3
ACAD_GROUP
350
D
  0
DICTIONARY
  5
D
330
C
100
AcDbDictionary
281
    1
  0
ENDSEC
  0
EOF
