  0
SECTION
  2
HEADER
  9
$ACADVER
  1
AC1015
  9
$ACADMAINTVER
 70
    20
  9
$DWGCODEPAGE
  3
ANSI_1252
  9
$INSBASE
 10
0.0
 20
0.0
 30
0.0
  9
$EXTMIN
 10
-74.50824083249552
 20
-27.96730213914091
 30
-0.0015258207003583
  9
$EXTMAX
 10
74.50824152795701
 20
28.01810240146844
 30
0.0000000349246037
  9
$LIMMIN
 10
0.0
 20
0.0
  9
$LIMMAX
 10
0.0
 20
0.0
  9
$ORTHOMODE
 70
     0
  9
$REGENMODE
 70
     1
  9
$FILLMODE
 70
     1
  9
$QTEXTMODE
 70
     0
  9
$MIRRTEXT
 70
     1
  9
$LTSCALE
 40
1.0
  9
$ATTMODE
 70
     1
  9
$TEXTSIZE
 40
0.0
  9
$TRACEWID
 40
0.05
  9
$TEXTSTYLE
  7
Standard
  9
$CLAYER
  8
0
  9
$CELTYPE
  6
Continuous
  9
$CECOLOR
 62
   256
  9
$CELTSCALE
 40
1.0
  9
$DISPSILH
 70
     0
  9
$DIMSCALE
 40
1.0
  9
$DIMASZ
 40
0.18
  9
$DIMEXO
 40
0.0625
  9
$DIMDLI
 40
0.38
  9
$DIMRND
 40
0.0
  9
$DIMDLE
 40
0.0
  9
$DIMEXE
 40
0.18
  9
$DIMTP
 40
0.0
  9
$DIMTM
 40
0.0
  9
$DIMTXT
 40
0.18
  9
$DIMCEN
 40
0.09
  9
$DIMTSZ
 40
0.0
  9
$DIMTOL
 70
     0
  9
$DIMLIM
 70
     0
  9
$DIMTIH
 70
     1
  9
$DIMTOH
 70
     1
  9
$DIMSE1
 70
     0
  9
$DIMSE2
 70
     0
  9
$DIMTAD
 70
     0
  9
$DIMZIN
 70
     0
  9
$DIMBLK
  1

  9
$DIMASO
 70
     1
  9
$DIMSHO
 70
     1
  9
$DIMPOST
  1

  9
$DIMAPOST
  1

  9
$DIMALT
 70
     0
  9
$DIMALTD
 70
     2
  9
$DIMALTF
 40
25.4
  9
$DIMLFAC
 40
1.0
  9
$DIMTOFL
 70
     0
  9
$DIMTVP
 40
0.0
  9
$DIMTIX
 70
     0
  9
$DIMSOXD
 70
     0
  9
$DIMSAH
 70
     0
  9
$DIMBLK1
  1

  9
$DIMBLK2
  1

  9
$DIMSTYLE
  2
Standard
  9
$DIMCLRD
 70
     0
  9
$DIMCLRE
 70
     0
  9
$DIMCLRT
 70
     0
  9
$DIMTFAC
 40
1.0
  9
$DIMGAP
 40
0.09
  9
$DIMJUST
 70
     0
  9
$DIMSD1
 70
     0
  9
$DIMSD2
 70
     0
  9
$DIMTOLJ
 70
     1
  9
$DIMTZIN
 70
     0
  9
$DIMALTZ
 70
     0
  9
$DIMALTTZ
 70
     0
  9
$DIMUPT
 70
     0
  9
$DIMDEC
 70
     4
  9
$DIMTDEC
 70
     4
  9
$DIMALTU
 70
     2
  9
$DIMALTTD
 70
     2
  9
$DIMTXSTY
  7
Standard
  9
$DIMAUNIT
 70
     0
  9
$DIMADEC
 70
     0
  9
$DIMALTRND
 40
0.0
  9
$DIMAZIN
 70
     0
  9
$DIMDSEP
 70
     0
  9
$DIMATFIT
 70
     3
  9
$DIMFRAC
 70
     0
  9
$DIMLDRBLK
  1

  9
$DIMLUNIT
 70
     2
  9
$DIMLWD
 70
     0
  9
$DIMLWE
 70
     0
  9
$DIMTMOVE
 70
     0
  9
$LUNITS
 70
     2
  9
$LUPREC
 70
     4
  9
$SKETCHINC
 40
0.1
  9
$FILLETRAD
 40
0.0
  9
$AUNITS
 70
     0
  9
$AUPREC
 70
     0
  9
$MENU
  1
acad
  9
$ELEVATION
 40
0.0
  9
$PELEVATION
 40
0.0
  9
$THICKNESS
 40
0.0
  9
$LIMCHECK
 70
     0
  9
$CHAMFERA
 40
0.0
  9
$CHAMFERB
 40
0.0
  9
$CHAMFERC
 40
0.0
  9
$CHAMFERD
 40
0.0
  9
$SKPOLY
 70
     0
  9
$TDCREATE
 40
2455810.534063600
  9
$TDUCREATE
 40
2455810.450730266
  9
$TDUPDATE
 40
2455810.534474803
  9
$TDUUPDATE
 40
2455810.451141470
  9
$TDINDWG
 40
0.0004119329
  9
$TDUSRTIMER
 40
0.0004119329
  9
$USRTIMER
 70
     1
  9
$ANGBASE
 50
0.0
  9
$ANGDIR
 70
     0
  9
$PDMODE
 70
     0
  9
$PDSIZE
 40
0.0
  9
$PLINEWID
 40
0.0
  9
$SPLFRAME
 70
     0
  9
$SPLINETYPE
 70
     6
  9
$SPLINESEGS
 70
     8
  9
$HANDSEED
  5
128
  9
$SURFTAB1
 70
     6
  9
$SURFTAB2
 70
     6
  9
$SURFTYPE
 70
     6
  9
$SURFU
 70
     6
  9
$SURFV
 70
     6
  9
$UCSBASE
  2

  9
$UCSNAME
  2

  9
$UCSORG
 10
0.0
 20
0.0
 30
0.0
  9
$UCSXDIR
 10
1.0
 20
0.0
 30
0.0
  9
$UCSYDIR
 10
0.0
 20
1.0
 30
0.0
  9
$UCSORTHOREF
  2

  9
$UCSORTHOVIEW
 70
     0
  9
$UCSORGTOP
 10
0.0
 20
0.0
 30
0.0
  9
$UCSORGBOTTOM
 10
0.0
 20
0.0
 30
0.0
  9
$UCSORGLEFT
 10
0.0
 20
0.0
 30
0.0
  9
$UCSORGRIGHT
 10
0.0
 20
0.0
 30
0.0
  9
$UCSORGFRONT
 10
0.0
 20
0.0
 30
0.0
  9
$UCSORGBACK
 10
0.0
 20
0.0
 30
0.0
  9
$PUCSBASE
  2

  9
$PUCSNAME
  2

  9
$PUCSORG
 10
0.0
 20
0.0
 30
0.0
  9
$PUCSXDIR
 10
1.0
 20
0.0
 30
0.0
  9
$PUCSYDIR
 10
0.0
 20
1.0
 30
0.0
  9
$PUCSORTHOREF
  2

  9
$PUCSORTHOVIEW
 70
     0
  9
$PUCSORGTOP
 10
0.0
 20
0.0
 30
0.0
  9
$PUCSORGBOTTOM
 10
0.0
 20
0.0
 30
0.0
  9
$PUCSORGLEFT
 10
0.0
 20
0.0
 30
0.0
  9
$PUCSORGRIGHT
 10
0.0
 20
0.0
 30
0.0
  9
$PUCSORGFRONT
 10
0.0
 20
0.0
 30
0.0
  9
$PUCSORGBACK
 10
0.0
 20
0.0
 30
0.0
  9
$USERI1
 70
     0
  9
$USERI2
 70
     0
  9
$USERI3
 70
     0
  9
$USERI4
 70
     0
  9
$USERI5
 70
     0
  9
$USERR1
 40
0.0
  9
$USERR2
 40
0.0
  9
$USERR3
 40
0.0
  9
$USERR4
 40
0.0
  9
$USERR5
 40
0.0
  9
$WORLDVIEW
 70
     1
  9
$SHADEDGE
 70
     3
  9
$SHADEDIF
 70
    70
  9
$TILEMODE
 70
     1
  9
$MAXACTVP
 70
    16
  9
$PINSBASE
 10
0.0
 20
0.0
 30
0.0
  9
$PLIMCHECK
 70
     0
  9
$PEXTMIN
 10
1.000000000000000E+20
 20
1.000000000000000E+20
 30
1.000000000000000E+20
  9
$PEXTMAX
 10
-1.000000000000000E+20
 20
-1.000000000000000E+20
 30
-1.000000000000000E+20
  9
$PLIMMIN
 10
0.0
 20
0.0
  9
$PLIMMAX
 10
12.0
 20
9.0
  9
$UNITMODE
 70
     0
  9
$VISRETAIN
 70
     0
  9
$PLINEGEN
 70
     1
  9
$PSLTSCALE
 70
     0
  9
$TREEDEPTH
 70
  3020
  9
$CMLSTYLE
  2
Standard
  9
$CMLJUST
 70
     0
  9
$CMLSCALE
 40
1.0
  9
$PROXYGRAPHICS
 70
     0
  9
$MEASUREMENT
 70
     0
  9
$CELWEIGHT
370
     0
  9
$ENDCAPS
280
     0
  9
$JOINSTYLE
280
     0
  9
$LWDISPLAY
290
     0
  9
$INSUNITS
 70
     4
  9
$HYPERLINKBASE
  1

  9
$STYLESHEET
  1

  9
$XEDIT
290
     1
  9
$CEPSNTYPE
380
     0
  9
$PSTYLEMODE
290
     1
  9
$FINGERPRINTGUID
  2

  9
$VERSIONGUID
  2
{B467C561-346D-4EF6-ACE6-7C6C04777C36}
  9
$EXTNAMES
290
     1
  9
$PSVPSCALE
 40
0.0
  9
$OLESTARTUP
290
     0
  0
ENDSEC
  0
SECTION
  2
CLASSES
  0
CLASS
  1
IMAGE
  2
AcDbRasterImage
  3
ISM
 90
    34943
280
     0
281
     1
  0
CLASS
  1
DICTIONARYVAR
  2
AcDbDictionaryVar
  3
ObjectDBX Classes
 90
        0
280
     0
281
     0
  0
CLASS
  1
RASTERVARIABLES
  2
AcDbRasterVariables
  3
ISM
 90
    32768
280
     0
281
     0
  0
CLASS
  1
IMAGEDEF
  2
AcDbRasterImageDef
  3
ISM
 90
    32768
280
     0
281
     0
  0
CLASS
  1
IMAGEDEF_REACTOR
  2
AcDbRasterImageDefReactor
  3
ISM
 90
    32769
280
     0
281
     0
  0
CLASS
  1
IDBUFFER
  2
AcDbIdBuffer
  3
ObjectDBX Classes
 90
    32768
280
     0
281
     0
  0
CLASS
  1
SPATIAL_FILTER
  2
AcDbSpatialFilter
  3
ObjectDBX Classes
 90
    32768
280
     0
281
     0
  0
CLASS
  1
SORTENTSTABLE
  2
AcDbSortentsTable
  3
ObjectDBX Classes
 90
        0
280
     0
281
     0
  0
CLASS
  1
LAYER_INDEX
  2
AcDbLayerIndex
  3
ObjectDBX Classes
 90
    32768
280
     0
281
     0
  0
CLASS
  1
SPATIAL_INDEX
  2
AcDbSpatialIndex
  3
ObjectDBX Classes
 90
    32768
280
     0
281
     0
  0
CLASS
  1
OBJECT_PTR
  2
CAseDLPNTableRecord
  3
ASE-LPNTableRecord
 90
    32769
280
     0
281
     0
  0
CLASS
  1
LAYOUT
  2
AcDbLayout
  3
ObjectDBX Classes
 90
        0
280
     0
281
     0
  0
CLASS
  1
PLOTSETTINGS
  2
AcDbPlotSettings
  3
ObjectDBX Classes
 90
    32768
280
     0
281
     0
  0
CLASS
  1
ACDBDICTIONARYWDFLT
  2
AcDbDictionaryWithDefault
  3
ObjectDBX Classes
 90
        0
280
     0
281
     0
  0
CLASS
  1
ACDBPLACEHOLDER
  2
AcDbPlaceHolder
  3
ObjectDBX Classes
 90
        0
280
     0
281
     0
  0
CLASS
  1
VBA_PROJECT
  2
AcDbVbaProject
  3
acad
 90
    32768
280
     0
281
     0
  0
CLASS
  1
WIPEOUT
  2
AcDbWipeout
  3
WipeOut|Product Desc: Object Enabler for WipeOut entity | Company: Autodesk, Inc. | WEB Address: www.autodesk.com
 90
    34943
280
     0
281
     1
  0
CLASS
  1
WIPEOUTVARIABLES
  2
AcDbWipeoutVariables
  3
"WipeOut|Product Desc:     WipeOut Dbx Application|Company:          Autodesk, Inc.|WEB Address:      www.autodesk.com"
 90
        0
280
     0
281
     0
  0
CLASS
  1
RTEXT
  2
RText
  3
RText|AutoCAD Express Tool|expresstools@autodesk.com
 90
    32768
280
     0
281
     1
  0
CLASS
  1
ARCALIGNEDTEXT
  2
AcDbArcAlignedText
  3
ATEXT|AutoCAD Express Tool|expresstools@autodesk.com
 90
    32768
280
     0
281
     1
  0
CLASS
  1
MATERIAL
  2
AcDbMaterial
  3
ObjectDBX Classes
 90
     1153
280
     0
281
     0
  0
CLASS
  1
VISUALSTYLE
  2
AcDbVisualStyle
  3
ObjectDBX Classes
 90
     4095
280
     0
281
     0
  0
CLASS
  1
TABLESTYLE
  2
AcDbTableStyle
  3
ObjectDBX Classes
 90
     4095
280
     0
281
     0
  0
CLASS
  1
SCALE
  2
AcDbScale
  3
ObjectDBX Classes
 90
     1153
280
     0
281
     0
  0
CLASS
  1
MLEADERSTYLE
  2
AcDbMLeaderStyle
  3
ACDB_MLEADERSTYLE_CLASS
 90
     4095
280
     0
281
     0
  0
CLASS
  1
DMMAPMANAGER
  2
AcMapDMMapManager
  3
AcMapDisplayManagement
 90
     1024
280
     0
281
     0
  0
CLASS
  1
DMSTYLELIBRARY
  2
AcMapDMStyleLibrary
  3
AcMapDisplayManagement
 90
     1024
280
     0
281
     0
  0
CLASS
  1
DMSTYLECATEGORY
  2
AcMapDMStyleCategory
  3
AcMapDisplayManagement
 90
     1024
280
     0
281
     0
  0
CLASS
  1
ACDBDATATABLE
  2
AcDbDataTable
  3
AcMapAnnotObj|Product Desc:     AutoCAD MAP DBX App for Annotation Entity|Company:          Autodesk,Inc.|WEB Address:      www.autodesk.com
 90
        0
280
     0
281
     0
  0
CLASS
  1
MAPGWSUNDOOBJECT
  2
AcMapGWSUndoRecorder
  3
AcMapFeatureSourceManager
 90
     1025
280
     0
281
     0
  0
CLASS
  1
DMMAP
  2
AcMapDMMap
  3
AcMapDisplayManagement
 90
     1024
280
     0
281
     0
  0
CLASS
  1
DMBASEELEMENT
  2
AcMapDMBaseElement
  3
AcMapDisplayManagement
 90
     1024
280
     0
281
     0
  0
CLASS
  1
DMDEFAULTSTYLE
  2
AcMapDMDefaultStyle
  3
AcMapDisplayManagement
 90
     1024
280
     0
281
     0
  0
CLASS
  1
DMSTYLEREFERENCE
  2
AcMapDMStyleReference
  3
AcMapDisplayManagement
 90
     1024
280
     0
281
     0
  0
CLASS
  1
DMSURROGATESTYLESETS
  2
AcMapDMSurrogateStyleSets
  3
AcMapDisplayManagement
 90
     1153
280
     0
281
     0
  0
CLASS
  1
DMSTYLIZEDENTITIESTABLE
  2
AcMapDMStylizedEntitiesTable
  3
AcMapDisplayManagement
 90
     1024
280
     0
281
     0
  0
CLASS
  1
MAPRESOURCEMANAGEROBJECT
  2
AcMapResourceManager
  3
AcMapSharedComponents
 90
     1024
280
     0
281
     0
  0
CLASS
  1
CELLSTYLEMAP
  2
AcDbCellStyleMap
  3
ObjectDBX Classes
 90
     1152
280
     0
281
     0
  0
ENDSEC
  0
SECTION
  2
TABLES
  0
TABLE
  2
VPORT
  5
7
330
0
100
AcDbSymbolTable
 70
     1
  0
VPORT
  5
15
330
7
100
AcDbSymbolTableRecord
100
AcDbViewportTableRecord
  2
*ACTIVE
 70
     0
 10
0.0
 20
0.0
 11
1.0
 21
1.0
 12
0.0000003477307473
 22
0.0254001311637637
 13
0.0
 23
0.0
 14
1.0
 24
1.0
 15
0.0
 25
0.0
 16
0.0
 26
0.0
 36
1.0
 17
0.0
 27
0.0
 37
0.0
 40
94.4012880608775
 41
1.584710743801652
 42
50.0
 43
0.0
 44
0.0
 50
0.0
 51
0.0
 71
     0
 72
   100
 73
     1
 74
     1
 75
     0
 76
     0
 77
     0
 78
     0
281
     0
 65
     0
110
0.0
120
0.0
130
0.0
111
1.0
121
0.0
131
0.0
112
0.0
122
1.0
132
0.0
 79
     0
146
0.0
1001
ACAD_NAV_VCDISPLAY
1070
     3
  0
ENDTAB
  0
TABLE
  2
LTYPE
  5
4
330
0
100
AcDbSymbolTable
 70
     1
  0
LTYPE
  5
11
330
4
100
AcDbSymbolTableRecord
100
AcDbLinetypeTableRecord
  2
ByBlock
 70
     0
  3

 72
    65
 73
     0
 40
0.0
  0
LTYPE
  5
12
330
4
100
AcDbSymbolTableRecord
100
AcDbLinetypeTableRecord
  2
ByLayer
 70
     0
  3

 72
    65
 73
     0
 40
0.0
  0
LTYPE
  5
13
330
4
100
AcDbSymbolTableRecord
100
AcDbLinetypeTableRecord
  2
Continuous
 70
     0
  3
Solid line
 72
    65
 73
     0
 40
0.0
  0
ENDTAB
  0
TABLE
  2
LAYER
  5
2
330
0
100
AcDbSymbolTable
 70
     2
  0
LAYER
  5
14
102
{ACAD_XDICTIONARY
360
D6
102
}
330
2
100
AcDbSymbolTableRecord
100
AcDbLayerTableRecord
  2
0
 70
     0
 62
     7
  6
Continuous
370
    -3
390
1D
  0
LAYER
  5
24
102
{ACAD_XDICTIONARY
360
D8
102
}
330
2
100
AcDbSymbolTableRecord
100
AcDbLayerTableRecord
  2
Layer 1
 70
     0
 62
     7
  6
Continuous
370
    -3
390
1F
  0
ENDTAB
  0
TABLE
  2
STYLE
  5
3
330
0
100
AcDbSymbolTable
 70
     2
  0
STYLE
  5
17
330
3
100
AcDbSymbolTableRecord
100
AcDbTextStyleTableRecord
  2
Standard
 70
     0
 40
0.0
 41
1.0
 50
0.0
 71
     0
 42
0.0
  3
txt
  4

  0
STYLE
  5
C6
330
3
100
AcDbSymbolTableRecord
100
AcDbTextStyleTableRecord
  2
Legend
 70
     0
 40
0.0
 41
1.0
 50
0.0
 71
     0
 42
0.2
  3

  4

  0
ENDTAB
  0
TABLE
  2
VIEW
  5
5
330
0
100
AcDbSymbolTable
 70
     0
  0
ENDTAB
  0
TABLE
  2
UCS
  5
6
330
0
100
AcDbSymbolTable
 70
     0
  0
ENDTAB
  0
TABLE
  2
APPID
  5
8
330
0
100
AcDbSymbolTable
 70
     7
  0
APPID
  5
16
330
8
100
AcDbSymbolTableRecord
100
AcDbRegAppTableRecord
  2
ACAD
 70
     0
  0
APPID
  5
CA
330
8
100
AcDbSymbolTableRecord
100
AcDbRegAppTableRecord
  2
AcMapDMDisplayStyleRegapp
 70
     0
  0
APPID
  5
D2
330
8
100
AcDbSymbolTableRecord
100
AcDbRegAppTableRecord
  2
ADE
 70
     0
  0
APPID
  5
DC
330
8
100
AcDbSymbolTableRecord
100
AcDbRegAppTableRecord
  2
DCO15
 70
     0
  0
APPID
  5
DE
330
8
100
AcDbSymbolTableRecord
100
AcDbRegAppTableRecord
  2
MapGWS
 70
     0
  0
APPID
  5
E7
330
8
100
AcDbSymbolTableRecord
100
AcDbRegAppTableRecord
  2
ACAD_NAV_VCDISPLAY
 70
     0
  0
APPID
  5
126
330
8
100
AcDbSymbolTableRecord
100
AcDbRegAppTableRecord
  2
ACAD_MLEADERVER
 70
     0
  0
ENDTAB
  0
TABLE
  2
DIMSTYLE
  5
9
330
0
100
AcDbSymbolTable
 70
     1
100
AcDbDimStyleTable
 71
     0
  0
DIMSTYLE
105
18
330
9
100
AcDbSymbolTableRecord
100
AcDbDimStyleTableRecord
  2
Standard
 70
     0
340
17
  0
ENDTAB
  0
TABLE
  2
BLOCK_RECORD
  5
1
330
0
100
AcDbSymbolTable
 70
     0
  0
BLOCK_RECORD
  5
A
102
{ACAD_XDICTIONARY
360
CE
102
}
330
1
100
AcDbSymbolTableRecord
100
AcDbBlockTableRecord
  2
*MODEL_SPACE
340
20
  0
BLOCK_RECORD
  5
B
330
1
100
AcDbSymbolTableRecord
100
AcDbBlockTableRecord
  2
*PAPER_SPACE
340
21
  0
ENDTAB
  0
ENDSEC
  0
SECTION
  2
BLOCKS
  0
BLOCK
  5
D
330
A
100
AcDbEntity
  8
0
100
AcDbBlockBegin
  2
*MODEL_SPACE
 70
     0
 10
0.0
 20
0.0
 30
0.0
  3
*MODEL_SPACE
  1

  0
ENDBLK
  5
E
330
A
100
AcDbEntity
  8
0
100
AcDbBlockEnd
  0
BLOCK
  5
F
330
B
100
AcDbEntity
 67
     1
  8
0
100
AcDbBlockBegin
  2
*PAPER_SPACE
 70
     0
 10
0.0
 20
0.0
 30
0.0
  3
*PAPER_SPACE
  1

  0
ENDBLK
  5
10
330
B
100
AcDbEntity
 67
     1
  8
0
100
AcDbBlockEnd
  0
ENDSEC
  0
SECTION
  2
ENTITIES
  0
SPLINE
  5
25
330
A
100
AcDbEntity
  8
Layer 1
100
AcDbSpline
210
0.0
220
0.0
230
1.0
 70
     9
 71
     3
 72
    20
 73
    16
 74
     0
 42
0.0000000001
 43
0.0000000001
 40
0.0
 40
0.0
 40
0.0
 40
0.0
 40
0.25
 40
0.25
 40
0.25
 40
0.25
 40
0.5
 40
0.5
 40
0.5
 40
0.5
 40
0.75
 40
0.75
 40
0.75
 40
0.75
 40
1.0
 40
1.0
 40
1.0
 40
1.0
 10
49.6316
 20
-17.7292
 30
0.0
 10
49.6316
 20
-17.0434
 30
0.0
 10
50.038
 20
-16.4338
 30
0.0
 10
50.7746
 20
-16.4338
 30
0.0
 10
50.7746
 20
-16.4338
 30
0.0
 10
51.5112
 20
-16.4338
 30
0.0
 10
51.8922
 20
-17.0434
 30
0.0
 10
51.8922
 20
-17.7292
 30
0.0
 10
51.8922
 20
-17.7292
 30
0.0
 10
51.8922
 20
-18.4404
 30
0.0
 10
51.5112
 20
-18.9738
 30
0.0
 10
50.7746
 20
-18.9738
 30
0.0
 10
50.7746
 20
-18.9738
 30
0.0
 10
50.038
 20
-18.9738
 30
0.0
 10
49.6316
 20
-18.4404
 30
0.0
 10
49.6316
 20
-17.7292
 30
0.0
  0
SPLINE
  5
26
330
A
100
AcDbEntity
  8
Layer 1
100
AcDbSpline
210
0.0
220
0.0
230
1.0
 70
    24
 71
     3
 72
     8
 73
     4
 74
     0
 42
0.0000000001
 43
0.0000000001
 40
0.0
 40
0.0
 40
0.0
 40
0.0
 40
1.0
 40
1.0
 40
1.0
 40
1.0
 10
54.1528
 20
-17.6784
 30
0.0
 10
54.1528
 20
-17.6784
 30
0.0
 10
52.832
 20
-17.6784
 30
0.0
 10
52.832
 20
-17.6784
 30
0.0
  0
SPLINE
  5
27
330
A
100
AcDbEntity
  8
Layer 1
100
AcDbSpline
210
0.0
220
0.0
230
1.0
 70
     8
 71
     3
 72
    16
 73
    12
 74
     0
 42
0.0000000001
 43
0.0000000001
 40
0.0
 40
0.0
 40
0.0
 40
0.0
 40
0.3333333333333333
 40
0.3333333333333333
 40
0.3333333333333333
 40
0.3333333333333333
 40
0.6666666666666666
 40
0.6666666666666666
 40
0.6666666666666666
 40
0.6666666666666666
 40
1.0
 40
1.0
 40
1.0
 40
1.0
 10
52.832
 20
-18.9484
 30
0.0
 10
52.832
 20
-18.9484
 30
0.0
 10
52.832
 20
-17.145
 30
0.0
 10
52.832
 20
-17.145
 30
0.0
 10
52.832
 20
-17.145
 30
0.0
 10
52.832
 20
-17.145
 30
0.0
 10
52.832
 20
-16.51
 30
0.0
 10
52.832
 20
-16.51
 30
0.0
 10
52.832
 20
-16.51
 30
0.0
 10
52.832
 20
-16.51
 30
0.0
 10
54.3306
 20
-16.51
 30
0.0
 10
54.3306
 20
-16.51
 30
0.0
  0
SPLINE
  5
28
330
A
100
AcDbEntity
  8
Layer 1
100
AcDbSpline
210
0.0
220
0.0
230
1.0
 70
    24
 71
     3
 72
     8
 73
     4
 74
     0
 42
0.0000000001
 43
0.0000000001
 40
0.0
 40
0.0
 40
0.0
 40
0.0
 40
1.0
 40
1.0
 40
1.0
 40
1.0
 10
56.3372
 20
-17.6784
 30
0.0
 10
56.3372
 20
-17.6784
 30
0.0
 10
55.0164
 20
-17.6784
 30
0.0
 10
55.0164
 20
-17.6784
 30
0.0
  0
SPLINE
  5
29
330
A
100
AcDbEntity
  8
Layer 1
100
AcDbSpline
210
0.0
220
0.0
230
1.0
 70
     8
 71
     3
 72
    16
 73
    12
 74
     0
 42
0.0000000001
 43
0.0000000001
 40
0.0
 40
0.0
 40
0.0
 40
0.0
 40
0.3333333333333333
 40
0.3333333333333333
 40
0.3333333333333333
 40
0.3333333333333333
 40
0.6666666666666666
 40
0.6666666666666666
 40
0.6666666666666666
 40
0.6666666666666666
 40
1.0
 40
1.0
 40
1.0
 40
1.0
 10
55.0164
 20
-18.9484
 30
0.0
 10
55.0164
 20
-18.9484
 30
0.0
 10
55.0164
 20
-17.145
 30
0.0
 10
55.0164
 20
-17.145
 30
0.0
 10
55.0164
 20
-17.145
 30
0.0
 10
55.0164
 20
-17.145
 30
0.0
 10
55.0164
 20
-16.51
 30
0.0
 10
55.0164
 20
-16.51
 30
0.0
 10
55.0164
 20
-16.51
 30
0.0
 10
55.0164
 20
-16.51
 30
0.0
 10
56.515
 20
-16.51
 30
0.0
 10
56.515
 20
-16.51
 30
0.0
  0
SPLINE
  5
2A
330
A
100
AcDbEntity
  8
Layer 1
100
AcDbSpline
210
0.0
220
0.0
230
1.0
 70
     9
 71
     3
 72
    20
 73
    16
 74
     0
 42
0.0000000001
 43
0.0000000001
 40
0.0
 40
0.0
 40
0.0
 40
0.0
 40
0.25
 40
0.25
 40
0.25
 40
0.25
 40
0.5
 40
0.5
 40
0.5
 40
0.5
 40
0.75
 40
0.75
 40
0.75
 40
0.75
 40
1.0
 40
1.0
 40
1.0
 40
1.0
 10
50.62219999999999
 20
13.2588
 30
0.0
 10
50.62219999999999
 20
13.9446
 30
0.0
 10
51.02859999999999
 20
14.5542
 30
0.0
 10
51.7652
 20
14.5542
 30
0.0
 10
51.7652
 20
14.5542
 30
0.0
 10
52.5018
 20
14.5542
 30
0.0
 10
52.8828
 20
13.9446
 30
0.0
 10
52.8828
 20
13.2588
 30
0.0
 10
52.8828
 20
13.2588
 30
0.0
 10
52.8828
 20
12.5476
 30
0.0
 10
52.5018
 20
12.0142
 30
0.0
 10
51.7652
 20
12.0142
 30
0.0
 10
51.7652
 20
12.0142
 30
0.0
 10
51.02859999999999
 20
12.0142
 30
0.0
 10
50.62219999999999
 20
12.5476
 30
0.0
 10
50.62219999999999
 20
13.2588
 30
0.0
  0
SPLINE
  5
2B
330
A
100
AcDbEntity
  8
Layer 1
100
AcDbSpline
210
0.0
220
0.0
230
1.0
 70
     8
 71
     3
 72
    36
 73
    32
 74
     0
 42
0.0000000001
 43
0.0000000001
 40
0.0
 40
0.0
 40
0.0
 40
0.0
 40
0.125
 40
0.125
 40
0.125
 40
0.125
 40
0.25
 40
0.25
 40
0.25
 40
0.25
 40
0.375
 40
0.375
 40
0.375
 40
0.375
 40
0.5
 40
0.5
 40
0.5
 40
0.5
 40
0.625
 40
0.625
 40
0.625
 40
0.625
 40
0.75
 40
0.75
 40
0.75
 40
0.75
 40
0.875
 40
0.875
 40
0.875
 40
0.875
 40
1.0
 40
1.0
 40
1.0
 40
1.0
 10
53.8226
 20
12.0396
 30
0.0
 10
53.8226
 20
12.0396
 30
0.0
 10
53.8226
 20
13.843
 30
0.0
 10
53.8226
 20
13.843
 30
0.0
 10
53.8226
 20
13.843
 30
0.0
 10
53.8226
 20
13.843
 30
0.0
 10
53.8226
 20
14.478
 30
0.0
 10
53.8226
 20
14.478
 30
0.0
 10
53.8226
 20
14.478
 30
0.0
 10
53.8226
 20
14.478
 30
0.0
 10
53.8988
 20
14.478
 30
0.0
 10
53.8988
 20
14.478
 30
0.0
 10
53.8988
 20
14.478
 30
0.0
 10
53.8988
 20
14.478
 30
0.0
 10
55.1688
 20
12.6746
 30
0.0
 10
55.1688
 20
12.6746
 30
0.0
 10
55.1688
 20
12.6746
 30
0.0
 10
55.1688
 20
12.6746
 30
0.0
 10
55.62599999999999
 20
12.0396
 30
0.0
 10
55.62599999999999
 20
12.0396
 30
0.0
 10
55.62599999999999
 20
12.0396
 30
0.0
 10
55.62599999999999
 20
12.0396
 30
0.0
 10
55.6768
 20
12.0396
 30
0.0
 10
55.6768
 20
12.0396
 30
0.0
 10
55.6768
 20
12.0396
 30
0.0
 10
55.6768
 20
12.0396
 30
0.0
 10
55.6768
 20
13.843
 30
0.0
 10
55.6768
 20
13.843
 30
0.0
 10
55.6768
 20
13.843
 30
0.0
 10
55.6768
 20
13.843
 30
0.0
 10
55.6768
 20
14.478
 30
0.0
 10
55.6768
 20
14.478
 30
0.0
  0
SPLINE
  5
2C
330
A
100
AcDbEntity
  8
Layer 1
100
AcDbSpline
210
0.0
220
0.0
230
1.0
 70
    24
 71
     3
 72
     8
 73
     4
 74
     0
 42
0.0000000001
 43
0.0000000001
 40
0.0
 40
0.0
 40
0.0
 40
0.0
 40
1.0
 40
1.0
 40
1.0
 40
1.0
 10
52.9844
 20
-9.9314
 30
0.0
 10
52.9844
 20
-9.9314
 30
0.0
 10
52.9844
 20
-9.6774
 30
0.0
 10
52.9844
 20
-9.6774
 30
0.0
  0
SPLINE
  5
2D
330
A
100
AcDbEntity
  8
Layer 1
100
AcDbSpline
210
0.0
220
0.0
230
1.0
 70
     8
 71
     3
 72
    48
 73
    44
 74
     0
 42
0.0000000001
 43
0.0000000001
 40
0.0
 40
0.0
 40
0.0
 40
0.0
 40
0.0909090909090909
 40
0.0909090909090909
 40
0.0909090909090909
 40
0.0909090909090909
 40
0.1818181818181818
 40
0.1818181818181818
 40
0.1818181818181818
 40
0.1818181818181818
 40
0.2727272727272727
 40
0.2727272727272727
 40
0.2727272727272727
 40
0.2727272727272727
 40
0.3636363636363637
 40
0.3636363636363637
 40
0.3636363636363637
 40
0.3636363636363637
 40
0.4545454545454546
 40
0.4545454545454546
 40
0.4545454545454546
 40
0.4545454545454546
 40
0.5454545454545455
 40
0.5454545454545455
 40
0.5454545454545455
 40
0.5454545454545455
 40
0.6363636363636365
 40
0.6363636363636365
 40
0.6363636363636365
 40
0.6363636363636365
 40
0.7272727272727275
 40
0.7272727272727275
 40
0.7272727272727275
 40
0.7272727272727275
 40
0.8181818181818183
 40
0.8181818181818183
 40
0.8181818181818183
 40
0.8181818181818183
 40
0.9090909090909091
 40
0.9090909090909091
 40
0.9090909090909091
 40
0.9090909090909091
 40
1.0
 40
1.0
 40
1.0
 40
1.0
 10
48.2092
 20
-3.4544
 30
0.0
 10
48.2092
 20
-3.4544
 30
0.0
 10
48.2092
 20
-1.650999999999999
 30
0.0
 10
48.2092
 20
-1.650999999999999
 30
0.0
 10
48.2092
 20
-1.650999999999999
 30
0.0
 10
48.2092
 20
-1.650999999999999
 30
0.0
 10
48.2092
 20
-1.016
 30
0.0
 10
48.2092
 20
-1.016
 30
0.0
 10
48.2092
 20
-1.016
 30
0.0
 10
48.2092
 20
-1.016
 30
0.0
 10
48.2854
 20
-1.016
 30
0.0
 10
48.2854
 20
-1.016
 30
0.0
 10
48.2854
 20
-1.016
 30
0.0
 10
48.2854
 20
-1.016
 30
0.0
 10
49.0728
 20
-2.819399999999999
 30
0.0
 10
49.0728
 20
-2.819399999999999
 30
0.0
 10
49.0728
 20
-2.819399999999999
 30
0.0
 10
49.0728
 20
-2.819399999999999
 30
0.0
 10
49.35220000000001
 20
-3.4544
 30
0.0
 10
49.35220000000001
 20
-3.4544
 30
0.0
 10
49.35220000000001
 20
-3.4544
 30
0.0
 10
49.35220000000001
 20
-3.4544
 30
0.0
 10
49.3776
 20
-3.4544
 30
0.0
 10
49.3776
 20
-3.4544
 30
0.0
 10
49.3776
 20
-3.4544
 30
0.0
 10
49.3776
 20
-3.4544
 30
0.0
 10
50.1904
 20
-1.650999999999999
 30
0.0
 10
50.1904
 20
-1.650999999999999
 30
0.0
 10
50.1904
 20
-1.650999999999999
 30
0.0
 10
50.1904
 20
-1.650999999999999
 30
0.0
 10
50.4698
 20
-1.016
 30
0.0
 10
50.4698
 20
-1.016
 30
0.0
 10
50.4698
 20
-1.016
 30
0.0
 10
50.4698
 20
-1.016
 30
0.0
 10
50.5206
 20
-1.016
 30
0.0
 10
50.5206
 20
-1.016
 30
0.0
 10
50.5206
 20
-1.016
 30
0.0
 10
50.5206
 20
-1.016
 30
0.0
 10
50.5206
 20
-2.819399999999999
 30
0.0
 10
50.5206
 20
-2.819399999999999
 30
0.0
 10
50.5206
 20
-2.819399999999999
 30
0.0
 10
50.5206
 20
-2.819399999999999
 30
0.0
 10
50.5206
 20
-3.4544
 30
0.0
 10
50.5206
 20
-3.4544
 30
0.0
  0
SPLINE
  5
2E
330
A
100
AcDbEntity
  8
Layer 1
100
AcDbSpline
210
0.0
220
0.0
230
1.0
 70
     8
 71
     3
 72
    40
 73
    36
 74
     0
 42
0.0000000001
 43
0.0000000001
 40
0.0
 40
0.0
 40
0.0
 40
0.0
 40
0.1111111111111111
 40
0.1111111111111111
 40
0.1111111111111111
 40
0.1111111111111111
 40
0.2222222222222222
 40
0.2222222222222222
 40
0.2222222222222222
 40
0.2222222222222222
 40
0.3333333333333333
 40
0.3333333333333333
 40
0.3333333333333333
 40
0.3333333333333333
 40
0.4444444444444445
 40
0.4444444444444445
 40
0.4444444444444445
 40
0.4444444444444445
 40
0.5555555555555556
 40
0.5555555555555556
 40
0.5555555555555556
 40
0.5555555555555556
 40
0.6666666666666668
 40
0.6666666666666668
 40
0.6666666666666668
 40
0.6666666666666668
 40
0.7777777777777779
 40
0.7777777777777779
 40
0.7777777777777779
 40
0.7777777777777779
 40
0.8888888888888891
 40
0.8888888888888891
 40
0.8888888888888891
 40
0.8888888888888891
 40
1.0
 40
1.0
 40
1.0
 40
1.0
 10
51.5874
 20
-2.1082
 30
0.0
 10
51.6636
 20
-1.8288
 30
0.0
 10
51.8414
 20
-1.676399999999999
 30
0.0
 10
52.24779999999999
 20
-1.676399999999999
 30
0.0
 10
52.24779999999999
 20
-1.676399999999999
 30
0.0
 10
52.6542
 20
-1.676399999999999
 30
0.0
 10
52.7812
 20
-1.8542
 30
0.0
 10
52.80660000000001
 20
-2.235199999999999
 30
0.0
 10
52.80660000000001
 20
-2.235199999999999
 30
0.0
 10
52.7812
 20
-2.489199999999999
 30
0.0
 10
52.55259999999999
 20
-2.5146
 30
0.0
 10
52.0954
 20
-2.54
 30
0.0
 10
52.0954
 20
-2.54
 30
0.0
 10
51.5366
 20
-2.565399999999999
 30
0.0
 10
51.435
 20
-2.793999999999999
 30
0.0
 10
51.4604
 20
-3.048
 30
0.0
 10
51.4604
 20
-3.048
 30
0.0
 10
51.48579999999999
 20
-3.302
 30
0.0
 10
51.6382
 20
-3.4798
 30
0.0
 10
52.07
 20
-3.4798
 30
0.0
 10
52.07
 20
-3.4798
 30
0.0
 10
52.4764
 20
-3.4798
 30
0.0
 10
52.80660000000001
 20
-3.174999999999999
 30
0.0
 10
52.80660000000001
 20
-2.7686
 30
0.0
 10
52.80660000000001
 20
-2.7686
 30
0.0
 10
52.80660000000001
 20
-2.7686
 30
0.0
 10
52.80660000000001
 20
-2.235199999999999
 30
0.0
 10
52.80660000000001
 20
-2.235199999999999
 30
0.0
 10
52.80660000000001
 20
-2.235199999999999
 30
0.0
 10
52.80660000000001
 20
-2.235199999999999
 30
0.0
 10
52.80660000000001
 20
-3.2766
 30
0.0
 10
52.80660000000001
 20
-3.2766
 30
0.0
 10
52.80660000000001
 20
-3.2766
 30
0.0
 10
52.80660000000001
 20
-3.403599999999999
 30
0.0
 10
52.8574
 20
-3.4798
 30
0.0
 10
53.0352
 20
-3.4544
 30
0.0
  0
SPLINE
  5
2F
330
A
100
AcDbEntity
  8
Layer 1
100
AcDbSpline
210
0.0
220
0.0
230
1.0
 70
    24
 71
     3
 72
     8
 73
     4
 74
     0
 42
0.0000000001
 43
0.0000000001
 40
0.0
 40
0.0
 40
0.0
 40
0.0
 40
1.0
 40
1.0
 40
1.0
 40
1.0
 10
53.848
 20
-1.701799999999999
 30
0.0
 10
53.848
 20
-1.701799999999999
 30
0.0
 10
53.848
 20
-3.4544
 30
0.0
 10
53.848
 20
-3.4544
 30
0.0
  0
SPLINE
  5
30
330
A
100
AcDbEntity
  8
Layer 1
100
AcDbSpline
210
0.0
220
0.0
230
1.0
 70
    24
 71
     3
 72
     8
 73
     4
 74
     0
 42
0.0000000001
 43
0.0000000001
 40
0.0
 40
0.0
 40
0.0
 40
0.0
 40
1.0
 40
1.0
 40
1.0
 40
1.0
 10
53.848
 20
-1.193799999999999
 30
0.0
 10
53.848
 20
-1.193799999999999
 30
0.0
 10
53.848
 20
-1.0414
 30
0.0
 10
53.848
 20
-1.0414
 30
0.0
  0
SPLINE
  5
31
330
A
100
AcDbEntity
  8
Layer 1
100
AcDbSpline
210
0.0
220
0.0
230
1.0
 70
     8
 71
     3
 72
    24
 73
    20
 74
     0
 42
0.0000000001
 43
0.0000000001
 40
0.0
 40
0.0
 40
0.0
 40
0.0
 40
0.2
 40
0.2
 40
0.2
 40
0.2
 40
0.4
 40
0.4
 40
0.4
 40
0.4
 40
0.6000000000000001
 40
0.6000000000000001
 40
0.6000000000000001
 40
0.6000000000000001
 40
0.8
 40
0.8
 40
0.8
 40
0.8
 40
1.0
 40
1.0
 40
1.0
 40
1.0
 10
54.9148
 20
-1.701799999999999
 30
0.0
 10
54.9148
 20
-1.701799999999999
 30
0.0
 10
54.9148
 20
-3.4544
 30
0.0
 10
54.9148
 20
-3.4544
 30
0.0
 10
54.9148
 20
-3.4544
 30
0.0
 10
54.9148
 20
-3.4544
 30
0.0
 10
54.9148
 20
-2.412999999999999
 30
0.0
 10
54.9148
 20
-2.412999999999999
 30
0.0
 10
54.9148
 20
-2.412999999999999
 30
0.0
 10
54.9148
 20
-2.3368
 30
0.0
 10
54.99100000000001
 20
-1.676399999999999
 30
0.0
 10
55.6006
 20
-1.676399999999999
 30
0.0
 10
55.6006
 20
-1.676399999999999
 30
0.0
 10
56.0324
 20
-1.676399999999999
 30
0.0
 10
56.2102
 20
-2.0066
 30
0.0
 10
56.2102
 20
-2.286
 30
0.0
 10
56.2102
 20
-2.286
 30
0.0
 10
56.2102
 20
-2.286
 30
0.0
 10
56.2102
 20
-3.4544
 30
0.0
 10
56.2102
 20
-3.4544
 30
0.0
  0
SPLINE
  5
32
330
A
100
AcDbEntity
  8
Layer 1
100
AcDbSpline
210
0.0
220
0.0
230
1.0
 70
     8
 71
     3
 72
    32
 73
    28
 74
     0
 42
0.0000000001
 43
0.0000000001
 40
0.0
 40
0.0
 40
0.0
 40
0.0
 40
0.1428571428571429
 40
0.1428571428571429
 40
0.1428571428571429
 40
0.1428571428571429
 40
0.2857142857142857
 40
0.2857142857142857
 40
0.2857142857142857
 40
0.2857142857142857
 40
0.4285714285714287
 40
0.4285714285714287
 40
0.4285714285714287
 40
0.4285714285714287
 40
0.5714285714285714
 40
0.5714285714285714
 40
0.5714285714285714
 40
0.5714285714285714
 40
0.7142857142857143
 40
0.7142857142857143
 40
0.7142857142857143
 40
0.7142857142857143
 40
0.8571428571428569
 40
0.8571428571428569
 40
0.8571428571428569
 40
0.8571428571428569
 40
1.0
 40
1.0
 40
1.0
 40
1.0
 10
57.1754
 20
-2.971799999999999
 30
0.0
 10
57.2262
 20
-3.352799999999999
 30
0.0
 10
57.53099999999999
 20
-3.4798
 30
0.0
 10
57.8866
 20
-3.4798
 30
0.0
 10
57.8866
 20
-3.4798
 30
0.0
 10
57.8866
 20
-3.4798
 30
0.0
 10
57.91199999999999
 20
-3.4798
 30
0.0
 10
57.91199999999999
 20
-3.4798
 30
0.0
 10
57.91199999999999
 20
-3.4798
 30
0.0
 10
58.1914
 20
-3.4798
 30
0.0
 10
58.4962
 20
-3.352799999999999
 30
0.0
 10
58.4962
 20
-3.0226
 30
0.0
 10
58.4962
 20
-3.0226
 30
0.0
 10
58.4962
 20
-2.666999999999999
 30
0.0
 10
58.1152
 20
-2.641599999999999
 30
0.0
 10
57.8612
 20
-2.565399999999999
 30
0.0
 10
57.8612
 20
-2.565399999999999
 30
0.0
 10
57.55639999999999
 20
-2.463799999999999
 30
0.0
 10
57.2516
 20
-2.463799999999999
 30
0.0
 10
57.2516
 20
-2.1082
 30
0.0
 10
57.2516
 20
-2.1082
 30
0.0
 10
57.2516
 20
-1.752599999999999
 30
0.0
 10
57.5818
 20
-1.676399999999999
 30
0.0
 10
57.8612
 20
-1.676399999999999
 30
0.0
 10
57.8612
 20
-1.676399999999999
 30
0.0
 10
58.166
 20
-1.676399999999999
 30
0.0
 10
58.3692
 20
-1.778
 30
0.0
 10
58.42
 20
-2.057399999999999
 30
0.0
  0
SPLINE
  5
33
330
A
100
AcDbEntity
  8
Layer 1
100
AcDbSpline
210
0.0
220
0.0
230
1.0
 70
    24
 71
     3
 72
     8
 73
     4
 74
     0
 42
0.0000000001
 43
0.0000000001
 40
0.0
 40
0.0
 40
0.0
 40
0.0
 40
1.0
 40
1.0
 40
1.0
 40
1.0
 10
52.9844
 20
5.562599999999999
 30
0.0
 10
52.9844
 20
5.562599999999999
 30
0.0
 10
52.9844
 20
5.8166
 30
0.0
 10
52.9844
 20
5.8166
 30
0.0
  0
SPLINE
  5
34
330
A
100
AcDbEntity
  8
Layer 1
100
AcDbSpline
210
0.0
220
0.0
230
1.0
 70
     9
 71
     3
 72
    20
 73
    16
 74
     0
 42
0.0000000001
 43
0.0000000001
 40
0.0
 40
0.0
 40
0.0
 40
0.0
 40
0.25
 40
0.25
 40
0.25
 40
0.25
 40
0.5
 40
0.5
 40
0.5
 40
0.5
 40
0.75
 40
0.75
 40
0.75
 40
0.75
 40
1.0
 40
1.0
 40
1.0
 40
1.0
 10
-56.8706
 20
1.27
 30
0.0
 10
-56.8706
 20
1.955799999999999
 30
0.0
 10
-56.46419999999999
 20
2.565399999999999
 30
0.0
 10
-55.7276
 20
2.565399999999999
 30
0.0
 10
-55.7276
 20
2.565399999999999
 30
0.0
 10
-54.99100000000001
 20
2.565399999999999
 30
0.0
 10
-54.61
 20
1.955799999999999
 30
0.0
 10
-54.61
 20
1.27
 30
0.0
 10
-54.61
 20
1.27
 30
0.0
 10
-54.61
 20
0.5588
 30
0.0
 10
-54.99100000000001
 20
0.0254
 30
0.0
 10
-55.7276
 20
0.0254
 30
0.0
 10
-55.7276
 20
0.0254
 30
0.0
 10
-56.46419999999999
 20
0.0254
 30
0.0
 10
-56.8706
 20
0.5588
 30
0.0
 10
-56.8706
 20
1.27
 30
0.0
  0
SPLINE
  5
35
330
A
100
AcDbEntity
  8
Layer 1
100
AcDbSpline
210
0.0
220
0.0
230
1.0
 70
     8
 71
     3
 72
    24
 73
    20
 74
     0
 42
0.0000000001
 43
0.0000000001
 40
0.0
 40
0.0
 40
0.0
 40
0.0
 40
0.2
 40
0.2
 40
0.2
 40
0.2
 40
0.4
 40
0.4
 40
0.4
 40
0.4
 40
0.6000000000000001
 40
0.6000000000000001
 40
0.6000000000000001
 40
0.6000000000000001
 40
0.8
 40
0.8
 40
0.8
 40
0.8
 40
1.0
 40
1.0
 40
1.0
 40
1.0
 10
-53.6448
 20
1.803399999999999
 30
0.0
 10
-53.6448
 20
1.803399999999999
 30
0.0
 10
-53.6448
 20
0.6096
 30
0.0
 10
-53.6448
 20
0.6096
 30
0.0
 10
-53.6448
 20
0.6096
 30
0.0
 10
-53.6448
 20
0.3302
 30
0.0
 10
-53.4924
 20
0.0254
 30
0.0
 10
-53.0606
 20
0.0254
 30
0.0
 10
-53.0606
 20
0.0254
 30
0.0
 10
-52.4256
 20
0.0254
 30
0.0
 10
-52.3494
 20
0.6604
 30
0.0
 10
-52.3494
 20
0.762
 30
0.0
 10
-52.3494
 20
0.762
 30
0.0
 10
-52.3494
 20
0.762
 30
0.0
 10
-52.3494
 20
1.803399999999999
 30
0.0
 10
-52.3494
 20
1.803399999999999
 30
0.0
 10
-52.3494
 20
1.803399999999999
 30
0.0
 10
-52.3494
 20
1.803399999999999
 30
0.0
 10
-52.3494
 20
0.0508
 30
0.0
 10
-52.3494
 20
0.0508
 30
0.0
  0
SPLINE
  5
36
330
A
100
AcDbEntity
  8
Layer 1
100
AcDbSpline
210
0.0
220
0.0
230
1.0
 70
    24
 71
     3
 72
     8
 73
     4
 74
     0
 42
0.0000000001
 43
0.0000000001
 40
0.0
 40
0.0
 40
0.0
 40
0.0
 40
1.0
 40
1.0
 40
1.0
 40
1.0
 10
-51.5112
 20
1.778
 30
0.0
 10
-51.5112
 20
1.778
 30
0.0
 10
-50.7492
 20
1.778
 30
0.0
 10
-50.7492
 20
1.778
 30
0.0
  0
SPLINE
  5
37
330
A
100
AcDbEntity
  8
Layer 1
100
AcDbSpline
210
0.0
220
0.0
230
1.0
 70
     8
 71
     3
 72
    16
 73
    12
 74
     0
 42
0.0000000001
 43
0.0000000001
 40
0.0
 40
0.0
 40
0.0
 40
0.0
 40
0.3333333333333333
 40
0.3333333333333333
 40
0.3333333333333333
 40
0.3333333333333333
 40
0.6666666666666666
 40
0.6666666666666666
 40
0.6666666666666666
 40
0.6666666666666666
 40
1.0
 40
1.0
 40
1.0
 40
1.0
 10
-51.181
 20
2.3622
 30
0.0
 10
-51.181
 20
2.3622
 30
0.0
 10
-51.181
 20
0.5588
 30
0.0
 10
-51.181
 20
0.5588
 30
0.0
 10
-51.181
 20
0.5588
 30
0.0
 10
-51.181
 20
0.5588
 30
0.0
 10
-51.181
 20
0.381
 30
0.0
 10
-51.181
 20
0.381
 30
0.0
 10
-51.181
 20
0.381
 30
0.0
 10
-51.181
 20
0.0508
 30
0.0
 10
-50.9778
 20
0.0254
 30
0.0
 10
-50.7746
 20
0.0508
 30
0.0
  0
SPLINE
  5
38
330
A
100
AcDbEntity
  8
Layer 1
100
AcDbSpline
210
0.0
220
0.0
230
1.0
 70
     8
 71
     3
 72
    28
 73
    24
 74
     0
 42
0.0000000001
 43
0.0000000001
 40
0.0
 40
0.0
 40
0.0
 40
0.0
 40
0.1666666666666667
 40
0.1666666666666667
 40
0.1666666666666667
 40
0.1666666666666667
 40
0.3333333333333333
 40
0.3333333333333333
 40
0.3333333333333333
 40
0.3333333333333333
 40
0.5
 40
0.5
 40
0.5
 40
0.5
 40
0.6666666666666666
 40
0.6666666666666666
 40
0.6666666666666666
 40
0.6666666666666666
 40
0.8333333333333332
 40
0.8333333333333332
 40
0.8333333333333332
 40
0.8333333333333332
 40
1.0
 40
1.0
 40
1.0
 40
1.0
 10
-48.6156
 20
2.489199999999999
 30
0.0
 10
-48.6156
 20
2.489199999999999
 30
0.0
 10
-46.9392
 20
2.489199999999999
 30
0.0
 10
-46.9392
 20
2.489199999999999
 30
0.0
 10
-46.9392
 20
2.489199999999999
 30
0.0
 10
-46.9392
 20
2.489199999999999
 30
0.0
 10
-46.9392
 20
2.463799999999999
 30
0.0
 10
-46.9392
 20
2.463799999999999
 30
0.0
 10
-46.9392
 20
2.463799999999999
 30
0.0
 10
-46.9392
 20
2.463799999999999
 30
0.0
 10
-48.2854
 20
0.6604
 30
0.0
 10
-48.2854
 20
0.6604
 30
0.0
 10
-48.2854
 20
0.6604
 30
0.0
 10
-48.2854
 20
0.6604
 30
0.0
 10
-48.6918
 20
0.1016
 30
0.0
 10
-48.6918
 20
0.1016
 30
0.0
 10
-48.6918
 20
0.1016
 30
0.0
 10
-48.6918
 20
0.1016
 30
0.0
 10
-48.6918
 20
0.0508
 30
0.0
 10
-48.6918
 20
0.0508
 30
0.0
 10
-48.6918
 20
0.0508
 30
0.0
 10
-48.6918
 20
0.0508
 30
0.0
 10
-46.9138
 20
0.0508
 30
0.0
 10
-46.9138
 20
0.0508
 30
0.0
  0
SPLINE
  5
39
330
A
100
AcDbEntity
  8
Layer 1
100
AcDbSpline
210
0.0
220
0.0
230
1.0
 70
     9
 71
     3
 72
    20
 73
    16
 74
     0
 42
0.0000000001
 43
0.0000000001
 40
0.0
 40
0.0
 40
0.0
 40
0.0
 40
0.25
 40
0.25
 40
0.25
 40
0.25
 40
0.5
 40
0.5
 40
0.5
 40
0.5
 40
0.75
 40
0.75
 40
0.75
 40
0.75
 40
1.0
 40
1.0
 40
1.0
 40
1.0
 10
-6.857999999999999
 20
1.27
 30
0.0
 10
-6.857999999999999
 20
1.955799999999999
 30
0.0
 10
-6.4516
 20
2.565399999999999
 30
0.0
 10
-5.714999999999999
 20
2.565399999999999
 30
0.0
 10
-5.714999999999999
 20
2.565399999999999
 30
0.0
 10
-4.978399999999999
 20
2.565399999999999
 30
0.0
 10
-4.5974
 20
1.955799999999999
 30
0.0
 10
-4.5974
 20
1.27
 30
0.0
 10
-4.5974
 20
1.27
 30
0.0
 10
-4.5974
 20
0.5588
 30
0.0
 10
-4.978399999999999
 20
0.0254
 30
0.0
 10
-5.714999999999999
 20
0.0254
 30
0.0
 10
-5.714999999999999
 20
0.0254
 30
0.0
 10
-6.4516
 20
0.0254
 30
0.0
 10
-6.857999999999999
 20
0.5588
 30
0.0
 10
-6.857999999999999
 20
1.27
 30
0.0
  0
SPLINE
  5
3A
330
A
100
AcDbEntity
  8
Layer 1
100
AcDbSpline
210
0.0
220
0.0
230
1.0
 70
     8
 71
     3
 72
    24
 73
    20
 74
     0
 42
0.0000000001
 43
0.0000000001
 40
0.0
 40
0.0
 40
0.0
 40
0.0
 40
0.2
 40
0.2
 40
0.2
 40
0.2
 40
0.4
 40
0.4
 40
0.4
 40
0.4
 40
0.6000000000000001
 40
0.6000000000000001
 40
0.6000000000000001
 40
0.6000000000000001
 40
0.8
 40
0.8
 40
0.8
 40
0.8
 40
1.0
 40
1.0
 40
1.0
 40
1.0
 10
-3.6322
 20
1.803399999999999
 30
0.0
 10
-3.6322
 20
1.803399999999999
 30
0.0
 10
-3.6322
 20
0.6096
 30
0.0
 10
-3.6322
 20
0.6096
 30
0.0
 10
-3.6322
 20
0.6096
 30
0.0
 10
-3.6322
 20
0.3302
 30
0.0
 10
-3.4798
 20
0.0254
 30
0.0
 10
-3.048
 20
0.0254
 30
0.0
 10
-3.048
 20
0.0254
 30
0.0
 10
-2.412999999999999
 20
0.0254
 30
0.0
 10
-2.3368
 20
0.6604
 30
0.0
 10
-2.3368
 20
0.762
 30
0.0
 10
-2.3368
 20
0.762
 30
0.0
 10
-2.3368
 20
0.762
 30
0.0
 10
-2.3368
 20
1.803399999999999
 30
0.0
 10
-2.3368
 20
1.803399999999999
 30
0.0
 10
-2.3368
 20
1.803399999999999
 30
0.0
 10
-2.3368
 20
1.803399999999999
 30
0.0
 10
-2.3368
 20
0.0508
 30
0.0
 10
-2.3368
 20
0.0508
 30
0.0
  0
SPLINE
  5
3B
330
A
100
AcDbEntity
  8
Layer 1
100
AcDbSpline
210
0.0
220
0.0
230
1.0
 70
    24
 71
     3
 72
     8
 73
     4
 74
     0
 42
0.0000000001
 43
0.0000000001
 40
0.0
 40
0.0
 40
0.0
 40
0.0
 40
1.0
 40
1.0
 40
1.0
 40
1.0
 10
-1.498599999999999
 20
1.778
 30
0.0
 10
-1.498599999999999
 20
1.778
 30
0.0
 10
-0.7366000000000001
 20
1.778
 30
0.0
 10
-0.7366000000000001
 20
1.778
 30
0.0
  0
SPLINE
  5
3C
330
A
100
AcDbEntity
  8
Layer 1
100
AcDbSpline
210
0.0
220
0.0
230
1.0
 70
     8
 71
     3
 72
    16
 73
    12
 74
     0
 42
0.0000000001
 43
0.0000000001
 40
0.0
 40
0.0
 40
0.0
 40
0.0
 40
0.3333333333333333
 40
0.3333333333333333
 40
0.3333333333333333
 40
0.3333333333333333
 40
0.6666666666666666
 40
0.6666666666666666
 40
0.6666666666666666
 40
0.6666666666666666
 40
1.0
 40
1.0
 40
1.0
 40
1.0
 10
-1.1684
 20
2.3622
 30
0.0
 10
-1.1684
 20
2.3622
 30
0.0
 10
-1.1684
 20
0.5588
 30
0.0
 10
-1.1684
 20
0.5588
 30
0.0
 10
-1.1684
 20
0.5588
 30
0.0
 10
-1.1684
 20
0.5588
 30
0.0
 10
-1.1684
 20
0.381
 30
0.0
 10
-1.1684
 20
0.381
 30
0.0
 10
-1.1684
 20
0.381
 30
0.0
 10
-1.1684
 20
0.0508
 30
0.0
 10
-0.9651999999999999
 20
0.0254
 30
0.0
 10
-0.762
 20
0.0508
 30
0.0
  0
SPLINE
  5
3D
330
A
100
AcDbEntity
  8
Layer 1
100
AcDbSpline
210
0.0
220
0.0
230
1.0
 70
     8
 71
     3
 72
    12
 73
     8
 74
     0
 42
0.0000000001
 43
0.0000000001
 40
0.0
 40
0.0
 40
0.0
 40
0.0
 40
0.5
 40
0.5
 40
0.5
 40
0.5
 40
1.0
 40
1.0
 40
1.0
 40
1.0
 10
1.3462
 20
0.0508
 30
0.0
 10
1.3462
 20
0.0508
 30
0.0
 10
2.666999999999999
 20
1.8542
 30
0.0
 10
2.666999999999999
 20
1.8542
 30
0.0
 10
2.666999999999999
 20
1.8542
 30
0.0
 10
2.666999999999999
 20
1.8542
 30
0.0
 10
3.149599999999999
 20
2.489199999999999
 30
0.0
 10
3.149599999999999
 20
2.489199999999999
 30
0.0
  0
SPLINE
  5
3E
330
A
100
AcDbEntity
  8
Layer 1
100
AcDbSpline
210
0.0
220
0.0
230
1.0
 70
     8
 71
     3
 72
    12
 73
     8
 74
     0
 42
0.0000000001
 43
0.0000000001
 40
0.0
 40
0.0
 40
0.0
 40
0.0
 40
0.5
 40
0.5
 40
0.5
 40
0.5
 40
1.0
 40
1.0
 40
1.0
 40
1.0
 10
1.371599999999999
 20
2.489199999999999
 30
0.0
 10
1.371599999999999
 20
2.489199999999999
 30
0.0
 10
2.717799999999999
 20
0.6858
 30
0.0
 10
2.717799999999999
 20
0.6858
 30
0.0
 10
2.717799999999999
 20
0.6858
 30
0.0
 10
2.717799999999999
 20
0.6858
 30
0.0
 10
3.2004
 20
0.0508
 30
0.0
 10
3.2004
 20
0.0508
 30
0.0
  0
SPLINE
  5
3F
330
A
100
AcDbEntity
  8
Layer 1
100
AcDbSpline
210
0.0
220
0.0
230
1.0
 70
     9
 71
     3
 72
    20
 73
    16
 74
     0
 42
0.0000000001
 43
0.0000000001
 40
0.0
 40
0.0
 40
0.0
 40
0.0
 40
0.25
 40
0.25
 40
0.25
 40
0.25
 40
0.5
 40
0.5
 40
0.5
 40
0.5
 40
0.75
 40
0.75
 40
0.75
 40
0.75
 40
1.0
 40
1.0
 40
1.0
 40
1.0
 10
-31.877
 20
1.27
 30
0.0
 10
-31.877
 20
1.955799999999999
 30
0.0
 10
-31.4706
 20
2.565399999999999
 30
0.0
 10
-30.734
 20
2.565399999999999
 30
0.0
 10
-30.734
 20
2.565399999999999
 30
0.0
 10
-29.9974
 20
2.565399999999999
 30
0.0
 10
-29.6164
 20
1.955799999999999
 30
0.0
 10
-29.6164
 20
1.27
 30
0.0
 10
-29.6164
 20
1.27
 30
0.0
 10
-29.6164
 20
0.5588
 30
0.0
 10
-29.9974
 20
0.0254
 30
0.0
 10
-30.734
 20
0.0254
 30
0.0
 10
-30.734
 20
0.0254
 30
0.0
 10
-31.4706
 20
0.0254
 30
0.0
 10
-31.877
 20
0.5588
 30
0.0
 10
-31.877
 20
1.27
 30
0.0
  0
SPLINE
  5
40
330
A
100
AcDbEntity
  8
Layer 1
100
AcDbSpline
210
0.0
220
0.0
230
1.0
 70
     8
 71
     3
 72
    24
 73
    20
 74
     0
 42
0.0000000001
 43
0.0000000001
 40
0.0
 40
0.0
 40
0.0
 40
0.0
 40
0.2
 40
0.2
 40
0.2
 40
0.2
 40
0.4
 40
0.4
 40
0.4
 40
0.4
 40
0.6000000000000001
 40
0.6000000000000001
 40
0.6000000000000001
 40
0.6000000000000001
 40
0.8
 40
0.8
 40
0.8
 40
0.8
 40
1.0
 40
1.0
 40
1.0
 40
1.0
 10
-28.6512
 20
1.803399999999999
 30
0.0
 10
-28.6512
 20
1.803399999999999
 30
0.0
 10
-28.6512
 20
0.6096
 30
0.0
 10
-28.6512
 20
0.6096
 30
0.0
 10
-28.6512
 20
0.6096
 30
0.0
 10
-28.6512
 20
0.3302
 30
0.0
 10
-28.4988
 20
0.0254
 30
0.0
 10
-28.067
 20
0.0254
 30
0.0
 10
-28.067
 20
0.0254
 30
0.0
 10
-27.432
 20
0.0254
 30
0.0
 10
-27.3558
 20
0.6604
 30
0.0
 10
-27.3558
 20
0.762
 30
0.0
 10
-27.3558
 20
0.762
 30
0.0
 10
-27.3558
 20
0.762
 30
0.0
 10
-27.3558
 20
1.803399999999999
 30
0.0
 10
-27.3558
 20
1.803399999999999
 30
0.0
 10
-27.3558
 20
1.803399999999999
 30
0.0
 10
-27.3558
 20
1.803399999999999
 30
0.0
 10
-27.3558
 20
0.0508
 30
0.0
 10
-27.3558
 20
0.0508
 30
0.0
  0
SPLINE
  5
41
330
A
100
AcDbEntity
  8
Layer 1
100
AcDbSpline
210
0.0
220
0.0
230
1.0
 70
    24
 71
     3
 72
     8
 73
     4
 74
     0
 42
0.0000000001
 43
0.0000000001
 40
0.0
 40
0.0
 40
0.0
 40
0.0
 40
1.0
 40
1.0
 40
1.0
 40
1.0
 10
-26.5176
 20
1.778
 30
0.0
 10
-26.5176
 20
1.778
 30
0.0
 10
-25.7556
 20
1.778
 30
0.0
 10
-25.7556
 20
1.778
 30
0.0
  0
SPLINE
  5
42
330
A
100
AcDbEntity
  8
Layer 1
100
AcDbSpline
210
0.0
220
0.0
230
1.0
 70
     8
 71
     3
 72
    16
 73
    12
 74
     0
 42
0.0000000001
 43
0.0000000001
 40
0.0
 40
0.0
 40
0.0
 40
0.0
 40
0.3333333333333333
 40
0.3333333333333333
 40
0.3333333333333333
 40
0.3333333333333333
 40
0.6666666666666666
 40
0.6666666666666666
 40
0.6666666666666666
 40
0.6666666666666666
 40
1.0
 40
1.0
 40
1.0
 40
1.0
 10
-26.1874
 20
2.3622
 30
0.0
 10
-26.1874
 20
2.3622
 30
0.0
 10
-26.1874
 20
0.5588
 30
0.0
 10
-26.1874
 20
0.5588
 30
0.0
 10
-26.1874
 20
0.5588
 30
0.0
 10
-26.1874
 20
0.5588
 30
0.0
 10
-26.1874
 20
0.381
 30
0.0
 10
-26.1874
 20
0.381
 30
0.0
 10
-26.1874
 20
0.381
 30
0.0
 10
-26.1874
 20
0.0508
 30
0.0
 10
-25.9842
 20
0.0254
 30
0.0
 10
-25.781
 20
0.0508
 30
0.0
  0
SPLINE
  5
43
330
A
100
AcDbEntity
  8
Layer 1
100
AcDbSpline
210
0.0
220
0.0
230
1.0
 70
     8
 71
     3
 72
    12
 73
     8
 74
     0
 42
0.0000000001
 43
0.0000000001
 40
0.0
 40
0.0
 40
0.0
 40
0.0
 40
0.5
 40
0.5
 40
0.5
 40
0.5
 40
1.0
 40
1.0
 40
1.0
 40
1.0
 10
-23.6982
 20
2.489199999999999
 30
0.0
 10
-23.6982
 20
2.489199999999999
 30
0.0
 10
-22.733
 20
1.0922
 30
0.0
 10
-22.733
 20
1.0922
 30
0.0
 10
-22.733
 20
1.0922
 30
0.0
 10
-22.733
 20
1.0922
 30
0.0
 10
-22.733
 20
0.0508
 30
0.0
 10
-22.733
 20
0.0508
 30
0.0
  0
SPLINE
  5
44
330
A
100
AcDbEntity
  8
Layer 1
100
AcDbSpline
210
0.0
220
0.0
230
1.0
 70
    24
 71
     3
 72
     8
 73
     4
 74
     0
 42
0.0000000001
 43
0.0000000001
 40
0.0
 40
0.0
 40
0.0
 40
0.0
 40
1.0
 40
1.0
 40
1.0
 40
1.0
 10
-21.7424
 20
2.489199999999999
 30
0.0
 10
-21.7424
 20
2.489199999999999
 30
0.0
 10
-22.733
 20
1.0922
 30
0.0
 10
-22.733
 20
1.0922
 30
0.0
  0
SPLINE
  5
45
330
A
100
AcDbEntity
  8
Layer 1
100
AcDbSpline
210
0.0
220
0.0
230
1.0
 70
    24
 71
     3
 72
     8
 73
     4
 74
     0
 42
0.0000000001
 43
0.0000000001
 40
0.0
 40
0.0
 40
0.0
 40
0.0
 40
1.0
 40
1.0
 40
1.0
 40
1.0
 10
-52.0446
 20
-9.9314
 30
0.0
 10
-52.0446
 20
-9.9314
 30
0.0
 10
-52.0446
 20
-9.6774
 30
0.0
 10
-52.0446
 20
-9.6774
 30
0.0
  0
SPLINE
  5
46
330
A
100
AcDbEntity
  8
Layer 1
100
AcDbSpline
210
0.0
220
0.0
230
1.0
 70
    24
 71
     3
 72
     8
 73
     4
 74
     0
 42
0.0000000001
 43
0.0000000001
 40
0.0
 40
0.0
 40
0.0
 40
0.0
 40
1.0
 40
1.0
 40
1.0
 40
1.0
 10
-2.032
 20
-9.9314
 30
0.0
 10
-2.032
 20
-9.9314
 30
0.0
 10
-2.032
 20
-9.6774
 30
0.0
 10
-2.032
 20
-9.6774
 30
0.0
  0
SPLINE
  5
47
330
A
100
AcDbEntity
  8
Layer 1
100
AcDbSpline
210
0.0
220
0.0
230
1.0
 70
    24
 71
     3
 72
     8
 73
     4
 74
     0
 42
0.0000000001
 43
0.0000000001
 40
0.0
 40
0.0
 40
0.0
 40
0.0
 40
1.0
 40
1.0
 40
1.0
 40
1.0
 10
-27.051
 20
-9.9314
 30
0.0
 10
-27.051
 20
-9.9314
 30
0.0
 10
-27.051
 20
-9.6774
 30
0.0
 10
-27.051
 20
-9.6774
 30
0.0
  0
SPLINE
  5
48
330
A
100
AcDbEntity
  8
Layer 1
100
AcDbSpline
210
0.0
220
0.0
230
1.0
 70
    11
 71
     3
 72
    96
 73
    92
 74
     0
 42
0.0000000001
 43
0.0000000001
 40
0.0
 40
0.0
 40
0.0
 40
0.0
 40
0.0434782608695652
 40
0.0434782608695652
 40
0.0434782608695652
 40
0.0434782608695652
 40
0.0869565217391304
 40
0.0869565217391304
 40
0.0869565217391304
 40
0.0869565217391304
 40
0.1304347826086957
 40
0.1304347826086957
 40
0.1304347826086957
 40
0.1304347826086957
 40
0.1739130434782609
 40
0.1739130434782609
 40
0.1739130434782609
 40
0.1739130434782609
 40
0.2173913043478261
 40
0.2173913043478261
 40
0.2173913043478261
 40
0.2173913043478261
 40
0.2608695652173913
 40
0.2608695652173913
 40
0.2608695652173913
 40
0.2608695652173913
 40
0.3043478260869565
 40
0.3043478260869565
 40
0.3043478260869565
 40
0.3043478260869565
 40
0.3478260869565217
 40
0.3478260869565217
 40
0.3478260869565217
 40
0.3478260869565217
 40
0.3913043478260869
 40
0.3913043478260869
 40
0.3913043478260869
 40
0.3913043478260869
 40
0.4347826086956522
 40
0.4347826086956522
 40
0.4347826086956522
 40
0.4347826086956522
 40
0.4782608695652173
 40
0.4782608695652173
 40
0.4782608695652173
 40
0.4782608695652173
 40
0.5217391304347825
 40
0.5217391304347825
 40
0.5217391304347825
 40
0.5217391304347825
 40
0.5652173913043477
 40
0.5652173913043477
 40
0.5652173913043477
 40
0.5652173913043477
 40
0.6086956521739129
 40
0.6086956521739129
 40
0.6086956521739129
 40
0.6086956521739129
 40
0.6521739130434781
 40
0.6521739130434781
 40
0.6521739130434781
 40
0.6521739130434781
 40
0.6956521739130432
 40
0.6956521739130432
 40
0.6956521739130432
 40
0.6956521739130432
 40
0.7391304347826085
 40
0.7391304347826085
 40
0.7391304347826085
 40
0.7391304347826085
 40
0.7826086956521737
 40
0.7826086956521737
 40
0.7826086956521737
 40
0.7826086956521737
 40
0.8260869565217387
 40
0.8260869565217387
 40
0.8260869565217387
 40
0.8260869565217387
 40
0.8695652173913041
 40
0.8695652173913041
 40
0.8695652173913041
 40
0.8695652173913041
 40
0.9130434782608691
 40
0.9130434782608691
 40
0.9130434782608691
 40
0.9130434782608691
 40
0.9565217391304344
 40
0.9565217391304344
 40
0.9565217391304344
 40
0.9565217391304344
 40
1.0
 40
1.0
 40
1.0
 40
1.0
 10
-57.1754
 20
16.7132
 30
0.0
 10
-57.1754
 20
16.7132
 30
0.0
 10
-57.2008
 20
16.6116
 30
0.0
 10
-57.2008
 20
16.6116
 30
0.0
 10
-57.2008
 20
16.6116
 30
0.0
 10
-57.2262
 20
16.5608
 30
0.0
 10
-57.2262
 20
16.5354
 30
0.0
 10
-57.2262
 20
16.51
 30
0.0
 10
-57.2262
 20
16.51
 30
0.0
 10
-57.2262
 20
16.51
 30
0.0
 10
-57.2516
 20
16.4592
 30
0.0
 10
-57.2516
 20
16.4592
 30
0.0
 10
-57.2516
 20
16.4592
 30
0.0
 10
-57.2516
 20
16.4592
 30
0.0
 10
-57.2516
 20
16.4084
 30
0.0
 10
-57.2516
 20
16.4084
 30
0.0
 10
-57.2516
 20
16.4084
 30
0.0
 10
-57.2008
 20
16.1798
 30
0.0
 10
-57.1246
 20
15.9512
 30
0.0
 10
-56.9976
 20
15.7734
 30
0.0
 10
-56.9976
 20
15.7734
 30
0.0
 10
-56.896
 20
15.621
 30
0.0
 10
-56.7182
 20
15.367
 30
0.0
 10
-56.46419999999999
 20
15.0114
 30
0.0
 10
-56.46419999999999
 20
15.0114
 30
0.0
 10
-56.2356
 20
14.732
 30
0.0
 10
-56.0578
 20
14.4526
 30
0.0
 10
-55.9308
 20
14.1986
 30
0.0
 10
-55.9308
 20
14.1986
 30
0.0
 10
-55.8292
 20
13.97
 30
0.0
 10
-55.753
 20
13.716
 30
0.0
 10
-55.753
 20
13.462
 30
0.0
 10
-55.753
 20
13.462
 30
0.0
 10
-55.753
 20
13.208
 30
0.0
 10
-55.8292
 20
12.954
 30
0.0
 10
-55.9562
 20
12.7508
 30
0.0
 10
-55.9562
 20
12.7508
 30
0.0
 10
-56.08319999999999
 20
12.5222
 30
0.0
 10
-56.261
 20
12.3444
 30
0.0
 10
-56.515
 20
12.2174
 30
0.0
 10
-56.515
 20
12.2174
 30
0.0
 10
-56.76899999999999
 20
12.065
 30
0.0
 10
-57.0738
 20
12.0142
 30
0.0
 10
-57.3786
 20
12.0142
 30
0.0
 10
-57.3786
 20
12.0142
 30
0.0
 10
-57.3786
 20
12.0142
 30
0.0
 10
-58.8772
 20
12.0142
 30
0.0
 10
-58.8772
 20
12.0142
 30
0.0
 10
-58.8772
 20
12.0142
 30
0.0
 10
-58.8772
 20
12.0142
 30
0.0
 10
-58.8772
 20
13.1826
 30
0.0
 10
-58.8772
 20
13.1826
 30
0.0
 10
-58.8772
 20
13.1826
 30
0.0
 10
-58.8772
 20
13.1826
 30
0.0
 10
-57.55639999999999
 20
13.1826
 30
0.0
 10
-57.55639999999999
 20
13.1826
 30
0.0
 10
-57.55639999999999
 20
13.1826
 30
0.0
 10
-57.4294
 20
13.1826
 30
0.0
 10
-57.3278
 20
13.208
 30
0.0
 10
-57.2516
 20
13.3096
 30
0.0
 10
-57.2516
 20
13.3096
 30
0.0
 10
-57.1754
 20
13.3858
 30
0.0
 10
-57.14999999999999
 20
13.4874
 30
0.0
 10
-57.14999999999999
 20
13.6144
 30
0.0
 10
-57.14999999999999
 20
13.6144
 30
0.0
 10
-57.14999999999999
 20
13.7414
 30
0.0
 10
-57.1754
 20
13.8684
 30
0.0
 10
-57.2516
 20
13.97
 30
0.0
 10
-57.2516
 20
13.97
 30
0.0
 10
-57.3532
 20
14.1478
 30
0.0
 10
-57.5056
 20
14.351
 30
0.0
 10
-57.6834
 20
14.5542
 30
0.0
 10
-57.6834
 20
14.5542
 30
0.0
 10
-57.6834
 20
14.5542
 30
0.0
 10
-58.166
 20
15.1892
 30
0.0
 10
-58.166
 20
15.1892
 30
0.0
 10
-58.166
 20
15.1892
 30
0.0
 10
-58.2422
 20
15.2908
 30
0.0
 10
-58.3438
 20
15.4686
 30
0.0
 10
-58.4454
 20
15.6972
 30
0.0
 10
-58.4454
 20
15.6972
 30
0.0
 10
-58.5216
 20
15.9258
 30
0.0
 10
-58.5724
 20
16.129
 30
0.0
 10
-58.5724
 20
16.3576
 30
0.0
 10
-58.5724
 20
16.3576
 30
0.0
 10
-58.5724
 20
16.4084
 30
0.0
 10
-58.547
 20
16.5354
 30
0.0
 10
-58.5216
 20
16.7132
 30
0.0
 10
-58.5216
 20
16.7132
 30
0.0
 10
-58.5216
 20
16.7132
 30
0.0
 10
-57.1754
 20
16.7132
 30
0.0
 10
-57.1754
 20
16.7132
 30
0.0
  0
SPLINE
  5
49
330
A
100
AcDbEntity
  8
Layer 1
100
AcDbSpline
210
0.0
220
0.0
230
1.0
 70
    11
 71
     3
 72
    72
 73
    68
 74
     0
 42
0.0000000001
 43
0.0000000001
 40
0.0
 40
0.0
 40
0.0
 40
0.0
 40
0.0588235294117647
 40
0.0588235294117647
 40
0.0588235294117647
 40
0.0588235294117647
 40
0.1176470588235294
 40
0.1176470588235294
 40
0.1176470588235294
 40
0.1176470588235294
 40
0.1764705882352941
 40
0.1764705882352941
 40
0.1764705882352941
 40
0.1764705882352941
 40
0.2352941176470588
 40
0.2352941176470588
 40
0.2352941176470588
 40
0.2352941176470588
 40
0.2941176470588235
 40
0.2941176470588235
 40
0.2941176470588235
 40
0.2941176470588235
 40
0.3529411764705883
 40
0.3529411764705883
 40
0.3529411764705883
 40
0.3529411764705883
 40
0.411764705882353
 40
0.411764705882353
 40
0.411764705882353
 40
0.411764705882353
 40
0.4705882352941177
 40
0.4705882352941177
 40
0.4705882352941177
 40
0.4705882352941177
 40
0.5294117647058824
 40
0.5294117647058824
 40
0.5294117647058824
 40
0.5294117647058824
 40
0.5882352941176471
 40
0.5882352941176471
 40
0.5882352941176471
 40
0.5882352941176471
 40
0.6470588235294118
 40
0.6470588235294118
 40
0.6470588235294118
 40
0.6470588235294118
 40
0.7058823529411766
 40
0.7058823529411766
 40
0.7058823529411766
 40
0.7058823529411766
 40
0.7647058823529413
 40
0.7647058823529413
 40
0.7647058823529413
 40
0.7647058823529413
 40
0.8235294117647059
 40
0.8235294117647059
 40
0.8235294117647059
 40
0.8235294117647059
 40
0.8823529411764706
 40
0.8823529411764706
 40
0.8823529411764706
 40
0.8823529411764706
 40
0.9411764705882353
 40
0.9411764705882353
 40
0.9411764705882353
 40
0.9411764705882353
 40
1.0
 40
1.0
 40
1.0
 40
1.0
 10
-54.86399999999999
 20
16.7132
 30
0.0
 10
-54.86399999999999
 20
16.7132
 30
0.0
 10
-53.4416
 20
16.7132
 30
0.0
 10
-53.4416
 20
16.7132
 30
0.0
 10
-53.4416
 20
16.7132
 30
0.0
 10
-53.4416
 20
16.7132
 30
0.0
 10
-53.4416
 20
13.716
 30
0.0
 10
-53.4416
 20
13.716
 30
0.0
 10
-53.4416
 20
13.716
 30
0.0
 10
-53.4416
 20
13.589
 30
0.0
 10
-53.4416
 20
13.4874
 30
0.0
 10
-53.4162
 20
13.4112
 30
0.0
 10
-53.4162
 20
13.4112
 30
0.0
 10
-53.3908
 20
13.3604
 30
0.0
 10
-53.34
 20
13.3096
 30
0.0
 10
-53.2384
 20
13.2842
 30
0.0
 10
-53.2384
 20
13.2842
 30
0.0
 10
-53.1622
 20
13.2588
 30
0.0
 10
-53.0606
 20
13.2334
 30
0.0
 10
-52.9082
 20
13.2334
 30
0.0
 10
-52.9082
 20
13.2334
 30
0.0
 10
-52.9082
 20
13.2334
 30
0.0
 10
-52.0192
 20
13.2334
 30
0.0
 10
-52.0192
 20
13.2334
 30
0.0
 10
-52.0192
 20
13.2334
 30
0.0
 10
-52.0192
 20
13.2334
 30
0.0
 10
-52.0192
 20
16.7132
 30
0.0
 10
-52.0192
 20
16.7132
 30
0.0
 10
-52.0192
 20
16.7132
 30
0.0
 10
-52.0192
 20
16.7132
 30
0.0
 10
-50.62219999999999
 20
16.7132
 30
0.0
 10
-50.62219999999999
 20
16.7132
 30
0.0
 10
-50.62219999999999
 20
16.7132
 30
0.0
 10
-50.62219999999999
 20
16.7132
 30
0.0
 10
-50.62219999999999
 20
12.0142
 30
0.0
 10
-50.62219999999999
 20
12.0142
 30
0.0
 10
-50.62219999999999
 20
12.0142
 30
0.0
 10
-50.62219999999999
 20
12.0142
 30
0.0
 10
-53.4416
 20
12.0142
 30
0.0
 10
-53.4416
 20
12.0142
 30
0.0
 10
-53.4416
 20
12.0142
 30
0.0
 10
-53.6448
 20
12.0142
 30
0.0
 10
-53.79719999999999
 20
12.0142
 30
0.0
 10
-53.8988
 20
12.0142
 30
0.0
 10
-53.8988
 20
12.0142
 30
0.0
 10
-54.0258
 20
12.0396
 30
0.0
 10
-54.1274
 20
12.065
 30
0.0
 10
-54.229
 20
12.1158
 30
0.0
 10
-54.229
 20
12.1158
 30
0.0
 10
-54.4068
 20
12.192
 30
0.0
 10
-54.55919999999999
 20
12.2936
 30
0.0
 10
-54.6608
 20
12.446
 30
0.0
 10
-54.6608
 20
12.446
 30
0.0
 10
-54.737
 20
12.5984
 30
0.0
 10
-54.7878
 20
12.7762
 30
0.0
 10
-54.83859999999999
 20
12.954
 30
0.0
 10
-54.83859999999999
 20
12.954
 30
0.0
 10
-54.83859999999999
 20
12.954
 30
0.0
 10
-54.86399999999999
 20
13.2588
 30
0.0
 10
-54.86399999999999
 20
13.2588
 30
0.0
 10
-54.86399999999999
 20
13.2588
 30
0.0
 10
-54.86399999999999
 20
13.2588
 30
0.0
 10
-54.86399999999999
 20
13.6652
 30
0.0
 10
-54.86399999999999
 20
13.6652
 30
0.0
 10
-54.86399999999999
 20
13.6652
 30
0.0
 10
-54.86399999999999
 20
13.6652
 30
0.0
 10
-54.86399999999999
 20
16.7132
 30
0.0
 10
-54.86399999999999
 20
16.7132
 30
0.0
  0
SPLINE
  5
4A
330
A
100
AcDbEntity
  8
Layer 1
100
AcDbSpline
210
0.0
220
0.0
230
1.0
 70
    11
 71
     3
 72
    80
 73
    76
 74
     0
 42
0.0000000001
 43
0.0000000001
 40
0.0
 40
0.0
 40
0.0
 40
0.0
 40
0.0526315789473684
 40
0.0526315789473684
 40
0.0526315789473684
 40
0.0526315789473684
 40
0.1052631578947368
 40
0.1052631578947368
 40
0.1052631578947368
 40
0.1052631578947368
 40
0.1578947368421053
 40
0.1578947368421053
 40
0.1578947368421053
 40
0.1578947368421053
 40
0.2105263157894737
 40
0.2105263157894737
 40
0.2105263157894737
 40
0.2105263157894737
 40
0.2631578947368421
 40
0.2631578947368421
 40
0.2631578947368421
 40
0.2631578947368421
 40
0.3157894736842105
 40
0.3157894736842105
 40
0.3157894736842105
 40
0.3157894736842105
 40
0.3684210526315789
 40
0.3684210526315789
 40
0.3684210526315789
 40
0.3684210526315789
 40
0.4210526315789475
 40
0.4210526315789475
 40
0.4210526315789475
 40
0.4210526315789475
 40
0.4736842105263159
 40
0.4736842105263159
 40
0.4736842105263159
 40
0.4736842105263159
 40
0.5263157894736842
 40
0.5263157894736842
 40
0.5263157894736842
 40
0.5263157894736842
 40
0.5789473684210527
 40
0.5789473684210527
 40
0.5789473684210527
 40
0.5789473684210527
 40
0.6315789473684211
 40
0.6315789473684211
 40
0.6315789473684211
 40
0.6315789473684211
 40
0.6842105263157894
 40
0.6842105263157894
 40
0.6842105263157894
 40
0.6842105263157894
 40
0.7368421052631577
 40
0.7368421052631577
 40
0.7368421052631577
 40
0.7368421052631577
 40
0.7894736842105261
 40
0.7894736842105261
 40
0.7894736842105261
 40
0.7894736842105261
 40
0.8421052631578945
 40
0.8421052631578945
 40
0.8421052631578945
 40
0.8421052631578945
 40
0.8947368421052628
 40
0.8947368421052628
 40
0.8947368421052628
 40
0.8947368421052628
 40
0.9473684210526311
 40
0.9473684210526311
 40
0.9473684210526311
 40
0.9473684210526311
 40
1.0
 40
1.0
 40
1.0
 40
1.0
 10
-49.7332
 20
16.7132
 30
0.0
 10
-49.7332
 20
16.7132
 30
0.0
 10
-47.8028
 20
16.7132
 30
0.0
 10
-47.8028
 20
16.7132
 30
0.0
 10
-47.8028
 20
16.7132
 30
0.0
 10
-47.371
 20
16.7132
 30
0.0
 10
-47.0662
 20
16.6624
 30
0.0
 10
-46.81219999999999
 20
16.5862
 30
0.0
 10
-46.81219999999999
 20
16.5862
 30
0.0
 10
-46.5836
 20
16.51
 30
0.0
 10
-46.3804
 20
16.3576
 30
0.0
 10
-46.2534
 20
16.1544
 30
0.0
 10
-46.2534
 20
16.1544
 30
0.0
 10
-46.12639999999999
 20
15.9512
 30
0.0
 10
-46.05019999999999
 20
15.6464
 30
0.0
 10
-46.05019999999999
 20
15.24
 30
0.0
 10
-46.05019999999999
 20
15.24
 30
0.0
 10
-46.05019999999999
 20
14.8844
 30
0.0
 10
-46.12639999999999
 20
14.605
 30
0.0
 10
-46.2788
 20
14.3764
 30
0.0
 10
-46.2788
 20
14.3764
 30
0.0
 10
-46.43119999999999
 20
14.1732
 30
0.0
 10
-46.6344
 20
14.0208
 30
0.0
 10
-46.88839999999999
 20
13.9192
 30
0.0
 10
-46.88839999999999
 20
13.9192
 30
0.0
 10
-47.0154
 20
13.8938
 30
0.0
 10
-47.1424
 20
13.843
 30
0.0
 10
-47.3202
 20
13.8176
 30
0.0
 10
-47.3202
 20
13.8176
 30
0.0
 10
-47.47259999999999
 20
13.8176
 30
0.0
 10
-47.625
 20
13.7922
 30
0.0
 10
-47.8028
 20
13.7922
 30
0.0
 10
-47.8028
 20
13.7922
 30
0.0
 10
-47.8028
 20
13.7922
 30
0.0
 10
-48.33619999999999
 20
13.7922
 30
0.0
 10
-48.33619999999999
 20
13.7922
 30
0.0
 10
-48.33619999999999
 20
13.7922
 30
0.0
 10
-48.33619999999999
 20
13.7922
 30
0.0
 10
-48.33619999999999
 20
12.0142
 30
0.0
 10
-48.33619999999999
 20
12.0142
 30
0.0
 10
-48.33619999999999
 20
12.0142
 30
0.0
 10
-48.33619999999999
 20
12.0142
 30
0.0
 10
-49.7332
 20
12.0142
 30
0.0
 10
-49.7332
 20
12.0142
 30
0.0
 10
-49.7332
 20
12.0142
 30
0.0
 10
-49.7332
 20
12.0142
 30
0.0
 10
-49.7332
 20
14.9352
 30
0.0
 10
-49.7332
 20
14.9352
 30
0.0
 10
-49.7332
 20
14.9352
 30
0.0
 10
-49.7332
 20
14.9352
 30
0.0
 10
-47.8028
 20
14.9352
 30
0.0
 10
-47.8028
 20
14.9352
 30
0.0
 10
-47.8028
 20
14.9352
 30
0.0
 10
-47.7266
 20
14.9352
 30
0.0
 10
-47.65039999999999
 20
14.9606
 30
0.0
 10
-47.5996
 20
15.0368
 30
0.0
 10
-47.5996
 20
15.0368
 30
0.0
 10
-47.54879999999999
 20
15.0622
 30
0.0
 10
-47.5234
 20
15.1384
 30
0.0
 10
-47.5234
 20
15.24
 30
0.0
 10
-47.5234
 20
15.24
 30
0.0
 10
-47.5234
 20
15.3162
 30
0.0
 10
-47.54879999999999
 20
15.3924
 30
0.0
 10
-47.5996
 20
15.4432
 30
0.0
 10
-47.5996
 20
15.4432
 30
0.0
 10
-47.65039999999999
 20
15.494
 30
0.0
 10
-47.7012
 20
15.5448
 30
0.0
 10
-47.8028
 20
15.5448
 30
0.0
 10
-47.8028
 20
15.5448
 30
0.0
 10
-47.8028
 20
15.5448
 30
0.0
 10
-49.7332
 20
15.5448
 30
0.0
 10
-49.7332
 20
15.5448
 30
0.0
 10
-49.7332
 20
15.5448
 30
0.0
 10
-49.7332
 20
15.5448
 30
0.0
 10
-49.7332
 20
16.7132
 30
0.0
 10
-49.7332
 20
16.7132
 30
0.0
  0
SPLINE
  5
4B
330
A
100
AcDbEntity
  8
Layer 1
100
AcDbSpline
210
0.0
220
0.0
230
1.0
 70
    11
 71
     3
 72
    36
 73
    32
 74
     0
 42
0.0000000001
 43
0.0000000001
 40
0.0
 40
0.0
 40
0.0
 40
0.0
 40
0.125
 40
0.125
 40
0.125
 40
0.125
 40
0.25
 40
0.25
 40
0.25
 40
0.25
 40
0.375
 40
0.375
 40
0.375
 40
0.375
 40
0.5
 40
0.5
 40
0.5
 40
0.5
 40
0.625
 40
0.625
 40
0.625
 40
0.625
 40
0.75
 40
0.75
 40
0.75
 40
0.75
 40
0.875
 40
0.875
 40
0.875
 40
0.875
 40
1.0
 40
1.0
 40
1.0
 40
1.0
 10
-41.8592
 20
14.9352
 30
0.0
 10
-41.8592
 20
14.9352
 30
0.0
 10
-41.8592
 20
13.7668
 30
0.0
 10
-41.8592
 20
13.7668
 30
0.0
 10
-41.8592
 20
13.7668
 30
0.0
 10
-41.8592
 20
13.7668
 30
0.0
 10
-43.7642
 20
13.7668
 30
0.0
 10
-43.7642
 20
13.7668
 30
0.0
 10
-43.7642
 20
13.7668
 30
0.0
 10
-43.7642
 20
13.7668
 30
0.0
 10
-43.7642
 20
13.1826
 30
0.0
 10
-43.7642
 20
13.1826
 30
0.0
 10
-43.7642
 20
13.1826
 30
0.0
 10
-43.7642
 20
13.1826
 30
0.0
 10
-41.8592
 20
13.1826
 30
0.0
 10
-41.8592
 20
13.1826
 30
0.0
 10
-41.8592
 20
13.1826
 30
0.0
 10
-41.8592
 20
13.1826
 30
0.0
 10
-41.8592
 20
12.0142
 30
0.0
 10
-41.8592
 20
12.0142
 30
0.0
 10
-41.8592
 20
12.0142
 30
0.0
 10
-41.8592
 20
12.0142
 30
0.0
 10
-45.16119999999999
 20
12.0142
 30
0.0
 10
-45.16119999999999
 20
12.0142
 30
0.0
 10
-45.16119999999999
 20
12.0142
 30
0.0
 10
-45.16119999999999
 20
12.0142
 30
0.0
 10
-45.16119999999999
 20
14.9352
 30
0.0
 10
-45.16119999999999
 20
14.9352
 30
0.0
 10
-45.16119999999999
 20
14.9352
 30
0.0
 10
-45.16119999999999
 20
14.9352
 30
0.0
 10
-41.8592
 20
14.9352
 30
0.0
 10
-41.8592
 20
14.9352
 30
0.0
  0
SPLINE
  5
4C
330
A
100
AcDbEntity
  8
Layer 1
100
AcDbSpline
210
0.0
220
0.0
230
1.0
 70
    11
 71
     3
 72
    20
 73
    16
 74
     0
 42
0.0000000001
 43
0.0000000001
 40
0.0
 40
0.0
 40
0.0
 40
0.0
 40
0.25
 40
0.25
 40
0.25
 40
0.25
 40
0.5
 40
0.5
 40
0.5
 40
0.5
 40
0.75
 40
0.75
 40
0.75
 40
0.75
 40
1.0
 40
1.0
 40
1.0
 40
1.0
 10
-45.16119999999999
 20
16.7132
 30
0.0
 10
-45.16119999999999
 20
16.7132
 30
0.0
 10
-41.8592
 20
16.7132
 30
0.0
 10
-41.8592
 20
16.7132
 30
0.0
 10
-41.8592
 20
16.7132
 30
0.0
 10
-41.8592
 20
16.7132
 30
0.0
 10
-41.8592
 20
15.5448
 30
0.0
 10
-41.8592
 20
15.5448
 30
0.0
 10
-41.8592
 20
15.5448
 30
0.0
 10
-41.8592
 20
15.5448
 30
0.0
 10
-45.16119999999999
 20
15.5448
 30
0.0
 10
-45.16119999999999
 20
15.5448
 30
0.0
 10
-45.16119999999999
 20
15.5448
 30
0.0
 10
-45.16119999999999
 20
15.5448
 30
0.0
 10
-45.16119999999999
 20
16.7132
 30
0.0
 10
-45.16119999999999
 20
16.7132
 30
0.0
  0
SPLINE
  5
4D
330
A
100
AcDbEntity
  8
Layer 1
100
AcDbSpline
210
0.0
220
0.0
230
1.0
 70
     9
 71
     3
 72
   104
 73
   100
 74
     0
 42
0.0000000001
 43
0.0000000001
 40
0.0
 40
0.0
 40
0.0
 40
0.0
 40
0.04
 40
0.04
 40
0.04
 40
0.04
 40
0.08
 40
0.08
 40
0.08
 40
0.08
 40
0.12
 40
0.12
 40
0.12
 40
0.12
 40
0.16
 40
0.16
 40
0.16
 40
0.16
 40
0.2
 40
0.2
 40
0.2
 40
0.2
 40
0.24
 40
0.24
 40
0.24
 40
0.24
 40
0.28
 40
0.28
 40
0.28
 40
0.28
 40
0.32
 40
0.32
 40
0.32
 40
0.32
 40
0.36
 40
0.36
 40
0.36
 40
0.36
 40
0.4
 40
0.4
 40
0.4
 40
0.4
 40
0.4400000000000001
 40
0.4400000000000001
 40
0.4400000000000001
 40
0.4400000000000001
 40
0.4799999999999999
 40
0.4799999999999999
 40
0.4799999999999999
 40
0.4799999999999999
 40
0.52
 40
0.52
 40
0.52
 40
0.52
 40
0.56
 40
0.56
 40
0.56
 40
0.56
 40
0.6
 40
0.6
 40
0.6
 40
0.6
 40
0.6400000000000001
 40
0.6400000000000001
 40
0.6400000000000001
 40
0.6400000000000001
 40
0.6800000000000001
 40
0.6800000000000001
 40
0.6800000000000001
 40
0.6800000000000001
 40
0.7200000000000001
 40
0.7200000000000001
 40
0.7200000000000001
 40
0.7200000000000001
 40
0.7600000000000002
 40
0.7600000000000002
 40
0.7600000000000002
 40
0.7600000000000002
 40
0.8000000000000001
 40
0.8000000000000001
 40
0.8000000000000001
 40
0.8000000000000001
 40
0.8400000000000002
 40
0.8400000000000002
 40
0.8400000000000002
 40
0.8400000000000002
 40
0.8800000000000002
 40
0.8800000000000002
 40
0.8800000000000002
 40
0.8800000000000002
 40
0.9200000000000002
 40
0.9200000000000002
 40
0.9200000000000002
 40
0.9200000000000002
 40
0.9600000000000004
 40
0.9600000000000004
 40
0.9600000000000004
 40
0.9600000000000004
 40
1.0
 40
1.0
 40
1.0
 40
1.0
 10
-39.0652
 20
13.2588
 30
0.0
 10
-39.0652
 20
13.4874
 30
0.0
 10
-39.0906
 20
13.6144
 30
0.0
 10
-39.1668
 20
13.6652
 30
0.0
 10
-39.1668
 20
13.6652
 30
0.0
 10
-39.243
 20
13.7414
 30
0.0
 10
-39.3954
 20
13.7668
 30
0.0
 10
-39.5732
 20
13.7668
 30
0.0
 10
-39.5732
 20
13.7668
 30
0.0
 10
-39.5732
 20
13.7668
 30
0.0
 10
-40.97019999999999
 20
13.7668
 30
0.0
 10
-40.97019999999999
 20
13.7668
 30
0.0
 10
-40.97019999999999
 20
13.7668
 30
0.0
 10
-40.97019999999999
 20
13.7668
 30
0.0
 10
-40.97019999999999
 20
14.9352
 30
0.0
 10
-40.97019999999999
 20
14.9352
 30
0.0
 10
-40.97019999999999
 20
14.9352
 30
0.0
 10
-40.97019999999999
 20
14.9352
 30
0.0
 10
-39.0652
 20
14.9352
 30
0.0
 10
-39.0652
 20
14.9352
 30
0.0
 10
-39.0652
 20
14.9352
 30
0.0
 10
-38.9636
 20
14.9352
 30
0.0
 10
-38.8874
 20
14.9606
 30
0.0
 10
-38.862
 20
15.0368
 30
0.0
 10
-38.862
 20
15.0368
 30
0.0
 10
-38.8112
 20
15.0622
 30
0.0
 10
-38.7858
 20
15.1384
 30
0.0
 10
-38.7858
 20
15.24
 30
0.0
 10
-38.7858
 20
15.24
 30
0.0
 10
-38.7858
 20
15.3162
 30
0.0
 10
-38.8112
 20
15.3924
 30
0.0
 10
-38.862
 20
15.4432
 30
0.0
 10
-38.862
 20
15.4432
 30
0.0
 10
-38.8874
 20
15.494
 30
0.0
 10
-38.9636
 20
15.5448
 30
0.0
 10
-39.0652
 20
15.5448
 30
0.0
 10
-39.0652
 20
15.5448
 30
0.0
 10
-39.0652
 20
15.5448
 30
0.0
 10
-40.97019999999999
 20
15.5448
 30
0.0
 10
-40.97019999999999
 20
15.5448
 30
0.0
 10
-40.97019999999999
 20
15.5448
 30
0.0
 10
-40.97019999999999
 20
15.5448
 30
0.0
 10
-40.97019999999999
 20
16.7132
 30
0.0
 10
-40.97019999999999
 20
16.7132
 30
0.0
 10
-40.97019999999999
 20
16.7132
 30
0.0
 10
-40.97019999999999
 20
16.7132
 30
0.0
 10
-38.5572
 20
16.7132
 30
0.0
 10
-38.5572
 20
16.7132
 30
0.0
 10
-38.5572
 20
16.7132
 30
0.0
 10
-38.2778
 20
16.7132
 30
0.0
 10
-38.0492
 20
16.637
 30
0.0
 10
-37.846
 20
16.51
 30
0.0
 10
-37.846
 20
16.51
 30
0.0
 10
-37.6428
 20
16.4084
 30
0.0
 10
-37.4904
 20
16.2306
 30
0.0
 10
-37.3888
 20
16.0274
 30
0.0
 10
-37.3888
 20
16.0274
 30
0.0
 10
-37.31260000000001
 20
15.8242
 30
0.0
 10
-37.2364
 20
15.621
 30
0.0
 10
-37.2364
 20
15.3924
 30
0.0
 10
-37.2364
 20
15.3924
 30
0.0
 10
-37.2364
 20
15.1892
 30
0.0
 10
-37.2872
 20
14.986
 30
0.0
 10
-37.3634
 20
14.8336
 30
0.0
 10
-37.3634
 20
14.8336
 30
0.0
 10
-37.4396
 20
14.6558
 30
0.0
 10
-37.5666
 20
14.5288
 30
0.0
 10
-37.719
 20
14.4272
 30
0.0
 10
-37.719
 20
14.4272
 30
0.0
 10
-37.8968
 20
14.3256
 30
0.0
 10
-38.0746
 20
14.2494
 30
0.0
 10
-38.3032
 20
14.2494
 30
0.0
 10
-38.3032
 20
14.2494
 30
0.0
 10
-38.3032
 20
14.2494
 30
0.0
 10
-38.3286
 20
14.2494
 30
0.0
 10
-38.3286
 20
14.2494
 30
0.0
 10
-38.3286
 20
14.2494
 30
0.0
 10
-38.3286
 20
14.2494
 30
0.0
 10
-38.1254
 20
14.224
 30
0.0
 10
-38.1254
 20
14.224
 30
0.0
 10
-38.1254
 20
14.224
 30
0.0
 10
-37.9984
 20
14.1732
 30
0.0
 10
-37.8714
 20
14.1224
 30
0.0
 10
-37.7952
 20
14.0716
 30
0.0
 10
-37.7952
 20
14.0716
 30
0.0
 10
-37.69360000000001
 20
13.9954
 30
0.0
 10
-37.6428
 20
13.8938
 30
0.0
 10
-37.6428
 20
13.7668
 30
0.0
 10
-37.6428
 20
13.7668
 30
0.0
 10
-37.6428
 20
13.7668
 30
0.0
 10
-37.6428
 20
12.0142
 30
0.0
 10
-37.6428
 20
12.0142
 30
0.0
 10
-37.6428
 20
12.0142
 30
0.0
 10
-37.6428
 20
12.0142
 30
0.0
 10
-39.0652
 20
12.0142
 30
0.0
 10
-39.0652
 20
12.0142
 30
0.0
 10
-39.0652
 20
12.0142
 30
0.0
 10
-39.0652
 20
12.0142
 30
0.0
 10
-39.0652
 20
13.2588
 30
0.0
 10
-39.0652
 20
13.2588
 30
0.0
  0
SPLINE
  5
4E
330
A
100
AcDbEntity
  8
Layer 1
100
AcDbSpline
210
0.0
220
0.0
230
1.0
 70
    11
 71
     3
 72
    20
 73
    16
 74
     0
 42
0.0000000001
 43
0.0000000001
 40
0.0
 40
0.0
 40
0.0
 40
0.0
 40
0.25
 40
0.25
 40
0.25
 40
0.25
 40
0.5
 40
0.5
 40
0.5
 40
0.5
 40
0.75
 40
0.75
 40
0.75
 40
0.75
 40
1.0
 40
1.0
 40
1.0
 40
1.0
 10
-33.2994
 20
16.7132
 30
0.0
 10
-33.2994
 20
16.7132
 30
0.0
 10
-33.2994
 20
15.5448
 30
0.0
 10
-33.2994
 20
15.5448
 30
0.0
 10
-33.2994
 20
15.5448
 30
0.0
 10
-33.2994
 20
15.5448
 30
0.0
 10
-36.3474
 20
15.5448
 30
0.0
 10
-36.3474
 20
15.5448
 30
0.0
 10
-36.3474
 20
15.5448
 30
0.0
 10
-36.3474
 20
15.5448
 30
0.0
 10
-36.3474
 20
16.7132
 30
0.0
 10
-36.3474
 20
16.7132
 30
0.0
 10
-36.3474
 20
16.7132
 30
0.0
 10
-36.3474
 20
16.7132
 30
0.0
 10
-33.2994
 20
16.7132
 30
0.0
 10
-33.2994
 20
16.7132
 30
0.0
  0
SPLINE
  5
4F
330
A
100
AcDbEntity
  8
Layer 1
100
AcDbSpline
210
0.0
220
0.0
230
1.0
 70
    11
 71
     3
 72
    52
 73
    48
 74
     0
 42
0.0000000001
 43
0.0000000001
 40
0.0
 40
0.0
 40
0.0
 40
0.0
 40
0.0833333333333333
 40
0.0833333333333333
 40
0.0833333333333333
 40
0.0833333333333333
 40
0.1666666666666667
 40
0.1666666666666667
 40
0.1666666666666667
 40
0.1666666666666667
 40
0.25
 40
0.25
 40
0.25
 40
0.25
 40
0.3333333333333333
 40
0.3333333333333333
 40
0.3333333333333333
 40
0.3333333333333333
 40
0.4166666666666666
 40
0.4166666666666666
 40
0.4166666666666666
 40
0.4166666666666666
 40
0.5
 40
0.5
 40
0.5
 40
0.5
 40
0.5833333333333333
 40
0.5833333333333333
 40
0.5833333333333333
 40
0.5833333333333333
 40
0.6666666666666666
 40
0.6666666666666666
 40
0.6666666666666666
 40
0.6666666666666666
 40
0.75
 40
0.75
 40
0.75
 40
0.75
 40
0.8333333333333333
 40
0.8333333333333333
 40
0.8333333333333333
 40
0.8333333333333333
 40
0.9166666666666667
 40
0.9166666666666667
 40
0.9166666666666667
 40
0.9166666666666667
 40
1.0
 40
1.0
 40
1.0
 40
1.0
 10
-34.8488
 20
14.9352
 30
0.0
 10
-34.8488
 20
14.9352
 30
0.0
 10
-34.8488
 20
13.5128
 30
0.0
 10
-34.8488
 20
13.5128
 30
0.0
 10
-34.8488
 20
13.5128
 30
0.0
 10
-34.8488
 20
13.4112
 30
0.0
 10
-34.8234
 20
13.3604
 30
0.0
 10
-34.798
 20
13.3096
 30
0.0
 10
-34.798
 20
13.3096
 30
0.0
 10
-34.7726
 20
13.2588
 30
0.0
 10
-34.7218
 20
13.2334
 30
0.0
 10
-34.6456
 20
13.208
 30
0.0
 10
-34.6456
 20
13.208
 30
0.0
 10
-34.5694
 20
13.1826
 30
0.0
 10
-34.4424
 20
13.1826
 30
0.0
 10
-34.2646
 20
13.1826
 30
0.0
 10
-34.2646
 20
13.1826
 30
0.0
 10
-34.2646
 20
13.1826
 30
0.0
 10
-33.5026
 20
13.1826
 30
0.0
 10
-33.5026
 20
13.1826
 30
0.0
 10
-33.5026
 20
13.1826
 30
0.0
 10
-33.5026
 20
13.1826
 30
0.0
 10
-33.5026
 20
12.0142
 30
0.0
 10
-33.5026
 20
12.0142
 30
0.0
 10
-33.5026
 20
12.0142
 30
0.0
 10
-33.5026
 20
12.0142
 30
0.0
 10
-35.052
 20
12.0142
 30
0.0
 10
-35.052
 20
12.0142
 30
0.0
 10
-35.052
 20
12.0142
 30
0.0
 10
-35.3822
 20
12.0142
 30
0.0
 10
-35.6616
 20
12.065
 30
0.0
 10
-35.78860000000001
 20
12.192
 30
0.0
 10
-35.78860000000001
 20
12.192
 30
0.0
 10
-35.9664
 20
12.319
 30
0.0
 10
-36.068
 20
12.4968
 30
0.0
 10
-36.0934
 20
12.7254
 30
0.0
 10
-36.0934
 20
12.7254
 30
0.0
 10
-36.1442
 20
12.9286
 30
0.0
 10
-36.1442
 20
13.208
 30
0.0
 10
-36.1442
 20
13.589
 30
0.0
 10
-36.1442
 20
13.589
 30
0.0
 10
-36.1442
 20
13.589
 30
0.0
 10
-36.1442
 20
14.9352
 30
0.0
 10
-36.1442
 20
14.9352
 30
0.0
 10
-36.1442
 20
14.9352
 30
0.0
 10
-36.1442
 20
14.9352
 30
0.0
 10
-34.8488
 20
14.9352
 30
0.0
 10
-34.8488
 20
14.9352
 30
0.0
  0
SPLINE
  5
50
330
A
100
AcDbEntity
  8
Layer 1
100
AcDbSpline
210
0.0
220
0.0
230
1.0
 70
    11
 71
     3
 72
    36
 73
    32
 74
     0
 42
0.0000000001
 43
0.0000000001
 40
0.0
 40
0.0
 40
0.0
 40
0.0
 40
0.125
 40
0.125
 40
0.125
 40
0.125
 40
0.25
 40
0.25
 40
0.25
 40
0.25
 40
0.375
 40
0.375
 40
0.375
 40
0.375
 40
0.5
 40
0.5
 40
0.5
 40
0.5
 40
0.625
 40
0.625
 40
0.625
 40
0.625
 40
0.75
 40
0.75
 40
0.75
 40
0.75
 40
0.875
 40
0.875
 40
0.875
 40
0.875
 40
1.0
 40
1.0
 40
1.0
 40
1.0
 10
-29.1084
 20
14.9352
 30
0.0
 10
-29.1084
 20
14.9352
 30
0.0
 10
-29.1084
 20
13.7668
 30
0.0
 10
-29.1084
 20
13.7668
 30
0.0
 10
-29.1084
 20
13.7668
 30
0.0
 10
-29.1084
 20
13.7668
 30
0.0
 10
-31.0134
 20
13.7668
 30
0.0
 10
-31.0134
 20
13.7668
 30
0.0
 10
-31.0134
 20
13.7668
 30
0.0
 10
-31.0134
 20
13.7668
 30
0.0
 10
-31.0134
 20
13.1826
 30
0.0
 10
-31.0134
 20
13.1826
 30
0.0
 10
-31.0134
 20
13.1826
 30
0.0
 10
-31.0134
 20
13.1826
 30
0.0
 10
-29.1084
 20
13.1826
 30
0.0
 10
-29.1084
 20
13.1826
 30
0.0
 10
-29.1084
 20
13.1826
 30
0.0
 10
-29.1084
 20
13.1826
 30
0.0
 10
-29.1084
 20
12.0142
 30
0.0
 10
-29.1084
 20
12.0142
 30
0.0
 10
-29.1084
 20
12.0142
 30
0.0
 10
-29.1084
 20
12.0142
 30
0.0
 10
-32.4104
 20
12.0142
 30
0.0
 10
-32.4104
 20
12.0142
 30
0.0
 10
-32.4104
 20
12.0142
 30
0.0
 10
-32.4104
 20
12.0142
 30
0.0
 10
-32.4104
 20
14.9352
 30
0.0
 10
-32.4104
 20
14.9352
 30
0.0
 10
-32.4104
 20
14.9352
 30
0.0
 10
-32.4104
 20
14.9352
 30
0.0
 10
-29.1084
 20
14.9352
 30
0.0
 10
-29.1084
 20
14.9352
 30
0.0
  0
SPLINE
  5
51
330
A
100
AcDbEntity
  8
Layer 1
100
AcDbSpline
210
0.0
220
0.0
230
1.0
 70
    11
 71
     3
 72
    20
 73
    16
 74
     0
 42
0.0000000001
 43
0.0000000001
 40
0.0
 40
0.0
 40
0.0
 40
0.0
 40
0.25
 40
0.25
 40
0.25
 40
0.25
 40
0.5
 40
0.5
 40
0.5
 40
0.5
 40
0.75
 40
0.75
 40
0.75
 40
0.75
 40
1.0
 40
1.0
 40
1.0
 40
1.0
 10
-32.4104
 20
16.7132
 30
0.0
 10
-32.4104
 20
16.7132
 30
0.0
 10
-29.1084
 20
16.7132
 30
0.0
 10
-29.1084
 20
16.7132
 30
0.0
 10
-29.1084
 20
16.7132
 30
0.0
 10
-29.1084
 20
16.7132
 30
0.0
 10
-29.1084
 20
15.5448
 30
0.0
 10
-29.1084
 20
15.5448
 30
0.0
 10
-29.1084
 20
15.5448
 30
0.0
 10
-29.1084
 20
15.5448
 30
0.0
 10
-32.4104
 20
15.5448
 30
0.0
 10
-32.4104
 20
15.5448
 30
0.0
 10
-32.4104
 20
15.5448
 30
0.0
 10
-32.4104
 20
15.5448
 30
0.0
 10
-32.4104
 20
16.7132
 30
0.0
 10
-32.4104
 20
16.7132
 30
0.0
  0
SPLINE
  5
52
330
A
100
AcDbEntity
  8
Layer 1
100
AcDbSpline
210
0.0
220
0.0
230
1.0
 70
     9
 71
     3
 72
   100
 73
    96
 74
     0
 42
0.0000000001
 43
0.0000000001
 40
0.0
 40
0.0
 40
0.0
 40
0.0
 40
0.0416666666666667
 40
0.0416666666666667
 40
0.0416666666666667
 40
0.0416666666666667
 40
0.0833333333333333
 40
0.0833333333333333
 40
0.0833333333333333
 40
0.0833333333333333
 40
0.125
 40
0.125
 40
0.125
 40
0.125
 40
0.1666666666666667
 40
0.1666666666666667
 40
0.1666666666666667
 40
0.1666666666666667
 40
0.2083333333333333
 40
0.2083333333333333
 40
0.2083333333333333
 40
0.2083333333333333
 40
0.25
 40
0.25
 40
0.25
 40
0.25
 40
0.2916666666666666
 40
0.2916666666666666
 40
0.2916666666666666
 40
0.2916666666666666
 40
0.3333333333333333
 40
0.3333333333333333
 40
0.3333333333333333
 40
0.3333333333333333
 40
0.375
 40
0.375
 40
0.375
 40
0.375
 40
0.4166666666666667
 40
0.4166666666666667
 40
0.4166666666666667
 40
0.4166666666666667
 40
0.4583333333333334
 40
0.4583333333333334
 40
0.4583333333333334
 40
0.4583333333333334
 40
0.5
 40
0.5
 40
0.5
 40
0.5
 40
0.5416666666666666
 40
0.5416666666666666
 40
0.5416666666666666
 40
0.5416666666666666
 40
0.5833333333333333
 40
0.5833333333333333
 40
0.5833333333333333
 40
0.5833333333333333
 40
0.625
 40
0.625
 40
0.625
 40
0.625
 40
0.6666666666666666
 40
0.6666666666666666
 40
0.6666666666666666
 40
0.6666666666666666
 40
0.7083333333333332
 40
0.7083333333333332
 40
0.7083333333333332
 40
0.7083333333333332
 40
0.7499999999999999
 40
0.7499999999999999
 40
0.7499999999999999
 40
0.7499999999999999
 40
0.7916666666666665
 40
0.7916666666666665
 40
0.7916666666666665
 40
0.7916666666666665
 40
0.833333333333333
 40
0.833333333333333
 40
0.833333333333333
 40
0.833333333333333
 40
0.8749999999999996
 40
0.8749999999999996
 40
0.8749999999999996
 40
0.8749999999999996
 40
0.9166666666666664
 40
0.9166666666666664
 40
0.9166666666666664
 40
0.9166666666666664
 40
0.9583333333333328
 40
0.9583333333333328
 40
0.9583333333333328
 40
0.9583333333333328
 40
1.0
 40
1.0
 40
1.0
 40
1.0
 10
-25.6794
 20
16.7132
 30
0.0
 10
-25.6794
 20
16.7132
 30
0.0
 10
-24.8158
 20
16.7132
 30
0.0
 10
-24.8158
 20
16.7132
 30
0.0
 10
-24.8158
 20
16.7132
 30
0.0
 10
-24.8158
 20
16.7132
 30
0.0
 10
-24.8158
 20
15.494
 30
0.0
 10
-24.8158
 20
15.494
 30
0.0
 10
-24.8158
 20
15.494
 30
0.0
 10
-24.8158
 20
15.494
 30
0.0
 10
-25.146
 20
15.494
 30
0.0
 10
-25.146
 20
15.494
 30
0.0
 10
-25.146
 20
15.494
 30
0.0
 10
-25.4
 20
15.494
 30
0.0
 10
-25.654
 20
15.4686
 30
0.0
 10
-25.8826
 20
15.3924
 30
0.0
 10
-25.8826
 20
15.3924
 30
0.0
 10
-26.1366
 20
15.3416
 30
0.0
 10
-26.3144
 20
15.2146
 30
0.0
 10
-26.4668
 20
15.0368
 30
0.0
 10
-26.4668
 20
15.0368
 30
0.0
 10
-26.6192
 20
14.8844
 30
0.0
 10
-26.6954
 20
14.6558
 30
0.0
 10
-26.6954
 20
14.3764
 30
0.0
 10
-26.6954
 20
14.3764
 30
0.0
 10
-26.6954
 20
14.097
 30
0.0
 10
-26.6192
 20
13.843
 30
0.0
 10
-26.4922
 20
13.6652
 30
0.0
 10
-26.4922
 20
13.6652
 30
0.0
 10
-26.3652
 20
13.462
 30
0.0
 10
-26.1874
 20
13.335
 30
0.0
 10
-25.9588
 20
13.2842
 30
0.0
 10
-25.9588
 20
13.2842
 30
0.0
 10
-25.8826
 20
13.2588
 30
0.0
 10
-25.7556
 20
13.2334
 30
0.0
 10
-25.6032
 20
13.208
 30
0.0
 10
-25.6032
 20
13.208
 30
0.0
 10
-25.527
 20
13.1826
 30
0.0
 10
-25.4508
 20
13.1826
 30
0.0
 10
-25.4
 20
13.1826
 30
0.0
 10
-25.4
 20
13.1826
 30
0.0
 10
-25.3238
 20
13.1826
 30
0.0
 10
-25.2476
 20
13.1826
 30
0.0
 10
-25.1714
 20
13.1826
 30
0.0
 10
-25.1714
 20
13.1826
 30
0.0
 10
-25.1714
 20
13.1826
 30
0.0
 10
-24.8158
 20
13.1826
 30
0.0
 10
-24.8158
 20
13.1826
 30
0.0
 10
-24.8158
 20
13.1826
 30
0.0
 10
-24.8158
 20
13.1826
 30
0.0
 10
-24.8158
 20
12.0142
 30
0.0
 10
-24.8158
 20
12.0142
 30
0.0
 10
-24.8158
 20
12.0142
 30
0.0
 10
-24.8158
 20
12.0142
 30
0.0
 10
-26.035
 20
12.0142
 30
0.0
 10
-26.035
 20
12.0142
 30
0.0
 10
-26.035
 20
12.0142
 30
0.0
 10
-26.416
 20
12.0142
 30
0.0
 10
-26.7462
 20
12.0904
 30
0.0
 10
-27.0256
 20
12.2428
 30
0.0
 10
-27.0256
 20
12.2428
 30
0.0
 10
-27.305
 20
12.3698
 30
0.0
 10
-27.5336
 20
12.573
 30
0.0
 10
-27.7114
 20
12.827
 30
0.0
 10
-27.7114
 20
12.827
 30
0.0
 10
-27.8892
 20
13.081
 30
0.0
 10
-28.0162
 20
13.335
 30
0.0
 10
-28.0924
 20
13.589
 30
0.0
 10
-28.0924
 20
13.589
 30
0.0
 10
-28.1178
 20
13.6652
 30
0.0
 10
-28.1178
 20
13.7414
 30
0.0
 10
-28.1432
 20
13.7922
 30
0.0
 10
-28.1432
 20
13.7922
 30
0.0
 10
-28.1432
 20
13.843
 30
0.0
 10
-28.1686
 20
13.9192
 30
0.0
 10
-28.194
 20
13.9954
 30
0.0
 10
-28.194
 20
13.9954
 30
0.0
 10
-28.2194
 20
14.097
 30
0.0
 10
-28.2194
 20
14.224
 30
0.0
 10
-28.2194
 20
14.351
 30
0.0
 10
-28.2194
 20
14.351
 30
0.0
 10
-28.2194
 20
14.7828
 30
0.0
 10
-28.1178
 20
15.1892
 30
0.0
 10
-27.9146
 20
15.5702
 30
0.0
 10
-27.9146
 20
15.5702
 30
0.0
 10
-27.813
 20
15.748
 30
0.0
 10
-27.686
 20
15.9258
 30
0.0
 10
-27.5336
 20
16.0528
 30
0.0
 10
-27.5336
 20
16.0528
 30
0.0
 10
-27.3812
 20
16.1798
 30
0.0
 10
-27.2288
 20
16.3068
 30
0.0
 10
-27.0256
 20
16.4084
 30
0.0
 10
-27.0256
 20
16.4084
 30
0.0
 10
-26.6192
 20
16.6116
 30
0.0
 10
-26.1874
 20
16.7132
 30
0.0
 10
-25.6794
 20
16.7132
 30
0.0
  0
SPLINE
  5
53
330
A
100
AcDbEntity
  8
Layer 1
100
AcDbSpline
210
0.0
220
0.0
230
1.0
 70
    11
 71
     3
 72
    52
 73
    48
 74
     0
 42
0.0000000001
 43
0.0000000001
 40
0.0
 40
0.0
 40
0.0
 40
0.0
 40
0.0833333333333333
 40
0.0833333333333333
 40
0.0833333333333333
 40
0.0833333333333333
 40
0.1666666666666667
 40
0.1666666666666667
 40
0.1666666666666667
 40
0.1666666666666667
 40
0.25
 40
0.25
 40
0.25
 40
0.25
 40
0.3333333333333333
 40
0.3333333333333333
 40
0.3333333333333333
 40
0.3333333333333333
 40
0.4166666666666666
 40
0.4166666666666666
 40
0.4166666666666666
 40
0.4166666666666666
 40
0.5
 40
0.5
 40
0.5
 40
0.5
 40
0.5833333333333333
 40
0.5833333333333333
 40
0.5833333333333333
 40
0.5833333333333333
 40
0.6666666666666666
 40
0.6666666666666666
 40
0.6666666666666666
 40
0.6666666666666666
 40
0.75
 40
0.75
 40
0.75
 40
0.75
 40
0.8333333333333333
 40
0.8333333333333333
 40
0.8333333333333333
 40
0.8333333333333333
 40
0.9166666666666667
 40
0.9166666666666667
 40
0.9166666666666667
 40
0.9166666666666667
 40
1.0
 40
1.0
 40
1.0
 40
1.0
 10
-23.9268
 20
16.7132
 30
0.0
 10
-23.9268
 20
16.7132
 30
0.0
 10
-22.5044
 20
16.7132
 30
0.0
 10
-22.5044
 20
16.7132
 30
0.0
 10
-22.5044
 20
16.7132
 30
0.0
 10
-22.5044
 20
16.7132
 30
0.0
 10
-22.5044
 20
14.9352
 30
0.0
 10
-22.5044
 20
14.9352
 30
0.0
 10
-22.5044
 20
14.9352
 30
0.0
 10
-22.5044
 20
14.9352
 30
0.0
 10
-21.4122
 20
14.9352
 30
0.0
 10
-21.4122
 20
14.9352
 30
0.0
 10
-21.4122
 20
14.9352
 30
0.0
 10
-21.4122
 20
14.9352
 30
0.0
 10
-21.4122
 20
16.7132
 30
0.0
 10
-21.4122
 20
16.7132
 30
0.0
 10
-21.4122
 20
16.7132
 30
0.0
 10
-21.4122
 20
16.7132
 30
0.0
 10
-19.9898
 20
16.7132
 30
0.0
 10
-19.9898
 20
16.7132
 30
0.0
 10
-19.9898
 20
16.7132
 30
0.0
 10
-19.9898
 20
16.7132
 30
0.0
 10
-19.9898
 20
12.0142
 30
0.0
 10
-19.9898
 20
12.0142
 30
0.0
 10
-19.9898
 20
12.0142
 30
0.0
 10
-19.9898
 20
12.0142
 30
0.0
 10
-21.4122
 20
12.0142
 30
0.0
 10
-21.4122
 20
12.0142
 30
0.0
 10
-21.4122
 20
12.0142
 30
0.0
 10
-21.4122
 20
12.0142
 30
0.0
 10
-21.4122
 20
13.7668
 30
0.0
 10
-21.4122
 20
13.7668
 30
0.0
 10
-21.4122
 20
13.7668
 30
0.0
 10
-21.4122
 20
13.7668
 30
0.0
 10
-22.5044
 20
13.7668
 30
0.0
 10
-22.5044
 20
13.7668
 30
0.0
 10
-22.5044
 20
13.7668
 30
0.0
 10
-22.5044
 20
13.7668
 30
0.0
 10
-22.5044
 20
12.0142
 30
0.0
 10
-22.5044
 20
12.0142
 30
0.0
 10
-22.5044
 20
12.0142
 30
0.0
 10
-22.5044
 20
12.0142
 30
0.0
 10
-23.9268
 20
12.0142
 30
0.0
 10
-23.9268
 20
12.0142
 30
0.0
 10
-23.9268
 20
12.0142
 30
0.0
 10
-23.9268
 20
12.0142
 30
0.0
 10
-23.9268
 20
16.7132
 30
0.0
 10
-23.9268
 20
16.7132
 30
0.0
  0
SPLINE
  5
54
330
A
100
AcDbEntity
  8
Layer 1
100
AcDbSpline
210
0.0
220
0.0
230
1.0
 70
    11
 71
     3
 72
    44
 73
    40
 74
     0
 42
0.0000000001
 43
0.0000000001
 40
0.0
 40
0.0
 40
0.0
 40
0.0
 40
0.1
 40
0.1
 40
0.1
 40
0.1
 40
0.2
 40
0.2
 40
0.2
 40
0.2
 40
0.3
 40
0.3
 40
0.3
 40
0.3
 40
0.4
 40
0.4
 40
0.4
 40
0.4
 40
0.5
 40
0.5
 40
0.5
 40
0.5
 40
0.6
 40
0.6
 40
0.6
 40
0.6
 40
0.7
 40
0.7
 40
0.7
 40
0.7
 40
0.8
 40
0.8
 40
0.8
 40
0.8
 40
0.9
 40
0.9
 40
0.9
 40
0.9
 40
1.0
 40
1.0
 40
1.0
 40
1.0
 10
-8.0518
 20
16.8656
 30
0.0
 10
-8.0518
 20
16.8656
 30
0.0
 10
-6.7564
 20
16.8656
 30
0.0
 10
-6.7564
 20
16.8656
 30
0.0
 10
-6.7564
 20
16.8656
 30
0.0
 10
-6.7564
 20
16.8656
 30
0.0
 10
-4.953
 20
12.0142
 30
0.0
 10
-4.953
 20
12.0142
 30
0.0
 10
-4.953
 20
12.0142
 30
0.0
 10
-4.953
 20
12.0142
 30
0.0
 10
-6.0452
 20
12.0142
 30
0.0
 10
-6.0452
 20
12.0142
 30
0.0
 10
-6.0452
 20
12.0142
 30
0.0
 10
-6.0452
 20
12.0142
 30
0.0
 10
-6.426199999999999
 20
13.0302
 30
0.0
 10
-6.426199999999999
 20
13.0302
 30
0.0
 10
-6.426199999999999
 20
13.0302
 30
0.0
 10
-6.426199999999999
 20
13.0302
 30
0.0
 10
-6.426199999999999
 20
13.0302
 30
0.0
 10
-6.426199999999999
 20
13.0302
 30
0.0
 10
-6.426199999999999
 20
13.0302
 30
0.0
 10
-6.426199999999999
 20
13.0302
 30
0.0
 10
-8.458199999999997
 20
13.0302
 30
0.0
 10
-8.458199999999997
 20
13.0302
 30
0.0
 10
-8.458199999999997
 20
13.0302
 30
0.0
 10
-8.458199999999997
 20
13.0302
 30
0.0
 10
-8.458199999999997
 20
13.0302
 30
0.0
 10
-8.458199999999997
 20
13.0302
 30
0.0
 10
-8.458199999999997
 20
13.0302
 30
0.0
 10
-8.458199999999997
 20
13.0302
 30
0.0
 10
-8.8138
 20
12.0142
 30
0.0
 10
-8.8138
 20
12.0142
 30
0.0
 10
-8.8138
 20
12.0142
 30
0.0
 10
-8.8138
 20
12.0142
 30
0.0
 10
-9.855199999999999
 20
12.0142
 30
0.0
 10
-9.855199999999999
 20
12.0142
 30
0.0
 10
-9.855199999999999
 20
12.0142
 30
0.0
 10
-9.855199999999999
 20
12.0142
 30
0.0
 10
-8.0518
 20
16.8656
 30
0.0
 10
-8.0518
 20
16.8656
 30
0.0
  0
SPLINE
  5
55
330
A
100
AcDbEntity
  8
Layer 1
100
AcDbSpline
210
0.0
220
0.0
230
1.0
 70
    11
 71
     3
 72
    28
 73
    24
 74
     0
 42
0.0000000001
 43
0.0000000001
 40
0.0
 40
0.0
 40
0.0
 40
0.0
 40
0.1666666666666667
 40
0.1666666666666667
 40
0.1666666666666667
 40
0.1666666666666667
 40
0.3333333333333333
 40
0.3333333333333333
 40
0.3333333333333333
 40
0.3333333333333333
 40
0.5
 40
0.5
 40
0.5
 40
0.5
 40
0.6666666666666666
 40
0.6666666666666666
 40
0.6666666666666666
 40
0.6666666666666666
 40
0.8333333333333332
 40
0.8333333333333332
 40
0.8333333333333332
 40
0.8333333333333332
 40
1.0
 40
1.0
 40
1.0
 40
1.0
 10
-8.229599999999997
 20
13.7922
 30
0.0
 10
-8.229599999999997
 20
13.7922
 30
0.0
 10
-8.229599999999997
 20
13.7922
 30
0.0
 10
-8.229599999999997
 20
13.7922
 30
0.0
 10
-8.229599999999997
 20
13.7922
 30
0.0
 10
-8.229599999999997
 20
13.7922
 30
0.0
 10
-6.654799999999999
 20
13.7922
 30
0.0
 10
-6.654799999999999
 20
13.7922
 30
0.0
 10
-6.654799999999999
 20
13.7922
 30
0.0
 10
-6.654799999999999
 20
13.7922
 30
0.0
 10
-6.654799999999999
 20
13.7922
 30
0.0
 10
-6.654799999999999
 20
13.7922
 30
0.0
 10
-6.654799999999999
 20
13.7922
 30
0.0
 10
-6.654799999999999
 20
13.7922
 30
0.0
 10
-7.442199999999998
 20
16.129
 30
0.0
 10
-7.442199999999998
 20
16.129
 30
0.0
 10
-7.442199999999998
 20
16.129
 30
0.0
 10
-7.442199999999998
 20
16.129
 30
0.0
 10
-7.442199999999998
 20
16.129
 30
0.0
 10
-7.442199999999998
 20
16.129
 30
0.0
 10
-7.442199999999998
 20
16.129
 30
0.0
 10
-7.442199999999998
 20
16.129
 30
0.0
 10
-8.229599999999997
 20
13.7922
 30
0.0
 10
-8.229599999999997
 20
13.7922
 30
0.0
  0
SPLINE
  5
56
330
A
100
AcDbEntity
  8
Layer 1
100
AcDbSpline
210
0.0
220
0.0
230
1.0
 70
     9
 71
     3
 72
    88
 73
    84
 74
     0
 42
0.0000000001
 43
0.0000000001
 40
0.0
 40
0.0
 40
0.0
 40
0.0
 40
0.0476190476190476
 40
0.0476190476190476
 40
0.0476190476190476
 40
0.0476190476190476
 40
0.0952380952380952
 40
0.0952380952380952
 40
0.0952380952380952
 40
0.0952380952380952
 40
0.1428571428571429
 40
0.1428571428571429
 40
0.1428571428571429
 40
0.1428571428571429
 40
0.1904761904761905
 40
0.1904761904761905
 40
0.1904761904761905
 40
0.1904761904761905
 40
0.2380952380952381
 40
0.2380952380952381
 40
0.2380952380952381
 40
0.2380952380952381
 40
0.2857142857142857
 40
0.2857142857142857
 40
0.2857142857142857
 40
0.2857142857142857
 40
0.3333333333333333
 40
0.3333333333333333
 40
0.3333333333333333
 40
0.3333333333333333
 40
0.3809523809523809
 40
0.3809523809523809
 40
0.3809523809523809
 40
0.3809523809523809
 40
0.4285714285714287
 40
0.4285714285714287
 40
0.4285714285714287
 40
0.4285714285714287
 40
0.4761904761904762
 40
0.4761904761904762
 40
0.4761904761904762
 40
0.4761904761904762
 40
0.5238095238095238
 40
0.5238095238095238
 40
0.5238095238095238
 40
0.5238095238095238
 40
0.5714285714285714
 40
0.5714285714285714
 40
0.5714285714285714
 40
0.5714285714285714
 40
0.6190476190476191
 40
0.6190476190476191
 40
0.6190476190476191
 40
0.6190476190476191
 40
0.6666666666666668
 40
0.6666666666666668
 40
0.6666666666666668
 40
0.6666666666666668
 40
0.7142857142857145
 40
0.7142857142857145
 40
0.7142857142857145
 40
0.7142857142857145
 40
0.7619047619047621
 40
0.7619047619047621
 40
0.7619047619047621
 40
0.7619047619047621
 40
0.8095238095238098
 40
0.8095238095238098
 40
0.8095238095238098
 40
0.8095238095238098
 40
0.8571428571428574
 40
0.8571428571428574
 40
0.8571428571428574
 40
0.8571428571428574
 40
0.9047619047619052
 40
0.9047619047619052
 40
0.9047619047619052
 40
0.9047619047619052
 40
0.9523809523809527
 40
0.9523809523809527
 40
0.9523809523809527
 40
0.9523809523809527
 40
1.0
 40
1.0
 40
1.0
 40
1.0
 10
-2.1844
 20
14.351
 30
0.0
 10
-2.235199999999999
 20
14.7066
 30
0.0
 10
-2.4384
 20
14.8844
 30
0.0
 10
-2.793999999999999
 20
14.8844
 30
0.0
 10
-2.793999999999999
 20
14.8844
 30
0.0
 10
-3.2004
 20
14.8844
 30
0.0
 10
-3.428999999999999
 20
14.605
 30
0.0
 10
-3.505199999999999
 20
14.0716
 30
0.0
 10
-3.505199999999999
 20
14.0716
 30
0.0
 10
-3.505199999999999
 20
13.9954
 30
0.0
 10
-3.505199999999999
 20
13.8684
 30
0.0
 10
-3.505199999999999
 20
13.7414
 30
0.0
 10
-3.505199999999999
 20
13.7414
 30
0.0
 10
-3.505199999999999
 20
12.9286
 30
0.0
 10
-3.2766
 20
12.4968
 30
0.0
 10
-2.793999999999999
 20
12.4968
 30
0.0
 10
-2.793999999999999
 20
12.4968
 30
0.0
 10
-2.412999999999999
 20
12.4968
 30
0.0
 10
-2.209799999999999
 20
12.7254
 30
0.0
 10
-2.1844
 20
13.1318
 30
0.0
 10
-2.1844
 20
13.1318
 30
0.0
 10
-2.1844
 20
13.1318
 30
0.0
 10
-2.1844
 20
13.2334
 30
0.0
 10
-2.1844
 20
13.2334
 30
0.0
 10
-2.1844
 20
13.2334
 30
0.0
 10
-2.1844
 20
13.2334
 30
0.0
 10
-1.27
 20
13.2334
 30
0.0
 10
-1.27
 20
13.2334
 30
0.0
 10
-1.27
 20
13.2334
 30
0.0
 10
-1.27
 20
13.2334
 30
0.0
 10
-1.27
 20
13.1318
 30
0.0
 10
-1.27
 20
13.1318
 30
0.0
 10
-1.27
 20
13.1318
 30
0.0
 10
-1.27
 20
13.1318
 30
0.0
 10
-1.2954
 20
12.9286
 30
0.0
 10
-1.2954
 20
12.9286
 30
0.0
 10
-1.2954
 20
12.9286
 30
0.0
 10
-1.320799999999999
 20
12.5984
 30
0.0
 10
-1.524
 20
12.319
 30
0.0
 10
-1.8288
 20
12.1412
 30
0.0
 10
-1.8288
 20
12.1412
 30
0.0
 10
-2.057399999999999
 20
12.0142
 30
0.0
 10
-2.387599999999999
 20
11.938
 30
0.0
 10
-2.7686
 20
11.938
 30
0.0
 10
-2.7686
 20
11.938
 30
0.0
 10
-3.327399999999999
 20
11.938
 30
0.0
 10
-3.7338
 20
12.065
 30
0.0
 10
-4.038599999999999
 20
12.3952
 30
0.0
 10
-4.038599999999999
 20
12.3952
 30
0.0
 10
-4.2926
 20
12.7
 30
0.0
 10
-4.419599999999999
 20
13.1318
 30
0.0
 10
-4.419599999999999
 20
13.6906
 30
0.0
 10
-4.419599999999999
 20
13.6906
 30
0.0
 10
-4.419599999999999
 20
13.9446
 30
0.0
 10
-4.394199999999999
 20
14.1732
 30
0.0
 10
-4.343399999999999
 20
14.4018
 30
0.0
 10
-4.343399999999999
 20
14.4018
 30
0.0
 10
-4.1402
 20
15.113
 30
0.0
 10
-3.581399999999999
 20
15.4686
 30
0.0
 10
-2.717799999999999
 20
15.494
 30
0.0
 10
-2.717799999999999
 20
15.494
 30
0.0
 10
-2.4384
 20
15.494
 30
0.0
 10
-2.209799999999999
 20
15.4432
 30
0.0
 10
-1.955799999999999
 20
15.3416
 30
0.0
 10
-1.955799999999999
 20
15.3416
 30
0.0
 10
-1.8288
 20
15.2908
 30
0.0
 10
-1.676399999999999
 20
15.2146
 30
0.0
 10
-1.574799999999999
 20
15.0876
 30
0.0
 10
-1.574799999999999
 20
15.0876
 30
0.0
 10
-1.4224
 20
14.9098
 30
0.0
 10
-1.2954
 20
14.6558
 30
0.0
 10
-1.27
 20
14.351
 30
0.0
 10
-1.27
 20
14.351
 30
0.0
 10
-1.27
 20
14.351
 30
0.0
 10
-1.27
 20
14.224
 30
0.0
 10
-1.27
 20
14.224
 30
0.0
 10
-1.27
 20
14.224
 30
0.0
 10
-1.27
 20
14.224
 30
0.0
 10
-2.1844
 20
14.224
 30
0.0
 10
-2.1844
 20
14.224
 30
0.0
 10
-2.1844
 20
14.224
 30
0.0
 10
-2.1844
 20
14.224
 30
0.0
 10
-2.1844
 20
14.351
 30
0.0
 10
-2.1844
 20
14.351
 30
0.0
  0
SPLINE
  5
57
330
A
100
AcDbEntity
  8
Layer 1
100
AcDbSpline
210
0.0
220
0.0
230
1.0
 70
     9
 71
     3
 72
    88
 73
    84
 74
     0
 42
0.0000000001
 43
0.0000000001
 40
0.0
 40
0.0
 40
0.0
 40
0.0
 40
0.0476190476190476
 40
0.0476190476190476
 40
0.0476190476190476
 40
0.0476190476190476
 40
0.0952380952380952
 40
0.0952380952380952
 40
0.0952380952380952
 40
0.0952380952380952
 40
0.1428571428571429
 40
0.1428571428571429
 40
0.1428571428571429
 40
0.1428571428571429
 40
0.1904761904761905
 40
0.1904761904761905
 40
0.1904761904761905
 40
0.1904761904761905
 40
0.2380952380952381
 40
0.2380952380952381
 40
0.2380952380952381
 40
0.2380952380952381
 40
0.2857142857142857
 40
0.2857142857142857
 40
0.2857142857142857
 40
0.2857142857142857
 40
0.3333333333333333
 40
0.3333333333333333
 40
0.3333333333333333
 40
0.3333333333333333
 40
0.3809523809523809
 40
0.3809523809523809
 40
0.3809523809523809
 40
0.3809523809523809
 40
0.4285714285714287
 40
0.4285714285714287
 40
0.4285714285714287
 40
0.4285714285714287
 40
0.4761904761904762
 40
0.4761904761904762
 40
0.4761904761904762
 40
0.4761904761904762
 40
0.5238095238095238
 40
0.5238095238095238
 40
0.5238095238095238
 40
0.5238095238095238
 40
0.5714285714285714
 40
0.5714285714285714
 40
0.5714285714285714
 40
0.5714285714285714
 40
0.6190476190476191
 40
0.6190476190476191
 40
0.6190476190476191
 40
0.6190476190476191
 40
0.6666666666666668
 40
0.6666666666666668
 40
0.6666666666666668
 40
0.6666666666666668
 40
0.7142857142857145
 40
0.7142857142857145
 40
0.7142857142857145
 40
0.7142857142857145
 40
0.7619047619047621
 40
0.7619047619047621
 40
0.7619047619047621
 40
0.7619047619047621
 40
0.8095238095238098
 40
0.8095238095238098
 40
0.8095238095238098
 40
0.8095238095238098
 40
0.8571428571428574
 40
0.8571428571428574
 40
0.8571428571428574
 40
0.8571428571428574
 40
0.9047619047619052
 40
0.9047619047619052
 40
0.9047619047619052
 40
0.9047619047619052
 40
0.9523809523809527
 40
0.9523809523809527
 40
0.9523809523809527
 40
0.9523809523809527
 40
1.0
 40
1.0
 40
1.0
 40
1.0
 10
1.6002
 20
14.351
 30
0.0
 10
1.5494
 20
14.7066
 30
0.0
 10
1.3462
 20
14.8844
 30
0.0
 10
0.9906
 20
14.8844
 30
0.0
 10
0.9906
 20
14.8844
 30
0.0
 10
0.5842000000000001
 20
14.8844
 30
0.0
 10
0.3556
 20
14.605
 30
0.0
 10
0.2794
 20
14.0716
 30
0.0
 10
0.2794
 20
14.0716
 30
0.0
 10
0.2794
 20
13.9954
 30
0.0
 10
0.2794
 20
13.8684
 30
0.0
 10
0.2794
 20
13.7414
 30
0.0
 10
0.2794
 20
13.7414
 30
0.0
 10
0.2794
 20
12.9286
 30
0.0
 10
0.508
 20
12.4968
 30
0.0
 10
0.9906
 20
12.4968
 30
0.0
 10
0.9906
 20
12.4968
 30
0.0
 10
1.371599999999999
 20
12.4968
 30
0.0
 10
1.574799999999999
 20
12.7254
 30
0.0
 10
1.6002
 20
13.1318
 30
0.0
 10
1.6002
 20
13.1318
 30
0.0
 10
1.6002
 20
13.1318
 30
0.0
 10
1.6002
 20
13.2334
 30
0.0
 10
1.6002
 20
13.2334
 30
0.0
 10
1.6002
 20
13.2334
 30
0.0
 10
1.6002
 20
13.2334
 30
0.0
 10
2.5146
 20
13.2334
 30
0.0
 10
2.5146
 20
13.2334
 30
0.0
 10
2.5146
 20
13.2334
 30
0.0
 10
2.5146
 20
13.2334
 30
0.0
 10
2.5146
 20
13.1318
 30
0.0
 10
2.5146
 20
13.1318
 30
0.0
 10
2.5146
 20
13.1318
 30
0.0
 10
2.5146
 20
13.1318
 30
0.0
 10
2.489199999999999
 20
12.9286
 30
0.0
 10
2.489199999999999
 20
12.9286
 30
0.0
 10
2.489199999999999
 20
12.9286
 30
0.0
 10
2.463799999999999
 20
12.5984
 30
0.0
 10
2.2606
 20
12.319
 30
0.0
 10
1.955799999999999
 20
12.1412
 30
0.0
 10
1.955799999999999
 20
12.1412
 30
0.0
 10
1.7272
 20
12.0142
 30
0.0
 10
1.396999999999999
 20
11.938
 30
0.0
 10
1.016
 20
11.938
 30
0.0
 10
1.016
 20
11.938
 30
0.0
 10
0.4572
 20
11.938
 30
0.0
 10
0.0508
 20
12.065
 30
0.0
 10
-0.254
 20
12.3952
 30
0.0
 10
-0.254
 20
12.3952
 30
0.0
 10
-0.508
 20
12.7
 30
0.0
 10
-0.635
 20
13.1318
 30
0.0
 10
-0.635
 20
13.6906
 30
0.0
 10
-0.635
 20
13.6906
 30
0.0
 10
-0.635
 20
13.9446
 30
0.0
 10
-0.6096
 20
14.1732
 30
0.0
 10
-0.5588
 20
14.4018
 30
0.0
 10
-0.5588
 20
14.4018
 30
0.0
 10
-0.3556
 20
15.113
 30
0.0
 10
0.2032
 20
15.4686
 30
0.0
 10
1.066799999999999
 20
15.494
 30
0.0
 10
1.066799999999999
 20
15.494
 30
0.0
 10
1.3462
 20
15.494
 30
0.0
 10
1.574799999999999
 20
15.4432
 30
0.0
 10
1.8288
 20
15.3416
 30
0.0
 10
1.8288
 20
15.3416
 30
0.0
 10
1.955799999999999
 20
15.2908
 30
0.0
 10
2.1082
 20
15.2146
 30
0.0
 10
2.209799999999999
 20
15.0876
 30
0.0
 10
2.209799999999999
 20
15.0876
 30
0.0
 10
2.3622
 20
14.9098
 30
0.0
 10
2.489199999999999
 20
14.6558
 30
0.0
 10
2.5146
 20
14.351
 30
0.0
 10
2.5146
 20
14.351
 30
0.0
 10
2.5146
 20
14.351
 30
0.0
 10
2.5146
 20
14.224
 30
0.0
 10
2.5146
 20
14.224
 30
0.0
 10
2.5146
 20
14.224
 30
0.0
 10
2.5146
 20
14.224
 30
0.0
 10
1.6002
 20
14.224
 30
0.0
 10
1.6002
 20
14.224
 30
0.0
 10
1.6002
 20
14.224
 30
0.0
 10
1.6002
 20
14.224
 30
0.0
 10
1.6002
 20
14.351
 30
0.0
 10
1.6002
 20
14.351
 30
0.0
  0
SPLINE
  5
58
330
A
100
AcDbEntity
  8
Layer 1
100
AcDbSpline
210
0.0
220
0.0
230
1.0
 70
     9
 71
     3
 72
    88
 73
    84
 74
     0
 42
0.0000000001
 43
0.0000000001
 40
0.0
 40
0.0
 40
0.0
 40
0.0
 40
0.0476190476190476
 40
0.0476190476190476
 40
0.0476190476190476
 40
0.0476190476190476
 40
0.0952380952380952
 40
0.0952380952380952
 40
0.0952380952380952
 40
0.0952380952380952
 40
0.1428571428571429
 40
0.1428571428571429
 40
0.1428571428571429
 40
0.1428571428571429
 40
0.1904761904761905
 40
0.1904761904761905
 40
0.1904761904761905
 40
0.1904761904761905
 40
0.2380952380952381
 40
0.2380952380952381
 40
0.2380952380952381
 40
0.2380952380952381
 40
0.2857142857142857
 40
0.2857142857142857
 40
0.2857142857142857
 40
0.2857142857142857
 40
0.3333333333333333
 40
0.3333333333333333
 40
0.3333333333333333
 40
0.3333333333333333
 40
0.3809523809523809
 40
0.3809523809523809
 40
0.3809523809523809
 40
0.3809523809523809
 40
0.4285714285714287
 40
0.4285714285714287
 40
0.4285714285714287
 40
0.4285714285714287
 40
0.4761904761904762
 40
0.4761904761904762
 40
0.4761904761904762
 40
0.4761904761904762
 40
0.5238095238095238
 40
0.5238095238095238
 40
0.5238095238095238
 40
0.5238095238095238
 40
0.5714285714285714
 40
0.5714285714285714
 40
0.5714285714285714
 40
0.5714285714285714
 40
0.6190476190476191
 40
0.6190476190476191
 40
0.6190476190476191
 40
0.6190476190476191
 40
0.6666666666666668
 40
0.6666666666666668
 40
0.6666666666666668
 40
0.6666666666666668
 40
0.7142857142857145
 40
0.7142857142857145
 40
0.7142857142857145
 40
0.7142857142857145
 40
0.7619047619047621
 40
0.7619047619047621
 40
0.7619047619047621
 40
0.7619047619047621
 40
0.8095238095238098
 40
0.8095238095238098
 40
0.8095238095238098
 40
0.8095238095238098
 40
0.8571428571428574
 40
0.8571428571428574
 40
0.8571428571428574
 40
0.8571428571428574
 40
0.9047619047619052
 40
0.9047619047619052
 40
0.9047619047619052
 40
0.9047619047619052
 40
0.9523809523809527
 40
0.9523809523809527
 40
0.9523809523809527
 40
0.9523809523809527
 40
1.0
 40
1.0
 40
1.0
 40
1.0
 10
3.9878
 20
13.2842
 30
0.0
 10
4.0132
 20
13.1572
 30
0.0
 10
4.038599999999999
 20
13.0302
 30
0.0
 10
4.0894
 20
12.9032
 30
0.0
 10
4.0894
 20
12.9032
 30
0.0
 10
4.190999999999999
 20
12.6492
 30
0.0
 10
4.394199999999999
 20
12.5222
 30
0.0
 10
4.698999999999999
 20
12.4968
 30
0.0
 10
4.698999999999999
 20
12.4968
 30
0.0
 10
5.054599999999999
 20
12.4968
 30
0.0
 10
5.257799999999999
 20
12.6746
 30
0.0
 10
5.3086
 20
12.9794
 30
0.0
 10
5.3086
 20
12.9794
 30
0.0
 10
5.3086
 20
12.9794
 30
0.0
 10
5.3086
 20
13.0556
 30
0.0
 10
5.3086
 20
13.0556
 30
0.0
 10
5.3086
 20
13.0556
 30
0.0
 10
5.3086
 20
13.0556
 30
0.0
 10
6.222999999999999
 20
13.0556
 30
0.0
 10
6.222999999999999
 20
13.0556
 30
0.0
 10
6.222999999999999
 20
13.0556
 30
0.0
 10
6.222999999999999
 20
13.0556
 30
0.0
 10
6.222999999999999
 20
12.954
 30
0.0
 10
6.222999999999999
 20
12.954
 30
0.0
 10
6.222999999999999
 20
12.954
 30
0.0
 10
6.1976
 20
12.6746
 30
0.0
 10
6.096
 20
12.446
 30
0.0
 10
5.918199999999999
 20
12.2936
 30
0.0
 10
5.918199999999999
 20
12.2936
 30
0.0
 10
5.791199999999999
 20
12.192
 30
0.0
 10
5.638799999999999
 20
12.0904
 30
0.0
 10
5.486399999999999
 20
12.0396
 30
0.0
 10
5.486399999999999
 20
12.0396
 30
0.0
 10
5.257799999999999
 20
11.9634
 30
0.0
 10
4.978399999999999
 20
11.938
 30
0.0
 10
4.7244
 20
11.938
 30
0.0
 10
4.7244
 20
11.938
 30
0.0
 10
4.4958
 20
11.938
 30
0.0
 10
4.267199999999999
 20
11.9634
 30
0.0
 10
4.064
 20
12.0142
 30
0.0
 10
4.064
 20
12.0142
 30
0.0
 10
3.860799999999999
 20
12.065
 30
0.0
 10
3.682999999999999
 20
12.1666
 30
0.0
 10
3.5306
 20
12.319
 30
0.0
 10
3.5306
 20
12.319
 30
0.0
 10
3.2258
 20
12.6238
 30
0.0
 10
3.073399999999999
 20
13.0556
 30
0.0
 10
3.073399999999999
 20
13.6652
 30
0.0
 10
3.073399999999999
 20
13.6652
 30
0.0
 10
3.073399999999999
 20
14.224
 30
0.0
 10
3.2004
 20
14.6558
 30
0.0
 10
3.4798
 20
14.9606
 30
0.0
 10
3.4798
 20
14.9606
 30
0.0
 10
3.7846
 20
15.3162
 30
0.0
 10
4.2164
 20
15.494
 30
0.0
 10
4.749799999999999
 20
15.494
 30
0.0
 10
4.749799999999999
 20
15.494
 30
0.0
 10
4.978399999999999
 20
15.494
 30
0.0
 10
5.206999999999999
 20
15.4432
 30
0.0
 10
5.3848
 20
15.367
 30
0.0
 10
5.3848
 20
15.367
 30
0.0
 10
5.6642
 20
15.2654
 30
0.0
 10
5.867399999999999
 20
15.113
 30
0.0
 10
5.994399999999999
 20
14.859
 30
0.0
 10
5.994399999999999
 20
14.859
 30
0.0
 10
6.1214
 20
14.6812
 30
0.0
 10
6.1976
 20
14.478
 30
0.0
 10
6.2484
 20
14.2494
 30
0.0
 10
6.2484
 20
14.2494
 30
0.0
 10
6.273799999999999
 20
14.0716
 30
0.0
 10
6.273799999999999
 20
13.8684
 30
0.0
 10
6.273799999999999
 20
13.6652
 30
0.0
 10
6.273799999999999
 20
13.6652
 30
0.0
 10
6.273799999999999
 20
13.6652
 30
0.0
 10
6.273799999999999
 20
13.4874
 30
0.0
 10
6.273799999999999
 20
13.4874
 30
0.0
 10
6.273799999999999
 20
13.4874
 30
0.0
 10
6.273799999999999
 20
13.4874
 30
0.0
 10
3.9878
 20
13.4874
 30
0.0
 10
3.9878
 20
13.4874
 30
0.0
 10
3.9878
 20
13.4874
 30
0.0
 10
3.9878
 20
13.4874
 30
0.0
 10
3.9878
 20
13.2842
 30
0.0
 10
3.9878
 20
13.2842
 30
0.0
  0
SPLINE
  5
59
330
A
100
AcDbEntity
  8
Layer 1
100
AcDbSpline
210
0.0
220
0.0
230
1.0
 70
    11
 71
     3
 72
    24
 73
    20
 74
     0
 42
0.0000000001
 43
0.0000000001
 40
0.0
 40
0.0
 40
0.0
 40
0.0
 40
0.2
 40
0.2
 40
0.2
 40
0.2
 40
0.4
 40
0.4
 40
0.4
 40
0.4
 40
0.6000000000000001
 40
0.6000000000000001
 40
0.6000000000000001
 40
0.6000000000000001
 40
0.8
 40
0.8
 40
0.8
 40
0.8
 40
1.0
 40
1.0
 40
1.0
 40
1.0
 10
5.359399999999999
 20
14.0716
 30
0.0
 10
5.359399999999999
 20
14.0716
 30
0.0
 10
5.359399999999999
 20
14.224
 30
0.0
 10
5.359399999999999
 20
14.224
 30
0.0
 10
5.359399999999999
 20
14.224
 30
0.0
 10
5.3086
 20
14.6558
 30
0.0
 10
5.1054
 20
14.8844
 30
0.0
 10
4.698999999999999
 20
14.8844
 30
0.0
 10
4.698999999999999
 20
14.8844
 30
0.0
 10
4.2926
 20
14.8844
 30
0.0
 10
4.064
 20
14.6558
 30
0.0
 10
4.0132
 20
14.1986
 30
0.0
 10
4.0132
 20
14.1986
 30
0.0
 10
4.0132
 20
14.1986
 30
0.0
 10
4.0132
 20
14.0716
 30
0.0
 10
4.0132
 20
14.0716
 30
0.0
 10
4.0132
 20
14.0716
 30
0.0
 10
4.0132
 20
14.0716
 30
0.0
 10
5.359399999999999
 20
14.0716
 30
0.0
 10
5.359399999999999
 20
14.0716
 30
0.0
  0
SPLINE
  5
5A
330
A
100
AcDbEntity
  8
Layer 1
100
AcDbSpline
210
0.0
220
0.0
230
1.0
 70
    11
 71
     3
 72
    20
 73
    16
 74
     0
 42
0.0000000001
 43
0.0000000001
 40
0.0
 40
0.0
 40
0.0
 40
0.0
 40
0.25
 40
0.25
 40
0.25
 40
0.25
 40
0.5
 40
0.5
 40
0.5
 40
0.5
 40
0.75
 40
0.75
 40
0.75
 40
0.75
 40
1.0
 40
1.0
 40
1.0
 40
1.0
 10
7.873999999999998
 20
16.8656
 30
0.0
 10
7.873999999999998
 20
16.8656
 30
0.0
 10
7.873999999999998
 20
12.0142
 30
0.0
 10
7.873999999999998
 20
12.0142
 30
0.0
 10
7.873999999999998
 20
12.0142
 30
0.0
 10
7.873999999999998
 20
12.0142
 30
0.0
 10
6.9596
 20
12.0142
 30
0.0
 10
6.9596
 20
12.0142
 30
0.0
 10
6.9596
 20
12.0142
 30
0.0
 10
6.9596
 20
12.0142
 30
0.0
 10
6.9596
 20
16.8656
 30
0.0
 10
6.9596
 20
16.8656
 30
0.0
 10
6.9596
 20
16.8656
 30
0.0
 10
6.9596
 20
16.8656
 30
0.0
 10
7.873999999999998
 20
16.8656
 30
0.0
 10
7.873999999999998
 20
16.8656
 30
0.0
  0
SPLINE
  5
5B
330
A
100
AcDbEntity
  8
Layer 1
100
AcDbSpline
210
0.0
220
0.0
230
1.0
 70
     9
 71
     3
 72
    88
 73
    84
 74
     0
 42
0.0000000001
 43
0.0000000001
 40
0.0
 40
0.0
 40
0.0
 40
0.0
 40
0.0476190476190476
 40
0.0476190476190476
 40
0.0476190476190476
 40
0.0476190476190476
 40
0.0952380952380952
 40
0.0952380952380952
 40
0.0952380952380952
 40
0.0952380952380952
 40
0.1428571428571429
 40
0.1428571428571429
 40
0.1428571428571429
 40
0.1428571428571429
 40
0.1904761904761905
 40
0.1904761904761905
 40
0.1904761904761905
 40
0.1904761904761905
 40
0.2380952380952381
 40
0.2380952380952381
 40
0.2380952380952381
 40
0.2380952380952381
 40
0.2857142857142857
 40
0.2857142857142857
 40
0.2857142857142857
 40
0.2857142857142857
 40
0.3333333333333333
 40
0.3333333333333333
 40
0.3333333333333333
 40
0.3333333333333333
 40
0.3809523809523809
 40
0.3809523809523809
 40
0.3809523809523809
 40
0.3809523809523809
 40
0.4285714285714287
 40
0.4285714285714287
 40
0.4285714285714287
 40
0.4285714285714287
 40
0.4761904761904762
 40
0.4761904761904762
 40
0.4761904761904762
 40
0.4761904761904762
 40
0.5238095238095238
 40
0.5238095238095238
 40
0.5238095238095238
 40
0.5238095238095238
 40
0.5714285714285714
 40
0.5714285714285714
 40
0.5714285714285714
 40
0.5714285714285714
 40
0.6190476190476191
 40
0.6190476190476191
 40
0.6190476190476191
 40
0.6190476190476191
 40
0.6666666666666668
 40
0.6666666666666668
 40
0.6666666666666668
 40
0.6666666666666668
 40
0.7142857142857145
 40
0.7142857142857145
 40
0.7142857142857145
 40
0.7142857142857145
 40
0.7619047619047621
 40
0.7619047619047621
 40
0.7619047619047621
 40
0.7619047619047621
 40
0.8095238095238098
 40
0.8095238095238098
 40
0.8095238095238098
 40
0.8095238095238098
 40
0.8571428571428574
 40
0.8571428571428574
 40
0.8571428571428574
 40
0.8571428571428574
 40
0.9047619047619052
 40
0.9047619047619052
 40
0.9047619047619052
 40
0.9047619047619052
 40
0.9523809523809527
 40
0.9523809523809527
 40
0.9523809523809527
 40
0.9523809523809527
 40
1.0
 40
1.0
 40
1.0
 40
1.0
 10
9.474199999999999
 20
13.2842
 30
0.0
 10
9.499599999999999
 20
13.1572
 30
0.0
 10
9.525
 20
13.0302
 30
0.0
 10
9.575799999999999
 20
12.9032
 30
0.0
 10
9.575799999999999
 20
12.9032
 30
0.0
 10
9.6774
 20
12.6492
 30
0.0
 10
9.880599999999999
 20
12.5222
 30
0.0
 10
10.1854
 20
12.4968
 30
0.0
 10
10.1854
 20
12.4968
 30
0.0
 10
10.541
 20
12.4968
 30
0.0
 10
10.7442
 20
12.6746
 30
0.0
 10
10.795
 20
12.9794
 30
0.0
 10
10.795
 20
12.9794
 30
0.0
 10
10.795
 20
12.9794
 30
0.0
 10
10.795
 20
13.0556
 30
0.0
 10
10.795
 20
13.0556
 30
0.0
 10
10.795
 20
13.0556
 30
0.0
 10
10.795
 20
13.0556
 30
0.0
 10
11.7094
 20
13.0556
 30
0.0
 10
11.7094
 20
13.0556
 30
0.0
 10
11.7094
 20
13.0556
 30
0.0
 10
11.7094
 20
13.0556
 30
0.0
 10
11.7094
 20
12.954
 30
0.0
 10
11.7094
 20
12.954
 30
0.0
 10
11.7094
 20
12.954
 30
0.0
 10
11.684
 20
12.6746
 30
0.0
 10
11.5824
 20
12.446
 30
0.0
 10
11.4046
 20
12.2936
 30
0.0
 10
11.4046
 20
12.2936
 30
0.0
 10
11.2776
 20
12.192
 30
0.0
 10
11.1252
 20
12.0904
 30
0.0
 10
10.9728
 20
12.0396
 30
0.0
 10
10.9728
 20
12.0396
 30
0.0
 10
10.7442
 20
11.9634
 30
0.0
 10
10.4648
 20
11.938
 30
0.0
 10
10.2108
 20
11.938
 30
0.0
 10
10.2108
 20
11.938
 30
0.0
 10
9.9822
 20
11.938
 30
0.0
 10
9.7536
 20
11.9634
 30
0.0
 10
9.550399999999999
 20
12.0142
 30
0.0
 10
9.550399999999999
 20
12.0142
 30
0.0
 10
9.3472
 20
12.065
 30
0.0
 10
9.169399999999999
 20
12.1666
 30
0.0
 10
9.016999999999999
 20
12.319
 30
0.0
 10
9.016999999999999
 20
12.319
 30
0.0
 10
8.712199999999999
 20
12.6238
 30
0.0
 10
8.559799999999999
 20
13.0556
 30
0.0
 10
8.559799999999999
 20
13.6652
 30
0.0
 10
8.559799999999999
 20
13.6652
 30
0.0
 10
8.559799999999999
 20
14.224
 30
0.0
 10
8.686799999999999
 20
14.6558
 30
0.0
 10
8.9662
 20
14.9606
 30
0.0
 10
8.9662
 20
14.9606
 30
0.0
 10
9.271
 20
15.3162
 30
0.0
 10
9.702800000000001
 20
15.494
 30
0.0
 10
10.2362
 20
15.494
 30
0.0
 10
10.2362
 20
15.494
 30
0.0
 10
10.4648
 20
15.494
 30
0.0
 10
10.6934
 20
15.4432
 30
0.0
 10
10.8712
 20
15.367
 30
0.0
 10
10.8712
 20
15.367
 30
0.0
 10
11.1506
 20
15.2654
 30
0.0
 10
11.3538
 20
15.113
 30
0.0
 10
11.4808
 20
14.859
 30
0.0
 10
11.4808
 20
14.859
 30
0.0
 10
11.6078
 20
14.6812
 30
0.0
 10
11.684
 20
14.478
 30
0.0
 10
11.7348
 20
14.2494
 30
0.0
 10
11.7348
 20
14.2494
 30
0.0
 10
11.7602
 20
14.0716
 30
0.0
 10
11.7602
 20
13.8684
 30
0.0
 10
11.7602
 20
13.6652
 30
0.0
 10
11.7602
 20
13.6652
 30
0.0
 10
11.7602
 20
13.6652
 30
0.0
 10
11.7602
 20
13.4874
 30
0.0
 10
11.7602
 20
13.4874
 30
0.0
 10
11.7602
 20
13.4874
 30
0.0
 10
11.7602
 20
13.4874
 30
0.0
 10
9.474199999999999
 20
13.4874
 30
0.0
 10
9.474199999999999
 20
13.4874
 30
0.0
 10
9.474199999999999
 20
13.4874
 30
0.0
 10
9.474199999999999
 20
13.4874
 30
0.0
 10
9.474199999999999
 20
13.2842
 30
0.0
 10
9.474199999999999
 20
13.2842
 30
0.0
  0
SPLINE
  5
5C
330
A
100
AcDbEntity
  8
Layer 1
100
AcDbSpline
210
0.0
220
0.0
230
1.0
 70
    11
 71
     3
 72
    24
 73
    20
 74
     0
 42
0.0000000001
 43
0.0000000001
 40
0.0
 40
0.0
 40
0.0
 40
0.0
 40
0.2
 40
0.2
 40
0.2
 40
0.2
 40
0.4
 40
0.4
 40
0.4
 40
0.4
 40
0.6000000000000001
 40
0.6000000000000001
 40
0.6000000000000001
 40
0.6000000000000001
 40
0.8
 40
0.8
 40
0.8
 40
0.8
 40
1.0
 40
1.0
 40
1.0
 40
1.0
 10
10.8458
 20
14.0716
 30
0.0
 10
10.8458
 20
14.0716
 30
0.0
 10
10.8458
 20
14.224
 30
0.0
 10
10.8458
 20
14.224
 30
0.0
 10
10.8458
 20
14.224
 30
0.0
 10
10.795
 20
14.6558
 30
0.0
 10
10.5918
 20
14.8844
 30
0.0
 10
10.1854
 20
14.8844
 30
0.0
 10
10.1854
 20
14.8844
 30
0.0
 10
9.779000000000001
 20
14.8844
 30
0.0
 10
9.550399999999999
 20
14.6558
 30
0.0
 10
9.499599999999999
 20
14.1986
 30
0.0
 10
9.499599999999999
 20
14.1986
 30
0.0
 10
9.499599999999999
 20
14.1986
 30
0.0
 10
9.499599999999999
 20
14.0716
 30
0.0
 10
9.499599999999999
 20
14.0716
 30
0.0
 10
9.499599999999999
 20
14.0716
 30
0.0
 10
9.499599999999999
 20
14.0716
 30
0.0
 10
10.8458
 20
14.0716
 30
0.0
 10
10.8458
 20
14.0716
 30
0.0
  0
SPLINE
  5
5D
330
A
100
AcDbEntity
  8
Layer 1
100
AcDbSpline
210
0.0
220
0.0
230
1.0
 70
    11
 71
     3
 72
    56
 73
    52
 74
     0
 42
0.0000000001
 43
0.0000000001
 40
0.0
 40
0.0
 40
0.0
 40
0.0
 40
0.0769230769230769
 40
0.0769230769230769
 40
0.0769230769230769
 40
0.0769230769230769
 40
0.1538461538461539
 40
0.1538461538461539
 40
0.1538461538461539
 40
0.1538461538461539
 40
0.2307692307692308
 40
0.2307692307692308
 40
0.2307692307692308
 40
0.2307692307692308
 40
0.3076923076923077
 40
0.3076923076923077
 40
0.3076923076923077
 40
0.3076923076923077
 40
0.3846153846153846
 40
0.3846153846153846
 40
0.3846153846153846
 40
0.3846153846153846
 40
0.4615384615384616
 40
0.4615384615384616
 40
0.4615384615384616
 40
0.4615384615384616
 40
0.5384615384615385
 40
0.5384615384615385
 40
0.5384615384615385
 40
0.5384615384615385
 40
0.6153846153846155
 40
0.6153846153846155
 40
0.6153846153846155
 40
0.6153846153846155
 40
0.6923076923076924
 40
0.6923076923076924
 40
0.6923076923076924
 40
0.6923076923076924
 40
0.7692307692307692
 40
0.7692307692307692
 40
0.7692307692307692
 40
0.7692307692307692
 40
0.8461538461538459
 40
0.8461538461538459
 40
0.8461538461538459
 40
0.8461538461538459
 40
0.9230769230769228
 40
0.9230769230769228
 40
0.9230769230769228
 40
0.9230769230769228
 40
1.0
 40
1.0
 40
1.0
 40
1.0
 10
13.3604
 20
15.3924
 30
0.0
 10
13.3604
 20
15.3924
 30
0.0
 10
13.3604
 20
14.8336
 30
0.0
 10
13.3604
 20
14.8336
 30
0.0
 10
13.3604
 20
14.8336
 30
0.0
 10
13.3604
 20
14.8336
 30
0.0
 10
13.462
 20
14.986
 30
0.0
 10
13.462
 20
14.986
 30
0.0
 10
13.462
 20
14.986
 30
0.0
 10
13.5382
 20
15.0876
 30
0.0
 10
13.6398
 20
15.1892
 30
0.0
 10
13.7414
 20
15.2654
 30
0.0
 10
13.7414
 20
15.2654
 30
0.0
 10
13.8684
 20
15.3924
 30
0.0
 10
14.0716
 20
15.4686
 30
0.0
 10
14.3002
 20
15.494
 30
0.0
 10
14.3002
 20
15.494
 30
0.0
 10
14.3002
 20
15.494
 30
0.0
 10
14.3764
 20
15.494
 30
0.0
 10
14.3764
 20
15.494
 30
0.0
 10
14.3764
 20
15.494
 30
0.0
 10
14.3764
 20
15.494
 30
0.0
 10
14.3764
 20
14.6304
 30
0.0
 10
14.3764
 20
14.6304
 30
0.0
 10
14.3764
 20
14.6304
 30
0.0
 10
14.3764
 20
14.6304
 30
0.0
 10
14.2748
 20
14.6304
 30
0.0
 10
14.2748
 20
14.6304
 30
0.0
 10
14.2748
 20
14.6304
 30
0.0
 10
13.716
 20
14.605
 30
0.0
 10
13.4366
 20
14.3256
 30
0.0
 10
13.4112
 20
13.7668
 30
0.0
 10
13.4112
 20
13.7668
 30
0.0
 10
13.4112
 20
13.7668
 30
0.0
 10
13.3858
 20
13.4874
 30
0.0
 10
13.3858
 20
13.4874
 30
0.0
 10
13.3858
 20
13.4874
 30
0.0
 10
13.3858
 20
13.4874
 30
0.0
 10
13.3858
 20
12.0142
 30
0.0
 10
13.3858
 20
12.0142
 30
0.0
 10
13.3858
 20
12.0142
 30
0.0
 10
13.3858
 20
12.0142
 30
0.0
 10
12.4714
 20
12.0142
 30
0.0
 10
12.4714
 20
12.0142
 30
0.0
 10
12.4714
 20
12.0142
 30
0.0
 10
12.4714
 20
12.0142
 30
0.0
 10
12.4714
 20
15.3924
 30
0.0
 10
12.4714
 20
15.3924
 30
0.0
 10
12.4714
 20
15.3924
 30
0.0
 10
12.4714
 20
15.3924
 30
0.0
 10
13.3604
 20
15.3924
 30
0.0
 10
13.3604
 20
15.3924
 30
0.0
  0
SPLINE
  5
5E
330
A
100
AcDbEntity
  8
Layer 1
100
AcDbSpline
210
0.0
220
0.0
230
1.0
 70
    11
 71
     3
 72
    52
 73
    48
 74
     0
 42
0.0000000001
 43
0.0000000001
 40
0.0
 40
0.0
 40
0.0
 40
0.0
 40
0.0833333333333333
 40
0.0833333333333333
 40
0.0833333333333333
 40
0.0833333333333333
 40
0.1666666666666667
 40
0.1666666666666667
 40
0.1666666666666667
 40
0.1666666666666667
 40
0.25
 40
0.25
 40
0.25
 40
0.25
 40
0.3333333333333333
 40
0.3333333333333333
 40
0.3333333333333333
 40
0.3333333333333333
 40
0.4166666666666666
 40
0.4166666666666666
 40
0.4166666666666666
 40
0.4166666666666666
 40
0.5
 40
0.5
 40
0.5
 40
0.5
 40
0.5833333333333333
 40
0.5833333333333333
 40
0.5833333333333333
 40
0.5833333333333333
 40
0.6666666666666666
 40
0.6666666666666666
 40
0.6666666666666666
 40
0.6666666666666666
 40
0.75
 40
0.75
 40
0.75
 40
0.75
 40
0.8333333333333333
 40
0.8333333333333333
 40
0.8333333333333333
 40
0.8333333333333333
 40
0.9166666666666667
 40
0.9166666666666667
 40
0.9166666666666667
 40
0.9166666666666667
 40
1.0
 40
1.0
 40
1.0
 40
1.0
 10
14.859
 20
13.716
 30
0.0
 10
14.859
 20
13.9954
 30
0.0
 10
14.9098
 20
14.2494
 30
0.0
 10
14.986
 20
14.478
 30
0.0
 10
14.986
 20
14.478
 30
0.0
 10
15.0622
 20
14.6812
 30
0.0
 10
15.1638
 20
14.859
 30
0.0
 10
15.2908
 20
15.0114
 30
0.0
 10
15.2908
 20
15.0114
 30
0.0
 10
15.5956
 20
15.3162
 30
0.0
 10
16.0274
 20
15.4686
 30
0.0
 10
16.5862
 20
15.494
 30
0.0
 10
16.5862
 20
15.494
 30
0.0
 10
16.8402
 20
15.494
 30
0.0
 10
17.0942
 20
15.4432
 30
0.0
 10
17.3482
 20
15.367
 30
0.0
 10
17.3482
 20
15.367
 30
0.0
 10
17.5514
 20
15.2908
 30
0.0
 10
17.7038
 20
15.1892
 30
0.0
 10
17.8562
 20
15.0368
 30
0.0
 10
17.8562
 20
15.0368
 30
0.0
 10
17.9832
 20
14.8844
 30
0.0
 10
18.0848
 20
14.7066
 30
0.0
 10
18.1356
 20
14.5288
 30
0.0
 10
18.1356
 20
14.5288
 30
0.0
 10
18.2372
 20
14.2494
 30
0.0
 10
18.288
 20
13.97
 30
0.0
 10
18.288
 20
13.6906
 30
0.0
 10
18.288
 20
13.6906
 30
0.0
 10
18.288
 20
13.1318
 30
0.0
 10
18.1356
 20
12.7
 30
0.0
 10
17.8308
 20
12.3952
 30
0.0
 10
17.8308
 20
12.3952
 30
0.0
 10
17.526
 20
12.065
 30
0.0
 10
17.1196
 20
11.938
 30
0.0
 10
16.5608
 20
11.938
 30
0.0
 10
16.5608
 20
11.938
 30
0.0
 10
16.0274
 20
11.938
 30
0.0
 10
15.621
 20
12.065
 30
0.0
 10
15.3162
 20
12.3698
 30
0.0
 10
15.3162
 20
12.3698
 30
0.0
 10
15.1638
 20
12.5222
 30
0.0
 10
15.0622
 20
12.7
 30
0.0
 10
14.986
 20
12.9032
 30
0.0
 10
14.986
 20
12.9032
 30
0.0
 10
14.9098
 20
13.1572
 30
0.0
 10
14.859
 20
13.4366
 30
0.0
 10
14.859
 20
13.716
 30
0.0
  0
SPLINE
  5
5F
330
A
100
AcDbEntity
  8
Layer 1
100
AcDbSpline
210
0.0
220
0.0
230
1.0
 70
     9
 71
     3
 72
    24
 73
    20
 74
     0
 42
0.0000000001
 43
0.0000000001
 40
0.0
 40
0.0
 40
0.0
 40
0.0
 40
0.2
 40
0.2
 40
0.2
 40
0.2
 40
0.4
 40
0.4
 40
0.4
 40
0.4
 40
0.6000000000000001
 40
0.6000000000000001
 40
0.6000000000000001
 40
0.6000000000000001
 40
0.8
 40
0.8
 40
0.8
 40
0.8
 40
1.0
 40
1.0
 40
1.0
 40
1.0
 10
15.7734
 20
13.716
 30
0.0
 10
15.7734
 20
13.4874
 30
0.0
 10
15.7988
 20
13.2842
 30
0.0
 10
15.8496
 20
13.1064
 30
0.0
 10
15.8496
 20
13.1064
 30
0.0
 10
15.9258
 20
12.7
 30
0.0
 10
16.1798
 20
12.4968
 30
0.0
 10
16.5862
 20
12.4968
 30
0.0
 10
16.5862
 20
12.4968
 30
0.0
 10
17.0942
 20
12.4968
 30
0.0
 10
17.3736
 20
12.9032
 30
0.0
 10
17.3736
 20
13.6906
 30
0.0
 10
17.3736
 20
13.6906
 30
0.0
 10
17.3736
 20
14.478
 30
0.0
 10
17.0942
 20
14.8844
 30
0.0
 10
16.5862
 20
14.8844
 30
0.0
 10
16.5862
 20
14.8844
 30
0.0
 10
16.0274
 20
14.8844
 30
0.0
 10
15.7734
 20
14.478
 30
0.0
 10
15.7734
 20
13.716
 30
0.0
  0
SPLINE
  5
60
330
A
100
AcDbEntity
  8
Layer 1
100
AcDbSpline
210
0.0
220
0.0
230
1.0
 70
    11
 71
     3
 72
   112
 73
   108
 74
     0
 42
0.0000000001
 43
0.0000000001
 40
0.0
 40
0.0
 40
0.0
 40
0.0
 40
0.037037037037037
 40
0.037037037037037
 40
0.037037037037037
 40
0.037037037037037
 40
0.0740740740740741
 40
0.0740740740740741
 40
0.0740740740740741
 40
0.0740740740740741
 40
0.1111111111111111
 40
0.1111111111111111
 40
0.1111111111111111
 40
0.1111111111111111
 40
0.1481481481481481
 40
0.1481481481481481
 40
0.1481481481481481
 40
0.1481481481481481
 40
0.1851851851851852
 40
0.1851851851851852
 40
0.1851851851851852
 40
0.1851851851851852
 40
0.2222222222222222
 40
0.2222222222222222
 40
0.2222222222222222
 40
0.2222222222222222
 40
0.2592592592592592
 40
0.2592592592592592
 40
0.2592592592592592
 40
0.2592592592592592
 40
0.2962962962962963
 40
0.2962962962962963
 40
0.2962962962962963
 40
0.2962962962962963
 40
0.3333333333333333
 40
0.3333333333333333
 40
0.3333333333333333
 40
0.3333333333333333
 40
0.3703703703703704
 40
0.3703703703703704
 40
0.3703703703703704
 40
0.3703703703703704
 40
0.4074074074074074
 40
0.4074074074074074
 40
0.4074074074074074
 40
0.4074074074074074
 40
0.4444444444444445
 40
0.4444444444444445
 40
0.4444444444444445
 40
0.4444444444444445
 40
0.4814814814814815
 40
0.4814814814814815
 40
0.4814814814814815
 40
0.4814814814814815
 40
0.5185185185185186
 40
0.5185185185185186
 40
0.5185185185185186
 40
0.5185185185185186
 40
0.5555555555555556
 40
0.5555555555555556
 40
0.5555555555555556
 40
0.5555555555555556
 40
0.5925925925925926
 40
0.5925925925925926
 40
0.5925925925925926
 40
0.5925925925925926
 40
0.6296296296296296
 40
0.6296296296296296
 40
0.6296296296296296
 40
0.6296296296296296
 40
0.6666666666666666
 40
0.6666666666666666
 40
0.6666666666666666
 40
0.6666666666666666
 40
0.7037037037037035
 40
0.7037037037037035
 40
0.7037037037037035
 40
0.7037037037037035
 40
0.7407407407407405
 40
0.7407407407407405
 40
0.7407407407407405
 40
0.7407407407407405
 40
0.7777777777777775
 40
0.7777777777777775
 40
0.7777777777777775
 40
0.7777777777777775
 40
0.8148148148148145
 40
0.8148148148148145
 40
0.8148148148148145
 40
0.8148148148148145
 40
0.8518518518518513
 40
0.8518518518518513
 40
0.8518518518518513
 40
0.8518518518518513
 40
0.8888888888888883
 40
0.8888888888888883
 40
0.8888888888888883
 40
0.8888888888888883
 40
0.9259259259259254
 40
0.9259259259259254
 40
0.9259259259259254
 40
0.9259259259259254
 40
0.9629629629629622
 40
0.9629629629629622
 40
0.9629629629629622
 40
0.9629629629629622
 40
1.0
 40
1.0
 40
1.0
 40
1.0
 10
19.9644
 20
15.3924
 30
0.0
 10
19.9644
 20
15.3924
 30
0.0
 10
19.9644
 20
14.8844
 30
0.0
 10
19.9644
 20
14.8844
 30
0.0
 10
19.9644
 20
14.8844
 30
0.0
 10
20.0152
 20
14.986
 30
0.0
 10
20.066
 20
15.0368
 30
0.0
 10
20.0914
 20
15.0876
 30
0.0
 10
20.0914
 20
15.0876
 30
0.0
 10
20.2946
 20
15.3416
 30
0.0
 10
20.5994
 20
15.494
 30
0.0
 10
21.0058
 20
15.494
 30
0.0
 10
21.0058
 20
15.494
 30
0.0
 10
21.1836
 20
15.494
 30
0.0
 10
21.3868
 20
15.4432
 30
0.0
 10
21.5392
 20
15.3924
 30
0.0
 10
21.5392
 20
15.3924
 30
0.0
 10
21.7932
 20
15.2908
 30
0.0
 10
21.971
 20
15.113
 30
0.0
 10
22.0726
 20
14.8336
 30
0.0
 10
22.0726
 20
14.8336
 30
0.0
 10
22.3012
 20
15.2654
 30
0.0
 10
22.6568
 20
15.494
 30
0.0
 10
23.1648
 20
15.494
 30
0.0
 10
23.1648
 20
15.494
 30
0.0
 10
23.4442
 20
15.494
 30
0.0
 10
23.6982
 20
15.4178
 30
0.0
 10
23.9014
 20
15.2654
 30
0.0
 10
23.9014
 20
15.2654
 30
0.0
 10
24.13
 20
15.113
 30
0.0
 10
24.257
 20
14.9098
 30
0.0
 10
24.3078
 20
14.6304
 30
0.0
 10
24.3078
 20
14.6304
 30
0.0
 10
24.3332
 20
14.5034
 30
0.0
 10
24.3332
 20
14.3764
 30
0.0
 10
24.3332
 20
14.2494
 30
0.0
 10
24.3332
 20
14.2494
 30
0.0
 10
24.3332
 20
14.2494
 30
0.0
 10
24.3332
 20
13.843
 30
0.0
 10
24.3332
 20
13.843
 30
0.0
 10
24.3332
 20
13.843
 30
0.0
 10
24.3332
 20
13.843
 30
0.0
 10
24.3332
 20
12.0142
 30
0.0
 10
24.3332
 20
12.0142
 30
0.0
 10
24.3332
 20
12.0142
 30
0.0
 10
24.3332
 20
12.0142
 30
0.0
 10
23.4188
 20
12.0142
 30
0.0
 10
23.4188
 20
12.0142
 30
0.0
 10
23.4188
 20
12.0142
 30
0.0
 10
23.4188
 20
12.0142
 30
0.0
 10
23.4188
 20
13.843
 30
0.0
 10
23.4188
 20
13.843
 30
0.0
 10
23.4188
 20
13.843
 30
0.0
 10
23.4188
 20
13.843
 30
0.0
 10
23.4188
 20
14.224
 30
0.0
 10
23.4188
 20
14.224
 30
0.0
 10
23.4188
 20
14.224
 30
0.0
 10
23.3934
 20
14.6558
 30
0.0
 10
23.1902
 20
14.8844
 30
0.0
 10
22.8346
 20
14.8844
 30
0.0
 10
22.8346
 20
14.8844
 30
0.0
 10
22.5806
 20
14.8844
 30
0.0
 10
22.4028
 20
14.7574
 30
0.0
 10
22.2758
 20
14.5288
 30
0.0
 10
22.2758
 20
14.5288
 30
0.0
 10
22.1996
 20
14.3764
 30
0.0
 10
22.1488
 20
14.1478
 30
0.0
 10
22.1488
 20
13.843
 30
0.0
 10
22.1488
 20
13.843
 30
0.0
 10
22.1488
 20
13.843
 30
0.0
 10
22.1488
 20
12.0142
 30
0.0
 10
22.1488
 20
12.0142
 30
0.0
 10
22.1488
 20
12.0142
 30
0.0
 10
22.1488
 20
12.0142
 30
0.0
 10
21.2344
 20
12.0142
 30
0.0
 10
21.2344
 20
12.0142
 30
0.0
 10
21.2344
 20
12.0142
 30
0.0
 10
21.2344
 20
12.0142
 30
0.0
 10
21.2344
 20
13.8176
 30
0.0
 10
21.2344
 20
13.8176
 30
0.0
 10
21.2344
 20
13.8176
 30
0.0
 10
21.2344
 20
13.8176
 30
0.0
 10
21.2344
 20
14.1478
 30
0.0
 10
21.2344
 20
14.1478
 30
0.0
 10
21.2344
 20
14.1478
 30
0.0
 10
21.209
 20
14.6304
 30
0.0
 10
21.0058
 20
14.8844
 30
0.0
 10
20.6502
 20
14.8844
 30
0.0
 10
20.6502
 20
14.8844
 30
0.0
 10
20.193
 20
14.8844
 30
0.0
 10
19.9644
 20
14.5288
 30
0.0
 10
19.9644
 20
13.8176
 30
0.0
 10
19.9644
 20
13.8176
 30
0.0
 10
19.9644
 20
13.8176
 30
0.0
 10
19.9644
 20
12.0142
 30
0.0
 10
19.9644
 20
12.0142
 30
0.0
 10
19.9644
 20
12.0142
 30
0.0
 10
19.9644
 20
12.0142
 30
0.0
 10
19.05
 20
12.0142
 30
0.0
 10
19.05
 20
12.0142
 30
0.0
 10
19.05
 20
12.0142
 30
0.0
 10
19.05
 20
12.0142
 30
0.0
 10
19.05
 20
15.3924
 30
0.0
 10
19.05
 20
15.3924
 30
0.0
 10
19.05
 20
15.3924
 30
0.0
 10
19.05
 20
15.3924
 30
0.0
 10
19.9644
 20
15.3924
 30
0.0
 10
19.9644
 20
15.3924
 30
0.0
  0
SPLINE
  5
61
330
A
100
AcDbEntity
  8
Layer 1
100
AcDbSpline
210
0.0
220
0.0
230
1.0
 70
     9
 71
     3
 72
    88
 73
    84
 74
     0
 42
0.0000000001
 43
0.0000000001
 40
0.0
 40
0.0
 40
0.0
 40
0.0
 40
0.0476190476190476
 40
0.0476190476190476
 40
0.0476190476190476
 40
0.0476190476190476
 40
0.0952380952380952
 40
0.0952380952380952
 40
0.0952380952380952
 40
0.0952380952380952
 40
0.1428571428571429
 40
0.1428571428571429
 40
0.1428571428571429
 40
0.1428571428571429
 40
0.1904761904761905
 40
0.1904761904761905
 40
0.1904761904761905
 40
0.1904761904761905
 40
0.2380952380952381
 40
0.2380952380952381
 40
0.2380952380952381
 40
0.2380952380952381
 40
0.2857142857142857
 40
0.2857142857142857
 40
0.2857142857142857
 40
0.2857142857142857
 40
0.3333333333333333
 40
0.3333333333333333
 40
0.3333333333333333
 40
0.3333333333333333
 40
0.3809523809523809
 40
0.3809523809523809
 40
0.3809523809523809
 40
0.3809523809523809
 40
0.4285714285714287
 40
0.4285714285714287
 40
0.4285714285714287
 40
0.4285714285714287
 40
0.4761904761904762
 40
0.4761904761904762
 40
0.4761904761904762
 40
0.4761904761904762
 40
0.5238095238095238
 40
0.5238095238095238
 40
0.5238095238095238
 40
0.5238095238095238
 40
0.5714285714285714
 40
0.5714285714285714
 40
0.5714285714285714
 40
0.5714285714285714
 40
0.6190476190476191
 40
0.6190476190476191
 40
0.6190476190476191
 40
0.6190476190476191
 40
0.6666666666666668
 40
0.6666666666666668
 40
0.6666666666666668
 40
0.6666666666666668
 40
0.7142857142857145
 40
0.7142857142857145
 40
0.7142857142857145
 40
0.7142857142857145
 40
0.7619047619047621
 40
0.7619047619047621
 40
0.7619047619047621
 40
0.7619047619047621
 40
0.8095238095238098
 40
0.8095238095238098
 40
0.8095238095238098
 40
0.8095238095238098
 40
0.8571428571428574
 40
0.8571428571428574
 40
0.8571428571428574
 40
0.8571428571428574
 40
0.9047619047619052
 40
0.9047619047619052
 40
0.9047619047619052
 40
0.9047619047619052
 40
0.9523809523809527
 40
0.9523809523809527
 40
0.9523809523809527
 40
0.9523809523809527
 40
1.0
 40
1.0
 40
1.0
 40
1.0
 10
25.9588
 20
13.2842
 30
0.0
 10
25.9842
 20
13.1572
 30
0.0
 10
26.0096
 20
13.0302
 30
0.0
 10
26.0604
 20
12.9032
 30
0.0
 10
26.0604
 20
12.9032
 30
0.0
 10
26.162
 20
12.6492
 30
0.0
 10
26.3652
 20
12.5222
 30
0.0
 10
26.67
 20
12.4968
 30
0.0
 10
26.67
 20
12.4968
 30
0.0
 10
27.0256
 20
12.4968
 30
0.0
 10
27.2288
 20
12.6746
 30
0.0
 10
27.2796
 20
12.9794
 30
0.0
 10
27.2796
 20
12.9794
 30
0.0
 10
27.2796
 20
12.9794
 30
0.0
 10
27.2796
 20
13.0556
 30
0.0
 10
27.2796
 20
13.0556
 30
0.0
 10
27.2796
 20
13.0556
 30
0.0
 10
27.2796
 20
13.0556
 30
0.0
 10
28.194
 20
13.0556
 30
0.0
 10
28.194
 20
13.0556
 30
0.0
 10
28.194
 20
13.0556
 30
0.0
 10
28.194
 20
13.0556
 30
0.0
 10
28.194
 20
12.954
 30
0.0
 10
28.194
 20
12.954
 30
0.0
 10
28.194
 20
12.954
 30
0.0
 10
28.1686
 20
12.6746
 30
0.0
 10
28.067
 20
12.446
 30
0.0
 10
27.8892
 20
12.2936
 30
0.0
 10
27.8892
 20
12.2936
 30
0.0
 10
27.7622
 20
12.192
 30
0.0
 10
27.6098
 20
12.0904
 30
0.0
 10
27.4574
 20
12.0396
 30
0.0
 10
27.4574
 20
12.0396
 30
0.0
 10
27.2288
 20
11.9634
 30
0.0
 10
26.9494
 20
11.938
 30
0.0
 10
26.6954
 20
11.938
 30
0.0
 10
26.6954
 20
11.938
 30
0.0
 10
26.4668
 20
11.938
 30
0.0
 10
26.2382
 20
11.9634
 30
0.0
 10
26.035
 20
12.0142
 30
0.0
 10
26.035
 20
12.0142
 30
0.0
 10
25.8318
 20
12.065
 30
0.0
 10
25.654
 20
12.1666
 30
0.0
 10
25.5016
 20
12.319
 30
0.0
 10
25.5016
 20
12.319
 30
0.0
 10
25.1968
 20
12.6238
 30
0.0
 10
25.0444
 20
13.0556
 30
0.0
 10
25.0444
 20
13.6652
 30
0.0
 10
25.0444
 20
13.6652
 30
0.0
 10
25.0444
 20
14.224
 30
0.0
 10
25.1714
 20
14.6558
 30
0.0
 10
25.4508
 20
14.9606
 30
0.0
 10
25.4508
 20
14.9606
 30
0.0
 10
25.7556
 20
15.3162
 30
0.0
 10
26.1874
 20
15.494
 30
0.0
 10
26.7208
 20
15.494
 30
0.0
 10
26.7208
 20
15.494
 30
0.0
 10
26.9494
 20
15.494
 30
0.0
 10
27.178
 20
15.4432
 30
0.0
 10
27.3558
 20
15.367
 30
0.0
 10
27.3558
 20
15.367
 30
0.0
 10
27.6352
 20
15.2654
 30
0.0
 10
27.8384
 20
15.113
 30
0.0
 10
27.9654
 20
14.859
 30
0.0
 10
27.9654
 20
14.859
 30
0.0
 10
28.0924
 20
14.6812
 30
0.0
 10
28.1686
 20
14.478
 30
0.0
 10
28.2194
 20
14.2494
 30
0.0
 10
28.2194
 20
14.2494
 30
0.0
 10
28.2448
 20
14.0716
 30
0.0
 10
28.2448
 20
13.8684
 30
0.0
 10
28.2448
 20
13.6652
 30
0.0
 10
28.2448
 20
13.6652
 30
0.0
 10
28.2448
 20
13.6652
 30
0.0
 10
28.2448
 20
13.4874
 30
0.0
 10
28.2448
 20
13.4874
 30
0.0
 10
28.2448
 20
13.4874
 30
0.0
 10
28.2448
 20
13.4874
 30
0.0
 10
25.9588
 20
13.4874
 30
0.0
 10
25.9588
 20
13.4874
 30
0.0
 10
25.9588
 20
13.4874
 30
0.0
 10
25.9588
 20
13.4874
 30
0.0
 10
25.9588
 20
13.2842
 30
0.0
 10
25.9588
 20
13.2842
 30
0.0
  0
SPLINE
  5
62
330
A
100
AcDbEntity
  8
Layer 1
100
AcDbSpline
210
0.0
220
0.0
230
1.0
 70
    11
 71
     3
 72
    24
 73
    20
 74
     0
 42
0.0000000001
 43
0.0000000001
 40
0.0
 40
0.0
 40
0.0
 40
0.0
 40
0.2
 40
0.2
 40
0.2
 40
0.2
 40
0.4
 40
0.4
 40
0.4
 40
0.4
 40
0.6000000000000001
 40
0.6000000000000001
 40
0.6000000000000001
 40
0.6000000000000001
 40
0.8
 40
0.8
 40
0.8
 40
0.8
 40
1.0
 40
1.0
 40
1.0
 40
1.0
 10
27.3304
 20
14.0716
 30
0.0
 10
27.3304
 20
14.0716
 30
0.0
 10
27.3304
 20
14.224
 30
0.0
 10
27.3304
 20
14.224
 30
0.0
 10
27.3304
 20
14.224
 30
0.0
 10
27.2796
 20
14.6558
 30
0.0
 10
27.0764
 20
14.8844
 30
0.0
 10
26.67
 20
14.8844
 30
0.0
 10
26.67
 20
14.8844
 30
0.0
 10
26.2636
 20
14.8844
 30
0.0
 10
26.035
 20
14.6558
 30
0.0
 10
25.9842
 20
14.1986
 30
0.0
 10
25.9842
 20
14.1986
 30
0.0
 10
25.9842
 20
14.1986
 30
0.0
 10
25.9842
 20
14.0716
 30
0.0
 10
25.9842
 20
14.0716
 30
0.0
 10
25.9842
 20
14.0716
 30
0.0
 10
25.9842
 20
14.0716
 30
0.0
 10
27.3304
 20
14.0716
 30
0.0
 10
27.3304
 20
14.0716
 30
0.0
  0
SPLINE
  5
63
330
A
100
AcDbEntity
  8
Layer 1
100
AcDbSpline
210
0.0
220
0.0
230
1.0
 70
    11
 71
     3
 72
    96
 73
    92
 74
     0
 42
0.0000000001
 43
0.0000000001
 40
0.0
 40
0.0
 40
0.0
 40
0.0
 40
0.0434782608695652
 40
0.0434782608695652
 40
0.0434782608695652
 40
0.0434782608695652
 40
0.0869565217391304
 40
0.0869565217391304
 40
0.0869565217391304
 40
0.0869565217391304
 40
0.1304347826086957
 40
0.1304347826086957
 40
0.1304347826086957
 40
0.1304347826086957
 40
0.1739130434782609
 40
0.1739130434782609
 40
0.1739130434782609
 40
0.1739130434782609
 40
0.2173913043478261
 40
0.2173913043478261
 40
0.2173913043478261
 40
0.2173913043478261
 40
0.2608695652173913
 40
0.2608695652173913
 40
0.2608695652173913
 40
0.2608695652173913
 40
0.3043478260869565
 40
0.3043478260869565
 40
0.3043478260869565
 40
0.3043478260869565
 40
0.3478260869565217
 40
0.3478260869565217
 40
0.3478260869565217
 40
0.3478260869565217
 40
0.3913043478260869
 40
0.3913043478260869
 40
0.3913043478260869
 40
0.3913043478260869
 40
0.4347826086956522
 40
0.4347826086956522
 40
0.4347826086956522
 40
0.4347826086956522
 40
0.4782608695652173
 40
0.4782608695652173
 40
0.4782608695652173
 40
0.4782608695652173
 40
0.5217391304347825
 40
0.5217391304347825
 40
0.5217391304347825
 40
0.5217391304347825
 40
0.5652173913043477
 40
0.5652173913043477
 40
0.5652173913043477
 40
0.5652173913043477
 40
0.6086956521739129
 40
0.6086956521739129
 40
0.6086956521739129
 40
0.6086956521739129
 40
0.6521739130434781
 40
0.6521739130434781
 40
0.6521739130434781
 40
0.6521739130434781
 40
0.6956521739130432
 40
0.6956521739130432
 40
0.6956521739130432
 40
0.6956521739130432
 40
0.7391304347826085
 40
0.7391304347826085
 40
0.7391304347826085
 40
0.7391304347826085
 40
0.7826086956521737
 40
0.7826086956521737
 40
0.7826086956521737
 40
0.7826086956521737
 40
0.8260869565217387
 40
0.8260869565217387
 40
0.8260869565217387
 40
0.8260869565217387
 40
0.8695652173913041
 40
0.8695652173913041
 40
0.8695652173913041
 40
0.8695652173913041
 40
0.9130434782608691
 40
0.9130434782608691
 40
0.9130434782608691
 40
0.9130434782608691
 40
0.9565217391304344
 40
0.9565217391304344
 40
0.9565217391304344
 40
0.9565217391304344
 40
1.0
 40
1.0
 40
1.0
 40
1.0
 10
28.702
 20
15.3924
 30
0.0
 10
28.702
 20
15.3924
 30
0.0
 10
29.2862
 20
15.3924
 30
0.0
 10
29.2862
 20
15.3924
 30
0.0
 10
29.2862
 20
15.3924
 30
0.0
 10
29.2862
 20
15.3924
 30
0.0
 10
29.2862
 20
15.8496
 30
0.0
 10
29.2862
 20
15.8496
 30
0.0
 10
29.2862
 20
15.8496
 30
0.0
 10
29.2862
 20
15.8496
 30
0.0
 10
30.226
 20
16.3068
 30
0.0
 10
30.226
 20
16.3068
 30
0.0
 10
30.226
 20
16.3068
 30
0.0
 10
30.226
 20
16.3068
 30
0.0
 10
30.226
 20
15.3924
 30
0.0
 10
30.226
 20
15.3924
 30
0.0
 10
30.226
 20
15.3924
 30
0.0
 10
30.226
 20
15.3924
 30
0.0
 10
30.9372
 20
15.3924
 30
0.0
 10
30.9372
 20
15.3924
 30
0.0
 10
30.9372
 20
15.3924
 30
0.0
 10
30.9372
 20
15.3924
 30
0.0
 10
30.9372
 20
14.7828
 30
0.0
 10
30.9372
 20
14.7828
 30
0.0
 10
30.9372
 20
14.7828
 30
0.0
 10
30.9372
 20
14.7828
 30
0.0
 10
30.226
 20
14.7828
 30
0.0
 10
30.226
 20
14.7828
 30
0.0
 10
30.226
 20
14.7828
 30
0.0
 10
30.226
 20
14.7828
 30
0.0
 10
30.226
 20
13.3096
 30
0.0
 10
30.226
 20
13.3096
 30
0.0
 10
30.226
 20
13.3096
 30
0.0
 10
30.226
 20
13.3096
 30
0.0
 10
30.226
 20
13.0302
 30
0.0
 10
30.226
 20
13.0302
 30
0.0
 10
30.226
 20
13.0302
 30
0.0
 10
30.226
 20
12.827
 30
0.0
 10
30.2514
 20
12.7
 30
0.0
 10
30.3276
 20
12.6238
 30
0.0
 10
30.3276
 20
12.6238
 30
0.0
 10
30.4038
 20
12.5476
 30
0.0
 10
30.5308
 20
12.4968
 30
0.0
 10
30.7086
 20
12.4968
 30
0.0
 10
30.7086
 20
12.4968
 30
0.0
 10
30.7594
 20
12.4968
 30
0.0
 10
30.8102
 20
12.5222
 30
0.0
 10
30.861
 20
12.5222
 30
0.0
 10
30.861
 20
12.5222
 30
0.0
 10
30.861
 20
12.5222
 30
0.0
 10
30.9372
 20
12.5476
 30
0.0
 10
30.9372
 20
12.5476
 30
0.0
 10
30.9372
 20
12.5476
 30
0.0
 10
30.9372
 20
12.5476
 30
0.0
 10
30.9372
 20
11.9888
 30
0.0
 10
30.9372
 20
11.9888
 30
0.0
 10
30.9372
 20
11.9888
 30
0.0
 10
30.9372
 20
11.9888
 30
0.0
 10
30.734
 20
11.9634
 30
0.0
 10
30.734
 20
11.9634
 30
0.0
 10
30.734
 20
11.9634
 30
0.0
 10
30.607
 20
11.938
 30
0.0
 10
30.4546
 20
11.938
 30
0.0
 10
30.3022
 20
11.938
 30
0.0
 10
30.3022
 20
11.938
 30
0.0
 10
30.3022
 20
11.938
 30
0.0
 10
30.0736
 20
11.938
 30
0.0
 10
30.0736
 20
11.938
 30
0.0
 10
30.0736
 20
11.938
 30
0.0
 10
29.7688
 20
11.9634
 30
0.0
 10
29.5402
 20
12.065
 30
0.0
 10
29.4132
 20
12.2936
 30
0.0
 10
29.4132
 20
12.2936
 30
0.0
 10
29.337
 20
12.4206
 30
0.0
 10
29.2862
 20
12.7
 30
0.0
 10
29.2862
 20
13.0556
 30
0.0
 10
29.2862
 20
13.0556
 30
0.0
 10
29.2862
 20
13.0556
 30
0.0
 10
29.2862
 20
13.3858
 30
0.0
 10
29.2862
 20
13.3858
 30
0.0
 10
29.2862
 20
13.3858
 30
0.0
 10
29.2862
 20
13.3858
 30
0.0
 10
29.2862
 20
14.7828
 30
0.0
 10
29.2862
 20
14.7828
 30
0.0
 10
29.2862
 20
14.7828
 30
0.0
 10
29.2862
 20
14.7828
 30
0.0
 10
28.702
 20
14.7828
 30
0.0
 10
28.702
 20
14.7828
 30
0.0
 10
28.702
 20
14.7828
 30
0.0
 10
28.702
 20
14.7828
 30
0.0
 10
28.702
 20
15.3924
 30
0.0
 10
28.702
 20
15.3924
 30
0.0
  0
SPLINE
  5
64
330
A
100
AcDbEntity
  8
Layer 1
100
AcDbSpline
210
0.0
220
0.0
230
1.0
 70
     9
 71
     3
 72
    88
 73
    84
 74
     0
 42
0.0000000001
 43
0.0000000001
 40
0.0
 40
0.0
 40
0.0
 40
0.0
 40
0.0476190476190476
 40
0.0476190476190476
 40
0.0476190476190476
 40
0.0476190476190476
 40
0.0952380952380952
 40
0.0952380952380952
 40
0.0952380952380952
 40
0.0952380952380952
 40
0.1428571428571429
 40
0.1428571428571429
 40
0.1428571428571429
 40
0.1428571428571429
 40
0.1904761904761905
 40
0.1904761904761905
 40
0.1904761904761905
 40
0.1904761904761905
 40
0.2380952380952381
 40
0.2380952380952381
 40
0.2380952380952381
 40
0.2380952380952381
 40
0.2857142857142857
 40
0.2857142857142857
 40
0.2857142857142857
 40
0.2857142857142857
 40
0.3333333333333333
 40
0.3333333333333333
 40
0.3333333333333333
 40
0.3333333333333333
 40
0.3809523809523809
 40
0.3809523809523809
 40
0.3809523809523809
 40
0.3809523809523809
 40
0.4285714285714287
 40
0.4285714285714287
 40
0.4285714285714287
 40
0.4285714285714287
 40
0.4761904761904762
 40
0.4761904761904762
 40
0.4761904761904762
 40
0.4761904761904762
 40
0.5238095238095238
 40
0.5238095238095238
 40
0.5238095238095238
 40
0.5238095238095238
 40
0.5714285714285714
 40
0.5714285714285714
 40
0.5714285714285714
 40
0.5714285714285714
 40
0.6190476190476191
 40
0.6190476190476191
 40
0.6190476190476191
 40
0.6190476190476191
 40
0.6666666666666668
 40
0.6666666666666668
 40
0.6666666666666668
 40
0.6666666666666668
 40
0.7142857142857145
 40
0.7142857142857145
 40
0.7142857142857145
 40
0.7142857142857145
 40
0.7619047619047621
 40
0.7619047619047621
 40
0.7619047619047621
 40
0.7619047619047621
 40
0.8095238095238098
 40
0.8095238095238098
 40
0.8095238095238098
 40
0.8095238095238098
 40
0.8571428571428574
 40
0.8571428571428574
 40
0.8571428571428574
 40
0.8571428571428574
 40
0.9047619047619052
 40
0.9047619047619052
 40
0.9047619047619052
 40
0.9047619047619052
 40
0.9523809523809527
 40
0.9523809523809527
 40
0.9523809523809527
 40
0.9523809523809527
 40
1.0
 40
1.0
 40
1.0
 40
1.0
 10
32.3596
 20
13.2842
 30
0.0
 10
32.385
 20
13.1572
 30
0.0
 10
32.4104
 20
13.0302
 30
0.0
 10
32.4612
 20
12.9032
 30
0.0
 10
32.4612
 20
12.9032
 30
0.0
 10
32.5628
 20
12.6492
 30
0.0
 10
32.766
 20
12.5222
 30
0.0
 10
33.0708
 20
12.4968
 30
0.0
 10
33.0708
 20
12.4968
 30
0.0
 10
33.4264
 20
12.4968
 30
0.0
 10
33.62960000000001
 20
12.6746
 30
0.0
 10
33.6804
 20
12.9794
 30
0.0
 10
33.6804
 20
12.9794
 30
0.0
 10
33.6804
 20
12.9794
 30
0.0
 10
33.6804
 20
13.0556
 30
0.0
 10
33.6804
 20
13.0556
 30
0.0
 10
33.6804
 20
13.0556
 30
0.0
 10
33.6804
 20
13.0556
 30
0.0
 10
34.5948
 20
13.0556
 30
0.0
 10
34.5948
 20
13.0556
 30
0.0
 10
34.5948
 20
13.0556
 30
0.0
 10
34.5948
 20
13.0556
 30
0.0
 10
34.5948
 20
12.954
 30
0.0
 10
34.5948
 20
12.954
 30
0.0
 10
34.5948
 20
12.954
 30
0.0
 10
34.5694
 20
12.6746
 30
0.0
 10
34.4678
 20
12.446
 30
0.0
 10
34.29
 20
12.2936
 30
0.0
 10
34.29
 20
12.2936
 30
0.0
 10
34.163
 20
12.192
 30
0.0
 10
34.0106
 20
12.0904
 30
0.0
 10
33.8582
 20
12.0396
 30
0.0
 10
33.8582
 20
12.0396
 30
0.0
 10
33.62960000000001
 20
11.9634
 30
0.0
 10
33.3502
 20
11.938
 30
0.0
 10
33.09620000000001
 20
11.938
 30
0.0
 10
33.09620000000001
 20
11.938
 30
0.0
 10
32.86760000000001
 20
11.938
 30
0.0
 10
32.639
 20
11.9634
 30
0.0
 10
32.4358
 20
12.0142
 30
0.0
 10
32.4358
 20
12.0142
 30
0.0
 10
32.2326
 20
12.065
 30
0.0
 10
32.0548
 20
12.1666
 30
0.0
 10
31.9024
 20
12.319
 30
0.0
 10
31.9024
 20
12.319
 30
0.0
 10
31.5976
 20
12.6238
 30
0.0
 10
31.4452
 20
13.0556
 30
0.0
 10
31.4452
 20
13.6652
 30
0.0
 10
31.4452
 20
13.6652
 30
0.0
 10
31.4452
 20
14.224
 30
0.0
 10
31.5722
 20
14.6558
 30
0.0
 10
31.8516
 20
14.9606
 30
0.0
 10
31.8516
 20
14.9606
 30
0.0
 10
32.1564
 20
15.3162
 30
0.0
 10
32.5882
 20
15.494
 30
0.0
 10
33.1216
 20
15.494
 30
0.0
 10
33.1216
 20
15.494
 30
0.0
 10
33.3502
 20
15.494
 30
0.0
 10
33.5788
 20
15.4432
 30
0.0
 10
33.7566
 20
15.367
 30
0.0
 10
33.7566
 20
15.367
 30
0.0
 10
34.036
 20
15.2654
 30
0.0
 10
34.2392
 20
15.113
 30
0.0
 10
34.3662
 20
14.859
 30
0.0
 10
34.3662
 20
14.859
 30
0.0
 10
34.4932
 20
14.6812
 30
0.0
 10
34.5694
 20
14.478
 30
0.0
 10
34.6202
 20
14.2494
 30
0.0
 10
34.6202
 20
14.2494
 30
0.0
 10
34.6456
 20
14.0716
 30
0.0
 10
34.6456
 20
13.8684
 30
0.0
 10
34.6456
 20
13.6652
 30
0.0
 10
34.6456
 20
13.6652
 30
0.0
 10
34.6456
 20
13.6652
 30
0.0
 10
34.6456
 20
13.4874
 30
0.0
 10
34.6456
 20
13.4874
 30
0.0
 10
34.6456
 20
13.4874
 30
0.0
 10
34.6456
 20
13.4874
 30
0.0
 10
32.3596
 20
13.4874
 30
0.0
 10
32.3596
 20
13.4874
 30
0.0
 10
32.3596
 20
13.4874
 30
0.0
 10
32.3596
 20
13.4874
 30
0.0
 10
32.3596
 20
13.2842
 30
0.0
 10
32.3596
 20
13.2842
 30
0.0
  0
SPLINE
  5
65
330
A
100
AcDbEntity
  8
Layer 1
100
AcDbSpline
210
0.0
220
0.0
230
1.0
 70
    11
 71
     3
 72
    24
 73
    20
 74
     0
 42
0.0000000001
 43
0.0000000001
 40
0.0
 40
0.0
 40
0.0
 40
0.0
 40
0.2
 40
0.2
 40
0.2
 40
0.2
 40
0.4
 40
0.4
 40
0.4
 40
0.4
 40
0.6000000000000001
 40
0.6000000000000001
 40
0.6000000000000001
 40
0.6000000000000001
 40
0.8
 40
0.8
 40
0.8
 40
0.8
 40
1.0
 40
1.0
 40
1.0
 40
1.0
 10
33.7312
 20
14.0716
 30
0.0
 10
33.7312
 20
14.0716
 30
0.0
 10
33.7312
 20
14.224
 30
0.0
 10
33.7312
 20
14.224
 30
0.0
 10
33.7312
 20
14.224
 30
0.0
 10
33.6804
 20
14.6558
 30
0.0
 10
33.47720000000001
 20
14.8844
 30
0.0
 10
33.0708
 20
14.8844
 30
0.0
 10
33.0708
 20
14.8844
 30
0.0
 10
32.6644
 20
14.8844
 30
0.0
 10
32.4358
 20
14.6558
 30
0.0
 10
32.385
 20
14.1986
 30
0.0
 10
32.385
 20
14.1986
 30
0.0
 10
32.385
 20
14.1986
 30
0.0
 10
32.385
 20
14.0716
 30
0.0
 10
32.385
 20
14.0716
 30
0.0
 10
32.385
 20
14.0716
 30
0.0
 10
32.385
 20
14.0716
 30
0.0
 10
33.7312
 20
14.0716
 30
0.0
 10
33.7312
 20
14.0716
 30
0.0
  0
SPLINE
  5
66
330
A
100
AcDbEntity
  8
Layer 1
100
AcDbSpline
210
0.0
220
0.0
230
1.0
 70
    11
 71
     3
 72
    56
 73
    52
 74
     0
 42
0.0000000001
 43
0.0000000001
 40
0.0
 40
0.0
 40
0.0
 40
0.0
 40
0.0769230769230769
 40
0.0769230769230769
 40
0.0769230769230769
 40
0.0769230769230769
 40
0.1538461538461539
 40
0.1538461538461539
 40
0.1538461538461539
 40
0.1538461538461539
 40
0.2307692307692308
 40
0.2307692307692308
 40
0.2307692307692308
 40
0.2307692307692308
 40
0.3076923076923077
 40
0.3076923076923077
 40
0.3076923076923077
 40
0.3076923076923077
 40
0.3846153846153846
 40
0.3846153846153846
 40
0.3846153846153846
 40
0.3846153846153846
 40
0.4615384615384616
 40
0.4615384615384616
 40
0.4615384615384616
 40
0.4615384615384616
 40
0.5384615384615385
 40
0.5384615384615385
 40
0.5384615384615385
 40
0.5384615384615385
 40
0.6153846153846155
 40
0.6153846153846155
 40
0.6153846153846155
 40
0.6153846153846155
 40
0.6923076923076924
 40
0.6923076923076924
 40
0.6923076923076924
 40
0.6923076923076924
 40
0.7692307692307692
 40
0.7692307692307692
 40
0.7692307692307692
 40
0.7692307692307692
 40
0.8461538461538459
 40
0.8461538461538459
 40
0.8461538461538459
 40
0.8461538461538459
 40
0.9230769230769228
 40
0.9230769230769228
 40
0.9230769230769228
 40
0.9230769230769228
 40
1.0
 40
1.0
 40
1.0
 40
1.0
 10
36.2458
 20
15.3924
 30
0.0
 10
36.2458
 20
15.3924
 30
0.0
 10
36.2458
 20
14.8336
 30
0.0
 10
36.2458
 20
14.8336
 30
0.0
 10
36.2458
 20
14.8336
 30
0.0
 10
36.2458
 20
14.8336
 30
0.0
 10
36.3474
 20
14.986
 30
0.0
 10
36.3474
 20
14.986
 30
0.0
 10
36.3474
 20
14.986
 30
0.0
 10
36.4236
 20
15.0876
 30
0.0
 10
36.5252
 20
15.1892
 30
0.0
 10
36.6268
 20
15.2654
 30
0.0
 10
36.6268
 20
15.2654
 30
0.0
 10
36.7538
 20
15.3924
 30
0.0
 10
36.957
 20
15.4686
 30
0.0
 10
37.1856
 20
15.494
 30
0.0
 10
37.1856
 20
15.494
 30
0.0
 10
37.1856
 20
15.494
 30
0.0
 10
37.2618
 20
15.494
 30
0.0
 10
37.2618
 20
15.494
 30
0.0
 10
37.2618
 20
15.494
 30
0.0
 10
37.2618
 20
15.494
 30
0.0
 10
37.2618
 20
14.6304
 30
0.0
 10
37.2618
 20
14.6304
 30
0.0
 10
37.2618
 20
14.6304
 30
0.0
 10
37.2618
 20
14.6304
 30
0.0
 10
37.1602
 20
14.6304
 30
0.0
 10
37.1602
 20
14.6304
 30
0.0
 10
37.1602
 20
14.6304
 30
0.0
 10
36.6014
 20
14.605
 30
0.0
 10
36.322
 20
14.3256
 30
0.0
 10
36.2966
 20
13.7668
 30
0.0
 10
36.2966
 20
13.7668
 30
0.0
 10
36.2966
 20
13.7668
 30
0.0
 10
36.2712
 20
13.4874
 30
0.0
 10
36.2712
 20
13.4874
 30
0.0
 10
36.2712
 20
13.4874
 30
0.0
 10
36.2712
 20
13.4874
 30
0.0
 10
36.2712
 20
12.0142
 30
0.0
 10
36.2712
 20
12.0142
 30
0.0
 10
36.2712
 20
12.0142
 30
0.0
 10
36.2712
 20
12.0142
 30
0.0
 10
35.3568
 20
12.0142
 30
0.0
 10
35.3568
 20
12.0142
 30
0.0
 10
35.3568
 20
12.0142
 30
0.0
 10
35.3568
 20
12.0142
 30
0.0
 10
35.3568
 20
15.3924
 30
0.0
 10
35.3568
 20
15.3924
 30
0.0
 10
35.3568
 20
15.3924
 30
0.0
 10
35.3568
 20
15.3924
 30
0.0
 10
36.2458
 20
15.3924
 30
0.0
 10
36.2458
 20
15.3924
 30
0.0
  0
SPLINE
  5
67
330
A
100
AcDbEntity
  8
Layer 1
100
AcDbSpline
210
0.0
220
0.0
230
1.0
 70
    11
 71
     3
 72
    44
 73
    40
 74
     0
 42
0.0000000001
 43
0.0000000001
 40
0.0
 40
0.0
 40
0.0
 40
0.0
 40
0.1
 40
0.1
 40
0.1
 40
0.1
 40
0.2
 40
0.2
 40
0.2
 40
0.2
 40
0.3
 40
0.3
 40
0.3
 40
0.3
 40
0.4
 40
0.4
 40
0.4
 40
0.4
 40
0.5
 40
0.5
 40
0.5
 40
0.5
 40
0.6
 40
0.6
 40
0.6
 40
0.6
 40
0.7
 40
0.7
 40
0.7
 40
0.7
 40
0.8
 40
0.8
 40
0.8
 40
0.8
 40
0.9
 40
0.9
 40
0.9
 40
0.9
 40
1.0
 40
1.0
 40
1.0
 40
1.0
 10
17.8816
 20
-8.1026
 30
0.0
 10
17.8816
 20
-8.1026
 30
0.0
 10
18.7706
 20
-8.1026
 30
0.0
 10
18.7706
 20
-8.1026
 30
0.0
 10
18.7706
 20
-8.1026
 30
0.0
 10
18.7706
 20
-8.1026
 30
0.0
 10
20.0406
 20
-11.4808
 30
0.0
 10
20.0406
 20
-11.4808
 30
0.0
 10
20.0406
 20
-11.4808
 30
0.0
 10
20.0406
 20
-11.4808
 30
0.0
 10
19.2786
 20
-11.4808
 30
0.0
 10
19.2786
 20
-11.4808
 30
0.0
 10
19.2786
 20
-11.4808
 30
0.0
 10
19.2786
 20
-11.4808
 30
0.0
 10
18.9992
 20
-10.7696
 30
0.0
 10
18.9992
 20
-10.7696
 30
0.0
 10
18.9992
 20
-10.7696
 30
0.0
 10
18.9992
 20
-10.7696
 30
0.0
 10
18.9992
 20
-10.7696
 30
0.0
 10
18.9992
 20
-10.7696
 30
0.0
 10
18.9992
 20
-10.7696
 30
0.0
 10
18.9992
 20
-10.7696
 30
0.0
 10
17.5768
 20
-10.7696
 30
0.0
 10
17.5768
 20
-10.7696
 30
0.0
 10
17.5768
 20
-10.7696
 30
0.0
 10
17.5768
 20
-10.7696
 30
0.0
 10
17.5768
 20
-10.7696
 30
0.0
 10
17.5768
 20
-10.7696
 30
0.0
 10
17.5768
 20
-10.7696
 30
0.0
 10
17.5768
 20
-10.7696
 30
0.0
 10
17.3482
 20
-11.4808
 30
0.0
 10
17.3482
 20
-11.4808
 30
0.0
 10
17.3482
 20
-11.4808
 30
0.0
 10
17.3482
 20
-11.4808
 30
0.0
 10
16.6116
 20
-11.4808
 30
0.0
 10
16.6116
 20
-11.4808
 30
0.0
 10
16.6116
 20
-11.4808
 30
0.0
 10
16.6116
 20
-11.4808
 30
0.0
 10
17.8816
 20
-8.1026
 30
0.0
 10
17.8816
 20
-8.1026
 30
0.0
  0
SPLINE
  5
68
330
A
100
AcDbEntity
  8
Layer 1
100
AcDbSpline
210
0.0
220
0.0
230
1.0
 70
    11
 71
     3
 72
    28
 73
    24
 74
     0
 42
0.0000000001
 43
0.0000000001
 40
0.0
 40
0.0
 40
0.0
 40
0.0
 40
0.1666666666666667
 40
0.1666666666666667
 40
0.1666666666666667
 40
0.1666666666666667
 40
0.3333333333333333
 40
0.3333333333333333
 40
0.3333333333333333
 40
0.3333333333333333
 40
0.5
 40
0.5
 40
0.5
 40
0.5
 40
0.6666666666666666
 40
0.6666666666666666
 40
0.6666666666666666
 40
0.6666666666666666
 40
0.8333333333333332
 40
0.8333333333333332
 40
0.8333333333333332
 40
0.8333333333333332
 40
1.0
 40
1.0
 40
1.0
 40
1.0
 10
17.7546
 20
-10.2362
 30
0.0
 10
17.7546
 20
-10.2362
 30
0.0
 10
17.7546
 20
-10.2362
 30
0.0
 10
17.7546
 20
-10.2362
 30
0.0
 10
17.7546
 20
-10.2362
 30
0.0
 10
17.7546
 20
-10.2362
 30
0.0
 10
18.8468
 20
-10.2362
 30
0.0
 10
18.8468
 20
-10.2362
 30
0.0
 10
18.8468
 20
-10.2362
 30
0.0
 10
18.8468
 20
-10.2362
 30
0.0
 10
18.8468
 20
-10.2362
 30
0.0
 10
18.8468
 20
-10.2362
 30
0.0
 10
18.8468
 20
-10.2362
 30
0.0
 10
18.8468
 20
-10.2362
 30
0.0
 10
18.288
 20
-8.610599999999999
 30
0.0
 10
18.288
 20
-8.610599999999999
 30
0.0
 10
18.288
 20
-8.610599999999999
 30
0.0
 10
18.288
 20
-8.610599999999999
 30
0.0
 10
18.288
 20
-8.610599999999999
 30
0.0
 10
18.288
 20
-8.610599999999999
 30
0.0
 10
18.288
 20
-8.610599999999999
 30
0.0
 10
18.288
 20
-8.610599999999999
 30
0.0
 10
17.7546
 20
-10.2362
 30
0.0
 10
17.7546
 20
-10.2362
 30
0.0
  0
SPLINE
  5
69
330
A
100
AcDbEntity
  8
Layer 1
100
AcDbSpline
210
0.0
220
0.0
230
1.0
 70
     9
 71
     3
 72
   100
 73
    96
 74
     0
 42
0.0000000001
 43
0.0000000001
 40
0.0
 40
0.0
 40
0.0
 40
0.0
 40
0.0416666666666667
 40
0.0416666666666667
 40
0.0416666666666667
 40
0.0416666666666667
 40
0.0833333333333333
 40
0.0833333333333333
 40
0.0833333333333333
 40
0.0833333333333333
 40
0.125
 40
0.125
 40
0.125
 40
0.125
 40
0.1666666666666667
 40
0.1666666666666667
 40
0.1666666666666667
 40
0.1666666666666667
 40
0.2083333333333333
 40
0.2083333333333333
 40
0.2083333333333333
 40
0.2083333333333333
 40
0.25
 40
0.25
 40
0.25
 40
0.25
 40
0.2916666666666666
 40
0.2916666666666666
 40
0.2916666666666666
 40
0.2916666666666666
 40
0.3333333333333333
 40
0.3333333333333333
 40
0.3333333333333333
 40
0.3333333333333333
 40
0.375
 40
0.375
 40
0.375
 40
0.375
 40
0.4166666666666667
 40
0.4166666666666667
 40
0.4166666666666667
 40
0.4166666666666667
 40
0.4583333333333334
 40
0.4583333333333334
 40
0.4583333333333334
 40
0.4583333333333334
 40
0.5
 40
0.5
 40
0.5
 40
0.5
 40
0.5416666666666666
 40
0.5416666666666666
 40
0.5416666666666666
 40
0.5416666666666666
 40
0.5833333333333333
 40
0.5833333333333333
 40
0.5833333333333333
 40
0.5833333333333333
 40
0.625
 40
0.625
 40
0.625
 40
0.625
 40
0.6666666666666666
 40
0.6666666666666666
 40
0.6666666666666666
 40
0.6666666666666666
 40
0.7083333333333332
 40
0.7083333333333332
 40
0.7083333333333332
 40
0.7083333333333332
 40
0.7499999999999999
 40
0.7499999999999999
 40
0.7499999999999999
 40
0.7499999999999999
 40
0.7916666666666665
 40
0.7916666666666665
 40
0.7916666666666665
 40
0.7916666666666665
 40
0.833333333333333
 40
0.833333333333333
 40
0.833333333333333
 40
0.833333333333333
 40
0.8749999999999996
 40
0.8749999999999996
 40
0.8749999999999996
 40
0.8749999999999996
 40
0.9166666666666664
 40
0.9166666666666664
 40
0.9166666666666664
 40
0.9166666666666664
 40
0.9583333333333328
 40
0.9583333333333328
 40
0.9583333333333328
 40
0.9583333333333328
 40
1.0
 40
1.0
 40
1.0
 40
1.0
 10
22.6568
 20
-9.093199999999999
 30
0.0
 10
22.5806
 20
-8.7376
 30
0.0
 10
22.352
 20
-8.559799999999999
 30
0.0
 10
21.971
 20
-8.559799999999999
 30
0.0
 10
21.971
 20
-8.559799999999999
 30
0.0
 10
21.4122
 20
-8.559799999999999
 30
0.0
 10
21.1328
 20
-8.940799999999997
 30
0.0
 10
21.1328
 20
-9.728199999999999
 30
0.0
 10
21.1328
 20
-9.728199999999999
 30
0.0
 10
21.1328
 20
-10.0838
 30
0.0
 10
21.1836
 20
-10.3886
 30
0.0
 10
21.2852
 20
-10.5918
 30
0.0
 10
21.2852
 20
-10.5918
 30
0.0
 10
21.3868
 20
-10.8712
 30
0.0
 10
21.6408
 20
-11.0236
 30
0.0
 10
21.9964
 20
-11.0236
 30
0.0
 10
21.9964
 20
-11.0236
 30
0.0
 10
22.1742
 20
-11.0236
 30
0.0
 10
22.3266
 20
-10.9728
 30
0.0
 10
22.4536
 20
-10.8966
 30
0.0
 10
22.4536
 20
-10.8966
 30
0.0
 10
22.5806
 20
-10.795
 30
0.0
 10
22.6568
 20
-10.6426
 30
0.0
 10
22.6822
 20
-10.4648
 30
0.0
 10
22.6822
 20
-10.4648
 30
0.0
 10
22.6822
 20
-10.4648
 30
0.0
 10
22.6822
 20
-10.3886
 30
0.0
 10
22.6822
 20
-10.3886
 30
0.0
 10
22.6822
 20
-10.3886
 30
0.0
 10
22.6822
 20
-10.3886
 30
0.0
 10
23.368
 20
-10.3886
 30
0.0
 10
23.368
 20
-10.3886
 30
0.0
 10
23.368
 20
-10.3886
 30
0.0
 10
23.368
 20
-10.3886
 30
0.0
 10
23.368
 20
-10.4902
 30
0.0
 10
23.368
 20
-10.4902
 30
0.0
 10
23.368
 20
-10.4902
 30
0.0
 10
23.3426
 20
-10.7188
 30
0.0
 10
23.241
 20
-10.9474
 30
0.0
 10
23.0886
 20
-11.1252
 30
0.0
 10
23.0886
 20
-11.1252
 30
0.0
 10
22.9108
 20
-11.303
 30
0.0
 10
22.7076
 20
-11.43
 30
0.0
 10
22.4536
 20
-11.4808
 30
0.0
 10
22.4536
 20
-11.4808
 30
0.0
 10
22.3012
 20
-11.5062
 30
0.0
 10
22.1234
 20
-11.5316
 30
0.0
 10
21.971
 20
-11.5316
 30
0.0
 10
21.971
 20
-11.5316
 30
0.0
 10
21.463
 20
-11.5316
 30
0.0
 10
21.0566
 20
-11.3792
 30
0.0
 10
20.8026
 20
-11.049
 30
0.0
 10
20.8026
 20
-11.049
 30
0.0
 10
20.574
 20
-10.7696
 30
0.0
 10
20.447
 20
-10.3632
 30
0.0
 10
20.447
 20
-9.804399999999999
 30
0.0
 10
20.447
 20
-9.804399999999999
 30
0.0
 10
20.447
 20
-9.550399999999999
 30
0.0
 10
20.4724
 20
-9.271
 30
0.0
 10
20.5486
 20
-9.016999999999999
 30
0.0
 10
20.5486
 20
-9.016999999999999
 30
0.0
 10
20.6502
 20
-8.712199999999999
 30
0.0
 10
20.828
 20
-8.458199999999997
 30
0.0
 10
21.1074
 20
-8.2804
 30
0.0
 10
21.1074
 20
-8.2804
 30
0.0
 10
21.3614
 20
-8.128
 30
0.0
 10
21.6662
 20
-8.0264
 30
0.0
 10
21.9964
 20
-8.0264
 30
0.0
 10
21.9964
 20
-8.0264
 30
0.0
 10
22.1996
 20
-8.0264
 30
0.0
 10
22.4028
 20
-8.077199999999997
 30
0.0
 10
22.5806
 20
-8.128
 30
0.0
 10
22.5806
 20
-8.128
 30
0.0
 10
22.7584
 20
-8.2042
 30
0.0
 10
22.9362
 20
-8.2804
 30
0.0
 10
23.0378
 20
-8.4074
 30
0.0
 10
23.0378
 20
-8.4074
 30
0.0
 10
23.1394
 20
-8.509
 30
0.0
 10
23.2156
 20
-8.610599999999999
 30
0.0
 10
23.2664
 20
-8.712199999999999
 30
0.0
 10
23.2664
 20
-8.712199999999999
 30
0.0
 10
23.3172
 20
-8.839199999999999
 30
0.0
 10
23.3426
 20
-8.9662
 30
0.0
 10
23.3426
 20
-9.0678
 30
0.0
 10
23.3426
 20
-9.0678
 30
0.0
 10
23.3426
 20
-9.0678
 30
0.0
 10
23.3426
 20
-9.169399999999999
 30
0.0
 10
23.3426
 20
-9.169399999999999
 30
0.0
 10
23.3426
 20
-9.169399999999999
 30
0.0
 10
23.3426
 20
-9.169399999999999
 30
0.0
 10
22.6568
 20
-9.169399999999999
 30
0.0
 10
22.6568
 20
-9.169399999999999
 30
0.0
 10
22.6568
 20
-9.169399999999999
 30
0.0
 10
22.6568
 20
-9.169399999999999
 30
0.0
 10
22.6568
 20
-9.093199999999999
 30
0.0
 10
22.6568
 20
-9.093199999999999
 30
0.0
  0
SPLINE
  5
6A
330
A
100
AcDbEntity
  8
Layer 1
100
AcDbSpline
210
0.0
220
0.0
230
1.0
 70
     9
 71
     3
 72
   100
 73
    96
 74
     0
 42
0.0000000001
 43
0.0000000001
 40
0.0
 40
0.0
 40
0.0
 40
0.0
 40
0.0416666666666667
 40
0.0416666666666667
 40
0.0416666666666667
 40
0.0416666666666667
 40
0.0833333333333333
 40
0.0833333333333333
 40
0.0833333333333333
 40
0.0833333333333333
 40
0.125
 40
0.125
 40
0.125
 40
0.125
 40
0.1666666666666667
 40
0.1666666666666667
 40
0.1666666666666667
 40
0.1666666666666667
 40
0.2083333333333333
 40
0.2083333333333333
 40
0.2083333333333333
 40
0.2083333333333333
 40
0.25
 40
0.25
 40
0.25
 40
0.25
 40
0.2916666666666666
 40
0.2916666666666666
 40
0.2916666666666666
 40
0.2916666666666666
 40
0.3333333333333333
 40
0.3333333333333333
 40
0.3333333333333333
 40
0.3333333333333333
 40
0.375
 40
0.375
 40
0.375
 40
0.375
 40
0.4166666666666667
 40
0.4166666666666667
 40
0.4166666666666667
 40
0.4166666666666667
 40
0.4583333333333334
 40
0.4583333333333334
 40
0.4583333333333334
 40
0.4583333333333334
 40
0.5
 40
0.5
 40
0.5
 40
0.5
 40
0.5416666666666666
 40
0.5416666666666666
 40
0.5416666666666666
 40
0.5416666666666666
 40
0.5833333333333333
 40
0.5833333333333333
 40
0.5833333333333333
 40
0.5833333333333333
 40
0.625
 40
0.625
 40
0.625
 40
0.625
 40
0.6666666666666666
 40
0.6666666666666666
 40
0.6666666666666666
 40
0.6666666666666666
 40
0.7083333333333332
 40
0.7083333333333332
 40
0.7083333333333332
 40
0.7083333333333332
 40
0.7499999999999999
 40
0.7499999999999999
 40
0.7499999999999999
 40
0.7499999999999999
 40
0.7916666666666665
 40
0.7916666666666665
 40
0.7916666666666665
 40
0.7916666666666665
 40
0.833333333333333
 40
0.833333333333333
 40
0.833333333333333
 40
0.833333333333333
 40
0.8749999999999996
 40
0.8749999999999996
 40
0.8749999999999996
 40
0.8749999999999996
 40
0.9166666666666664
 40
0.9166666666666664
 40
0.9166666666666664
 40
0.9166666666666664
 40
0.9583333333333328
 40
0.9583333333333328
 40
0.9583333333333328
 40
0.9583333333333328
 40
1.0
 40
1.0
 40
1.0
 40
1.0
 10
26.1366
 20
-9.093199999999999
 30
0.0
 10
26.0604
 20
-8.7376
 30
0.0
 10
25.8318
 20
-8.559799999999999
 30
0.0
 10
25.4508
 20
-8.559799999999999
 30
0.0
 10
25.4508
 20
-8.559799999999999
 30
0.0
 10
24.892
 20
-8.559799999999999
 30
0.0
 10
24.6126
 20
-8.940799999999997
 30
0.0
 10
24.6126
 20
-9.728199999999999
 30
0.0
 10
24.6126
 20
-9.728199999999999
 30
0.0
 10
24.6126
 20
-10.0838
 30
0.0
 10
24.6634
 20
-10.3886
 30
0.0
 10
24.765
 20
-10.5918
 30
0.0
 10
24.765
 20
-10.5918
 30
0.0
 10
24.8666
 20
-10.8712
 30
0.0
 10
25.1206
 20
-11.0236
 30
0.0
 10
25.4762
 20
-11.0236
 30
0.0
 10
25.4762
 20
-11.0236
 30
0.0
 10
25.654
 20
-11.0236
 30
0.0
 10
25.8064
 20
-10.9728
 30
0.0
 10
25.9334
 20
-10.8966
 30
0.0
 10
25.9334
 20
-10.8966
 30
0.0
 10
26.0604
 20
-10.795
 30
0.0
 10
26.1366
 20
-10.6426
 30
0.0
 10
26.162
 20
-10.4648
 30
0.0
 10
26.162
 20
-10.4648
 30
0.0
 10
26.162
 20
-10.4648
 30
0.0
 10
26.162
 20
-10.3886
 30
0.0
 10
26.162
 20
-10.3886
 30
0.0
 10
26.162
 20
-10.3886
 30
0.0
 10
26.162
 20
-10.3886
 30
0.0
 10
26.8478
 20
-10.3886
 30
0.0
 10
26.8478
 20
-10.3886
 30
0.0
 10
26.8478
 20
-10.3886
 30
0.0
 10
26.8478
 20
-10.3886
 30
0.0
 10
26.8478
 20
-10.4902
 30
0.0
 10
26.8478
 20
-10.4902
 30
0.0
 10
26.8478
 20
-10.4902
 30
0.0
 10
26.8224
 20
-10.7188
 30
0.0
 10
26.7208
 20
-10.9474
 30
0.0
 10
26.5684
 20
-11.1252
 30
0.0
 10
26.5684
 20
-11.1252
 30
0.0
 10
26.3906
 20
-11.303
 30
0.0
 10
26.1874
 20
-11.43
 30
0.0
 10
25.9334
 20
-11.4808
 30
0.0
 10
25.9334
 20
-11.4808
 30
0.0
 10
25.781
 20
-11.5062
 30
0.0
 10
25.6032
 20
-11.5316
 30
0.0
 10
25.4508
 20
-11.5316
 30
0.0
 10
25.4508
 20
-11.5316
 30
0.0
 10
24.9428
 20
-11.5316
 30
0.0
 10
24.5364
 20
-11.3792
 30
0.0
 10
24.2824
 20
-11.049
 30
0.0
 10
24.2824
 20
-11.049
 30
0.0
 10
24.0538
 20
-10.7696
 30
0.0
 10
23.9268
 20
-10.3632
 30
0.0
 10
23.9268
 20
-9.804399999999999
 30
0.0
 10
23.9268
 20
-9.804399999999999
 30
0.0
 10
23.9268
 20
-9.550399999999999
 30
0.0
 10
23.9522
 20
-9.271
 30
0.0
 10
24.0284
 20
-9.016999999999999
 30
0.0
 10
24.0284
 20
-9.016999999999999
 30
0.0
 10
24.13
 20
-8.712199999999999
 30
0.0
 10
24.3078
 20
-8.458199999999997
 30
0.0
 10
24.5872
 20
-8.2804
 30
0.0
 10
24.5872
 20
-8.2804
 30
0.0
 10
24.8412
 20
-8.128
 30
0.0
 10
25.146
 20
-8.0264
 30
0.0
 10
25.4762
 20
-8.0264
 30
0.0
 10
25.4762
 20
-8.0264
 30
0.0
 10
25.6794
 20
-8.0264
 30
0.0
 10
25.8826
 20
-8.077199999999997
 30
0.0
 10
26.0604
 20
-8.128
 30
0.0
 10
26.0604
 20
-8.128
 30
0.0
 10
26.2382
 20
-8.2042
 30
0.0
 10
26.416
 20
-8.2804
 30
0.0
 10
26.5176
 20
-8.4074
 30
0.0
 10
26.5176
 20
-8.4074
 30
0.0
 10
26.6192
 20
-8.509
 30
0.0
 10
26.6954
 20
-8.610599999999999
 30
0.0
 10
26.7462
 20
-8.712199999999999
 30
0.0
 10
26.7462
 20
-8.712199999999999
 30
0.0
 10
26.797
 20
-8.839199999999999
 30
0.0
 10
26.8224
 20
-8.9662
 30
0.0
 10
26.8224
 20
-9.0678
 30
0.0
 10
26.8224
 20
-9.0678
 30
0.0
 10
26.8224
 20
-9.0678
 30
0.0
 10
26.8224
 20
-9.169399999999999
 30
0.0
 10
26.8224
 20
-9.169399999999999
 30
0.0
 10
26.8224
 20
-9.169399999999999
 30
0.0
 10
26.8224
 20
-9.169399999999999
 30
0.0
 10
26.1366
 20
-9.169399999999999
 30
0.0
 10
26.1366
 20
-9.169399999999999
 30
0.0
 10
26.1366
 20
-9.169399999999999
 30
0.0
 10
26.1366
 20
-9.169399999999999
 30
0.0
 10
26.1366
 20
-9.093199999999999
 30
0.0
 10
26.1366
 20
-9.093199999999999
 30
0.0
  0
SPLINE
  5
6B
330
A
100
AcDbEntity
  8
Layer 1
100
AcDbSpline
210
0.0
220
0.0
230
1.0
 70
    11
 71
     3
 72
    20
 73
    16
 74
     0
 42
0.0000000001
 43
0.0000000001
 40
0.0
 40
0.0
 40
0.0
 40
0.0
 40
0.25
 40
0.25
 40
0.25
 40
0.25
 40
0.5
 40
0.5
 40
0.5
 40
0.5
 40
0.75
 40
0.75
 40
0.75
 40
0.75
 40
1.0
 40
1.0
 40
1.0
 40
1.0
 10
30.1498
 20
-10.033
 30
0.0
 10
30.1498
 20
-10.033
 30
0.0
 10
30.1498
 20
-10.4394
 30
0.0
 10
30.1498
 20
-10.4394
 30
0.0
 10
30.1498
 20
-10.4394
 30
0.0
 10
30.1498
 20
-10.4394
 30
0.0
 10
28.9814
 20
-10.4394
 30
0.0
 10
28.9814
 20
-10.4394
 30
0.0
 10
28.9814
 20
-10.4394
 30
0.0
 10
28.9814
 20
-10.4394
 30
0.0
 10
28.9814
 20
-10.033
 30
0.0
 10
28.9814
 20
-10.033
 30
0.0
 10
28.9814
 20
-10.033
 30
0.0
 10
28.9814
 20
-10.033
 30
0.0
 10
30.1498
 20
-10.033
 30
0.0
 10
30.1498
 20
-10.033
 30
0.0
  0
SPLINE
  5
6C
330
A
100
AcDbEntity
  8
Layer 1
100
AcDbSpline
210
0.0
220
0.0
230
1.0
 70
     9
 71
     3
 72
    56
 73
    52
 74
     0
 42
0.0000000001
 43
0.0000000001
 40
0.0
 40
0.0
 40
0.0
 40
0.0
 40
0.0769230769230769
 40
0.0769230769230769
 40
0.0769230769230769
 40
0.0769230769230769
 40
0.1538461538461539
 40
0.1538461538461539
 40
0.1538461538461539
 40
0.1538461538461539
 40
0.2307692307692308
 40
0.2307692307692308
 40
0.2307692307692308
 40
0.2307692307692308
 40
0.3076923076923077
 40
0.3076923076923077
 40
0.3076923076923077
 40
0.3076923076923077
 40
0.3846153846153846
 40
0.3846153846153846
 40
0.3846153846153846
 40
0.3846153846153846
 40
0.4615384615384616
 40
0.4615384615384616
 40
0.4615384615384616
 40
0.4615384615384616
 40
0.5384615384615385
 40
0.5384615384615385
 40
0.5384615384615385
 40
0.5384615384615385
 40
0.6153846153846155
 40
0.6153846153846155
 40
0.6153846153846155
 40
0.6153846153846155
 40
0.6923076923076924
 40
0.6923076923076924
 40
0.6923076923076924
 40
0.6923076923076924
 40
0.7692307692307692
 40
0.7692307692307692
 40
0.7692307692307692
 40
0.7692307692307692
 40
0.8461538461538459
 40
0.8461538461538459
 40
0.8461538461538459
 40
0.8461538461538459
 40
0.9230769230769228
 40
0.9230769230769228
 40
0.9230769230769228
 40
0.9230769230769228
 40
1.0
 40
1.0
 40
1.0
 40
1.0
 10
32.86760000000001
 20
-8.559799999999999
 30
0.0
 10
32.9692
 20
-8.509
 30
0.0
 10
33.09620000000001
 20
-8.458199999999997
 30
0.0
 10
33.2232
 20
-8.3566
 30
0.0
 10
33.2232
 20
-8.3566
 30
0.0
 10
33.3502
 20
-8.305799999999997
 30
0.0
 10
33.4264
 20
-8.229599999999997
 30
0.0
 10
33.5026
 20
-8.1788
 30
0.0
 10
33.5026
 20
-8.1788
 30
0.0
 10
33.5026
 20
-8.1788
 30
0.0
 10
33.5788
 20
-8.1026
 30
0.0
 10
33.5788
 20
-8.1026
 30
0.0
 10
33.5788
 20
-8.1026
 30
0.0
 10
33.5788
 20
-8.1026
 30
0.0
 10
34.1884
 20
-8.1026
 30
0.0
 10
34.1884
 20
-8.1026
 30
0.0
 10
34.1884
 20
-8.1026
 30
0.0
 10
34.1884
 20
-8.1026
 30
0.0
 10
34.1884
 20
-11.4808
 30
0.0
 10
34.1884
 20
-11.4808
 30
0.0
 10
34.1884
 20
-11.4808
 30
0.0
 10
34.1884
 20
-11.4808
 30
0.0
 10
33.5534
 20
-11.4808
 30
0.0
 10
33.5534
 20
-11.4808
 30
0.0
 10
33.5534
 20
-11.4808
 30
0.0
 10
33.5534
 20
-11.4808
 30
0.0
 10
33.5534
 20
-8.762999999999999
 30
0.0
 10
33.5534
 20
-8.762999999999999
 30
0.0
 10
33.5534
 20
-8.762999999999999
 30
0.0
 10
33.5534
 20
-8.762999999999999
 30
0.0
 10
33.4264
 20
-8.839199999999999
 30
0.0
 10
33.4264
 20
-8.839199999999999
 30
0.0
 10
33.4264
 20
-8.839199999999999
 30
0.0
 10
33.3502
 20
-8.915399999999999
 30
0.0
 10
33.24860000000001
 20
-8.9662
 30
0.0
 10
33.147
 20
-9.016999999999999
 30
0.0
 10
33.147
 20
-9.016999999999999
 30
0.0
 10
33.0454
 20
-9.093199999999999
 30
0.0
 10
32.9184
 20
-9.144
 30
0.0
 10
32.8168
 20
-9.169399999999999
 30
0.0
 10
32.8168
 20
-9.169399999999999
 30
0.0
 10
32.8168
 20
-9.169399999999999
 30
0.0
 10
32.6898
 20
-9.2202
 30
0.0
 10
32.6898
 20
-9.2202
 30
0.0
 10
32.6898
 20
-9.2202
 30
0.0
 10
32.6898
 20
-9.2202
 30
0.0
 10
32.6898
 20
-8.635999999999999
 30
0.0
 10
32.6898
 20
-8.635999999999999
 30
0.0
 10
32.6898
 20
-8.635999999999999
 30
0.0
 10
32.6898
 20
-8.635999999999999
 30
0.0
 10
32.86760000000001
 20
-8.559799999999999
 30
0.0
 10
32.86760000000001
 20
-8.559799999999999
 30
0.0
  0
SPLINE
  5
6D
330
A
100
AcDbEntity
  8
Layer 1
100
AcDbSpline
210
0.0
220
0.0
230
1.0
 70
     9
 71
     3
 72
    96
 73
    92
 74
     0
 42
0.0000000001
 43
0.0000000001
 40
0.0
 40
0.0
 40
0.0
 40
0.0
 40
0.0434782608695652
 40
0.0434782608695652
 40
0.0434782608695652
 40
0.0434782608695652
 40
0.0869565217391304
 40
0.0869565217391304
 40
0.0869565217391304
 40
0.0869565217391304
 40
0.1304347826086957
 40
0.1304347826086957
 40
0.1304347826086957
 40
0.1304347826086957
 40
0.1739130434782609
 40
0.1739130434782609
 40
0.1739130434782609
 40
0.1739130434782609
 40
0.2173913043478261
 40
0.2173913043478261
 40
0.2173913043478261
 40
0.2173913043478261
 40
0.2608695652173913
 40
0.2608695652173913
 40
0.2608695652173913
 40
0.2608695652173913
 40
0.3043478260869565
 40
0.3043478260869565
 40
0.3043478260869565
 40
0.3043478260869565
 40
0.3478260869565217
 40
0.3478260869565217
 40
0.3478260869565217
 40
0.3478260869565217
 40
0.3913043478260869
 40
0.3913043478260869
 40
0.3913043478260869
 40
0.3913043478260869
 40
0.4347826086956522
 40
0.4347826086956522
 40
0.4347826086956522
 40
0.4347826086956522
 40
0.4782608695652173
 40
0.4782608695652173
 40
0.4782608695652173
 40
0.4782608695652173
 40
0.5217391304347825
 40
0.5217391304347825
 40
0.5217391304347825
 40
0.5217391304347825
 40
0.5652173913043477
 40
0.5652173913043477
 40
0.5652173913043477
 40
0.5652173913043477
 40
0.6086956521739129
 40
0.6086956521739129
 40
0.6086956521739129
 40
0.6086956521739129
 40
0.6521739130434781
 40
0.6521739130434781
 40
0.6521739130434781
 40
0.6521739130434781
 40
0.6956521739130432
 40
0.6956521739130432
 40
0.6956521739130432
 40
0.6956521739130432
 40
0.7391304347826085
 40
0.7391304347826085
 40
0.7391304347826085
 40
0.7391304347826085
 40
0.7826086956521737
 40
0.7826086956521737
 40
0.7826086956521737
 40
0.7826086956521737
 40
0.8260869565217387
 40
0.8260869565217387
 40
0.8260869565217387
 40
0.8260869565217387
 40
0.8695652173913041
 40
0.8695652173913041
 40
0.8695652173913041
 40
0.8695652173913041
 40
0.9130434782608691
 40
0.9130434782608691
 40
0.9130434782608691
 40
0.9130434782608691
 40
0.9565217391304344
 40
0.9565217391304344
 40
0.9565217391304344
 40
0.9565217391304344
 40
1.0
 40
1.0
 40
1.0
 40
1.0
 10
35.433
 20
-9.6774
 30
0.0
 10
35.4584
 20
-9.3726
 30
0.0
 10
35.6616
 20
-9.1948
 30
0.0
 10
35.9918
 20
-9.1186
 30
0.0
 10
35.9918
 20
-9.1186
 30
0.0
 10
36.1442
 20
-9.0678
 30
0.0
 10
36.2712
 20
-9.0678
 30
0.0
 10
36.4236
 20
-9.0678
 30
0.0
 10
36.4236
 20
-9.0678
 30
0.0
 10
37.1094
 20
-9.0678
 30
0.0
 10
37.46500000000001
 20
-9.321799999999999
 30
0.0
 10
37.4904
 20
-9.855199999999999
 30
0.0
 10
37.4904
 20
-9.855199999999999
 30
0.0
 10
37.4904
 20
-9.855199999999999
 30
0.0
 10
37.4904
 20
-9.956799999999999
 30
0.0
 10
37.4904
 20
-9.956799999999999
 30
0.0
 10
37.4904
 20
-9.956799999999999
 30
0.0
 10
37.4904
 20
-9.956799999999999
 30
0.0
 10
37.4904
 20
-10.8204
 30
0.0
 10
37.4904
 20
-10.8204
 30
0.0
 10
37.4904
 20
-10.8204
 30
0.0
 10
37.4904
 20
-10.8204
 30
0.0
 10
37.4904
 20
-11.0744
 30
0.0
 10
37.4904
 20
-11.0744
 30
0.0
 10
37.4904
 20
-11.0744
 30
0.0
 10
37.4904
 20
-11.176
 30
0.0
 10
37.5158
 20
-11.2776
 30
0.0
 10
37.5412
 20
-11.3792
 30
0.0
 10
37.5412
 20
-11.3792
 30
0.0
 10
37.5412
 20
-11.3792
 30
0.0
 10
37.5412
 20
-11.4808
 30
0.0
 10
37.5412
 20
-11.4808
 30
0.0
 10
37.5412
 20
-11.4808
 30
0.0
 10
37.5412
 20
-11.4808
 30
0.0
 10
36.957
 20
-11.4808
 30
0.0
 10
36.957
 20
-11.4808
 30
0.0
 10
36.957
 20
-11.4808
 30
0.0
 10
36.957
 20
-11.4808
 30
0.0
 10
36.8808
 20
-11.2268
 30
0.0
 10
36.8808
 20
-11.2268
 30
0.0
 10
36.8808
 20
-11.2268
 30
0.0
 10
36.8808
 20
-11.2268
 30
0.0
 10
36.7792
 20
-11.3538
 30
0.0
 10
36.7792
 20
-11.3538
 30
0.0
 10
36.7792
 20
-11.3538
 30
0.0
 10
36.6268
 20
-11.4808
 30
0.0
 10
36.4236
 20
-11.5316
 30
0.0
 10
36.1442
 20
-11.5316
 30
0.0
 10
36.1442
 20
-11.5316
 30
0.0
 10
35.8902
 20
-11.5316
 30
0.0
 10
35.687
 20
-11.4808
 30
0.0
 10
35.56
 20
-11.3792
 30
0.0
 10
35.56
 20
-11.3792
 30
0.0
 10
35.40760000000001
 20
-11.2522
 30
0.0
 10
35.3314
 20
-11.049
 30
0.0
 10
35.3314
 20
-10.8204
 30
0.0
 10
35.3314
 20
-10.8204
 30
0.0
 10
35.3314
 20
-10.668
 30
0.0
 10
35.3822
 20
-10.4902
 30
0.0
 10
35.4584
 20
-10.3632
 30
0.0
 10
35.4584
 20
-10.3632
 30
0.0
 10
35.56
 20
-10.2362
 30
0.0
 10
35.687
 20
-10.1346
 30
0.0
 10
35.8648
 20
-10.0838
 30
0.0
 10
35.8648
 20
-10.0838
 30
0.0
 10
36.01720000000001
 20
-10.0076
 30
0.0
 10
36.3474
 20
-9.9822
 30
0.0
 10
36.8554
 20
-9.9822
 30
0.0
 10
36.8554
 20
-9.9822
 30
0.0
 10
36.8554
 20
-9.9822
 30
0.0
 10
36.8554
 20
-9.8298
 30
0.0
 10
36.8554
 20
-9.8298
 30
0.0
 10
36.8554
 20
-9.8298
 30
0.0
 10
36.8554
 20
-9.6012
 30
0.0
 10
36.7284
 20
-9.474199999999999
 30
0.0
 10
36.449
 20
-9.474199999999999
 30
0.0
 10
36.449
 20
-9.474199999999999
 30
0.0
 10
36.2204
 20
-9.474199999999999
 30
0.0
 10
36.0934
 20
-9.550399999999999
 30
0.0
 10
36.068
 20
-9.6774
 30
0.0
 10
36.068
 20
-9.6774
 30
0.0
 10
36.068
 20
-9.6774
 30
0.0
 10
36.068
 20
-9.804399999999999
 30
0.0
 10
36.068
 20
-9.804399999999999
 30
0.0
 10
36.068
 20
-9.804399999999999
 30
0.0
 10
36.068
 20
-9.804399999999999
 30
0.0
 10
35.40760000000001
 20
-9.804399999999999
 30
0.0
 10
35.40760000000001
 20
-9.804399999999999
 30
0.0
 10
35.40760000000001
 20
-9.804399999999999
 30
0.0
 10
35.40760000000001
 20
-9.804399999999999
 30
0.0
 10
35.433
 20
-9.6774
 30
0.0
 10
35.433
 20
-9.6774
 30
0.0
  0
SPLINE
  5
6E
330
A
100
AcDbEntity
  8
Layer 1
100
AcDbSpline
210
0.0
220
0.0
230
1.0
 70
    11
 71
     3
 72
    24
 73
    20
 74
     0
 42
0.0000000001
 43
0.0000000001
 40
0.0
 40
0.0
 40
0.0
 40
0.0
 40
0.2
 40
0.2
 40
0.2
 40
0.2
 40
0.4
 40
0.4
 40
0.4
 40
0.4
 40
0.6000000000000001
 40
0.6000000000000001
 40
0.6000000000000001
 40
0.6000000000000001
 40
0.8
 40
0.8
 40
0.8
 40
0.8
 40
1.0
 40
1.0
 40
1.0
 40
1.0
 10
36.8554
 20
-10.3378
 30
0.0
 10
36.8554
 20
-10.3378
 30
0.0
 10
36.55060000000001
 20
-10.3378
 30
0.0
 10
36.55060000000001
 20
-10.3378
 30
0.0
 10
36.55060000000001
 20
-10.3378
 30
0.0
 10
36.16960000000001
 20
-10.3886
 30
0.0
 10
35.9664
 20
-10.5156
 30
0.0
 10
35.9664
 20
-10.795
 30
0.0
 10
35.9664
 20
-10.795
 30
0.0
 10
35.9664
 20
-11.0236
 30
0.0
 10
36.0934
 20
-11.1506
 30
0.0
 10
36.3474
 20
-11.1506
 30
0.0
 10
36.3474
 20
-11.1506
 30
0.0
 10
36.6522
 20
-11.1506
 30
0.0
 10
36.83
 20
-10.9728
 30
0.0
 10
36.8554
 20
-10.5918
 30
0.0
 10
36.8554
 20
-10.5918
 30
0.0
 10
36.8554
 20
-10.5918
 30
0.0
 10
36.8554
 20
-10.3378
 30
0.0
 10
36.8554
 20
-10.3378
 30
0.0
  0
SPLINE
  5
6F
330
A
100
AcDbEntity
  8
Layer 1
100
AcDbSpline
210
0.0
220
0.0
230
1.0
 70
    11
 71
     3
 72
    20
 73
    16
 74
     0
 42
0.0000000001
 43
0.0000000001
 40
0.0
 40
0.0
 40
0.0
 40
0.0
 40
0.25
 40
0.25
 40
0.25
 40
0.25
 40
0.5
 40
0.5
 40
0.5
 40
0.5
 40
0.75
 40
0.75
 40
0.75
 40
0.75
 40
1.0
 40
1.0
 40
1.0
 40
1.0
 10
-74.49819999999998
 20
28.0162
 30
0.0
 10
-74.49819999999998
 20
28.0162
 30
0.0
 10
74.49819999999998
 20
28.0162
 30
0.0
 10
74.49819999999998
 20
28.0162
 30
0.0
 10
74.49819999999998
 20
28.0162
 30
0.0
 10
74.49819999999998
 20
28.0162
 30
0.0
 10
74.49819999999998
 20
-27.9654
 30
0.0
 10
74.49819999999998
 20
-27.9654
 30
0.0
 10
74.49819999999998
 20
-27.9654
 30
0.0
 10
74.49819999999998
 20
-27.9654
 30
0.0
 10
-74.49819999999998
 20
-27.9654
 30
0.0
 10
-74.49819999999998
 20
-27.9654
 30
0.0
 10
-74.49819999999998
 20
-27.9654
 30
0.0
 10
-74.49819999999998
 20
-27.9654
 30
0.0
 10
-74.49819999999998
 20
28.0162
 30
0.0
 10
-74.49819999999998
 20
28.0162
 30
0.0
  0
ENDSEC
  0
SECTION
  2
OBJECTS
  0
DICTIONARY
  5
19
330
0
100
AcDbDictionary
281
     1
  3
ACAD_CIP_PREVIOUS_PRODUCT_INFO
350
C2
  3
ACAD_COLOR
350
A4
  3
ACAD_GROUP
350
1A
  3
ACAD_LAYOUT
350
1E
  3
ACAD_MATERIAL
350
72
  3
ACAD_MLEADERSTYLE
350
B9
  3
ACAD_MLINESTYLE
350
1B
  3
ACAD_PLOTSETTINGS
350
22
  3
ACAD_PLOTSTYLENAME
350
1F
  3
ACAD_SCALELIST
350
A7
  3
ACAD_TABLESTYLE
350
A5
  3
ACAD_VISUALSTYLE
350
8B
  3
ACAD_WIPEOUT_VARS
350
23
  3
ACDB_RECOMPOSE_DATA
350
EC
  3
AcDbVariableDictionary
350
DF
  3
ADE_QUERY_LIBRARY
350
D3
  3
ASE_INDEX_DICTIONARY
350
DB
  3
Autodesk_MAP
350
BB
  3
DWGPROPS
350
ED
1001
ADE
1000
ADE02C004
1000
[Query]
1000
CaseSensitiveMatch=0
1000
SaveCurrQueryInSession=1
1000
MkSelSetWithQryObj=0
1000
ShowBlockAsInsPt=0
1000
CreateAssociativeHatchObjects=0
1000
ReferenceBoundaryForAreaLocation=1
1000
ShowImageAsBoundary=1
1000
DefaultJoinOperator=2
1000
ColorForAdd=red
1000
ColorForRemove=red
1000
BlockLocnForQuery=1
1000
TextLocnForQuery=1
1000
IncludeAllObjectsInGroups=0
1000
AlwaysUseLibraryDefinitions=0
1000
PreviewDefinitionsFrom=2
1000
[Save Back]
1000
RedefineBlockDefinitions=1
1000
RedefineLayerDefinitions=1
1000
RedefineTextStyleDefinitions=1
1000
RemoveUnusedGroups=1
1000
EraseSavedBackObjects=1
1000
RemoveLockAfterSave=1
1000
CreateHistoryFileOfChanges=0
1000
CreateBackupFileOfSourceDwg=1
1000
DontAddObjectsToSaveSet=0
1000
MarkObjectsForEditingWithoutPrompting=0
1000
FdoDontAddObjsToSvSet=0
1000
FdoEditWithoutPrompt=1
1000
FdoRemUnusedGrps=1
1000
FdoEraseSvdBkObjs=1
1000
FdoRemoveLockOnSave=1
1000
FdoTesselationMaxPointsDistance=0
1000
FdoTesselationMaxCurvesDistance=0
1000
[Coordinate Transformation]
1000
RestoreLastActiveDwgsOnStartup=1
1000
ActivateDwgsOnAttach=1
1000
AdjustSizesAndScalesForChangesInUnits=1
1000
AdjustRotationsForMapDistortions=1
1000
AdjustSizesAndScalesForMapDistortions=1
1000
AdjustElevations=1
1000
AdjustZeroRotationObjects=1
1000
ReconnectDbOnWSOpen=1
1000
NoOfSQLConditionsInHistory=10
  0
DICTIONARY
  5
D6
330
14
100
AcDbDictionary
280
     1
281
     1
  3
ADSK_XREC_LAYER_RECONCILED
360
D7
  0
DICTIONARY
  5
D8
330
24
100
AcDbDictionary
280
     1
281
     1
  3
ADSK_XREC_LAYER_RECONCILED
360
D9
  0
DICTIONARY
  5
CE
330
A
100
AcDbDictionary
280
     1
281
     1
  3
ACAD_SORTENTS
360
CF
  0
XRECORD
  5
C2
102
{ACAD_REACTORS
330
19
102
}
330
19
100
AcDbXrecord
280
     1
300
MAP
300
2012
300
MAP_F_S
  0
DICTIONARY
  5
A4
102
{ACAD_REACTORS
330
19
102
}
330
19
100
AcDbDictionary
281
     1
  0
DICTIONARY
  5
1A
102
{ACAD_REACTORS
330
19
102
}
330
19
100
AcDbDictionary
281
     1
  0
DICTIONARY
  5
1E
102
{ACAD_REACTORS
330
19
102
}
330
19
100
AcDbDictionary
281
     1
  3
Layout1
350
21
  3
Model
350
20
  0
DICTIONARY
  5
72
102
{ACAD_REACTORS
330
19
102
}
330
19
100
AcDbDictionary
281
     1
  3
ByBlock
350
7B
  3
ByLayer
350
73
  3
Global
350
83
  0
DICTIONARY
  5
B9
102
{ACAD_REACTORS
330
19
102
}
330
19
100
AcDbDictionary
281
     1
  3
Standard
350
BA
  0
DICTIONARY
  5
1B
102
{ACAD_REACTORS
330
19
102
}
330
19
100
AcDbDictionary
281
     1
  3
Standard
350
1C
  0
DICTIONARY
  5
22
102
{ACAD_REACTORS
330
19
102
}
330
19
100
AcDbDictionary
281
     1
  0
ACDBDICTIONARYWDFLT
  5
1F
102
{ACAD_REACTORS
330
19
102
}
330
19
100
AcDbDictionary
281
     1
  3
Normal
350
1D
100
AcDbDictionaryWithDefault
340
1D
  0
DICTIONARY
  5
A7
102
{ACAD_REACTORS
330
19
102
}
330
19
100
AcDbDictionary
281
     1
  3
A0
350
A8
  3
A1
350
A9
  3
A2
350
AA
  3
A3
350
AB
  3
A4
350
AC
  3
A5
350
AD
  3
A6
350
AE
  3
A7
350
AF
  3
A8
350
B0
  3
A9
350
B1
  3
B0
350
B2
  3
B1
350
B3
  3
B2
350
B4
  3
B3
350
B5
  3
B4
350
B6
  3
B5
350
B7
  3
B6
350
B8
  0
DICTIONARY
  5
A5
102
{ACAD_REACTORS
330
19
102
}
330
19
100
AcDbDictionary
281
     1
  3
Legend
350
C7
  3
Standard
350
A6
  0
DICTIONARY
  5
8B
102
{ACAD_REACTORS
330
19
102
}
330
19
100
AcDbDictionary
281
     1
  3
2dWireframe
350
91
  3
Basic
350
90
  3
Brighten
350
97
  3
ColorChange
350
9B
  3
Conceptual
350
94
  3
Dim
350
96
  3
EdgeColorOff
350
A3
  3
Facepattern
350
9A
  3
Flat
350
8C
  3
FlatWithEdges
350
8D
  3
Gouraud
350
8E
  3
GouraudWithEdges
350
8F
  3
Hidden
350
93
  3
JitterOff
350
A1
  3
Linepattern
350
99
  3
OverhangOff
350
A2
  3
Realistic
350
95
  3
Shaded
350
A0
  3
Shaded with edges
350
9F
  3
Shades of Gray
350
9C
  3
Sketchy
350
9D
  3
Thicken
350
98
  3
Wireframe
350
92
  3
X-Ray
350
9E
  0
WIPEOUTVARIABLES
  5
23
330
19
100
AcDbWipeoutVariables
 70
     1
  0
XRECORD
  5
EC
102
{ACAD_REACTORS
330
19
102
}
330
19
100
AcDbXrecord
280
     1
 90
        1
330
A6
330
C7
  0
DICTIONARY
  5
DF
102
{ACAD_REACTORS
330
19
102
}
330
19
100
AcDbDictionary
281
     1
  3
CANNOSCALE
350
E2
  3
CMLEADERSTYLE
350
E1
  3
CTABLESTYLE
350
E0
  3
DIMASSOC
350
E5
  3
INDEXCTL
350
E4
  3
SORTENTS
350
E3
  3
XCLIPFRAME
350
E6
  0
DICTIONARY
  5
D3
102
{ACAD_REACTORS
330
19
102
}
330
19
100
AcDbDictionary
281
     1
  3
_CurrQry
350
D4
  0
DICTIONARY
  5
DB
102
{ACAD_REACTORS
330
19
102
}
330
19
100
AcDbDictionary
281
     1
  3
ASEBlockHierarchyIndexRecord
350
DD
1001
DCO15
1040
1728632674.623
  0
DICTIONARY
  5
BB
102
{ACAD_REACTORS
330
19
102
}
330
19
100
AcDbDictionary
281
     1
  3
AcMapDMStylizedEntities
350
D0
  3
FSD_Dictionary
350
C3
  3
MAP_DISPLAY_CUSTOMOBJ_REG_TABLE
350
BF
  3
MAP_DISPLAY_MANAGEMENT_DICTIONARY
350
BC
  3
MAP_DISPLAY_STYLELIBRARY_DICTIONARY
350
BD
  3
MAP_RESOURCE_VERSION_MANAGEMENT_DICTIONARY
350
D1
1001
MapGWS
1000
C:\Documents and Settings\All Users\Datos de programa\Autodesk\AutoCAD Map 3D 2012\R18.2\MapCache\ACCEL12to00GWS.xml
  0
XRECORD
  5
ED
102
{ACAD_REACTORS
330
19
102
}
330
19
100
AcDbXrecord
280
     1
  1
DWGPROPS COOKIE
  2

  3

  4

  6

  7

  8
jsoriano
  9

300
=
301
=
302
=
303
=
304
=
305
=
306
=
307
=
308
=
309
=
 40
0.0004113888888889
 41
2455810.5340636
 42
2455810.534474803
  1

 90
        0
  0
XRECORD
  5
D7
102
{ACAD_REACTORS
330
D6
102
}
330
D6
100
AcDbXrecord
280
     1
290
     1
  0
XRECORD
  5
D9
102
{ACAD_REACTORS
330
D8
102
}
330
D8
100
AcDbXrecord
280
     1
290
     1
  0
SORTENTSTABLE
  5
CF
102
{ACAD_REACTORS
330
CE
102
}
330
CE
100
AcDbSortentsTable
330
A
  0
LAYOUT
  5
21
102
{ACAD_XDICTIONARY
360
F0
102
}
102
{ACAD_REACTORS
330
1E
102
}
330
1E
100
AcDbPlotSettings
  1

  2

  4

  6

 40
0.0
 41
0.0
 42
0.0
 43
0.0
 44
0.0
 45
0.0
 46
0.0
 47
0.0
 48
0.0
 49
0.0
140
0.0
141
0.0
142
1.0
143
1.0
 70
     0
 72
     0
 73
     0
 74
     0
  7

 75
     0
147
1.0
148
0.0
149
0.0
100
AcDbLayout
  1
Layout1
 70
     0
 71
     1
 10
0.0
 20
0.0
 11
12.0
 21
9.0
 12
0.0
 22
0.0
 32
0.0
 14
1.000000000000000E+20
 24
1.000000000000000E+20
 34
1.000000000000000E+20
 15
-1.000000000000000E+20
 25
-1.000000000000000E+20
 35
-1.000000000000000E+20
146
0.0
 13
0.0
 23
0.0
 33
0.0
 16
1.0
 26
0.0
 36
0.0
 17
0.0
 27
1.0
 37
0.0
 76
     0
330
B
  0
LAYOUT
  5
20
102
{ACAD_XDICTIONARY
360
EE
102
}
102
{ACAD_REACTORS
330
1E
102
}
330
1E
100
AcDbPlotSettings
  1

  2

  4

  6

 40
0.0
 41
0.0
 42
0.0
 43
0.0
 44
0.0
 45
0.0
 46
0.0
 47
0.0
 48
0.0
 49
0.0
140
0.0
141
0.0
142
1.0
143
1.0
 70
  1024
 72
     0
 73
     0
 74
     0
  7

 75
     0
147
1.0
148
0.0
149
0.0
100
AcDbLayout
  1
Model
 70
     0
 71
     0
 10
0.0
 20
0.0
 11
0.0
 21
0.0
 12
0.0
 22
0.0
 32
0.0
 14
0.0
 24
0.0
 34
0.0
 15
0.0
 25
0.0
 35
0.0
146
0.0
 13
0.0
 23
0.0
 33
0.0
 16
0.0
 26
0.0
 36
0.0
 17
0.0
 27
0.0
 37
0.0
 76
     0
330
A
331
15
  0
MATERIAL
  5
7B
102
{ACAD_XDICTIONARY
360
7C
102
}
102
{ACAD_REACTORS
330
72
102
}
330
72
100
AcDbMaterial
  1
ByBlock
 72
     0
 43
0.0008202099737533
 43
0.0
 43
0.0
 43
0.0
 43
0.0
 43
0.0008202099737533
 43
0.0
 43
0.0
 43
0.0
 43
0.0
 43
1.0
 43
0.0
 43
0.0
 43
0.0
 43
0.0
 43
1.0
 77
     0
 47
0.0008202099737533
 47
0.0
 47
0.0
 47
0.0
 47
0.0
 47
0.0008202099737533
 47
0.0
 47
0.0
 47
0.0
 47
0.0
 47
1.0
 47
0.0
 47
0.0
 47
0.0
 47
0.0
 47
1.0
171
     0
 49
0.0008202099737533
 49
0.0
 49
0.0
 49
0.0
 49
0.0
 49
0.0008202099737533
 49
0.0
 49
0.0
 49
0.0
 49
0.0
 49
1.0
 49
0.0
 49
0.0
 49
0.0
 49
0.0
 49
1.0
175
     0
142
0.0008202099737533
142
0.0
142
0.0
142
0.0
142
0.0
142
0.0008202099737533
142
0.0
142
0.0
142
0.0
142
0.0
142
1.0
142
0.0
142
0.0
142
0.0
142
0.0
142
1.0
179
     0
144
0.0008202099737533
144
0.0
144
0.0
144
0.0
144
0.0
144
0.0008202099737533
144
0.0
144
0.0
144
0.0
144
0.0
144
1.0
144
0.0
144
0.0
144
0.0
144
0.0
144
1.0
147
0.0008202099737533
147
0.0
147
0.0
147
0.0
147
0.0
147
0.0008202099737533
147
0.0
147
0.0
147
0.0
147
0.0
147
1.0
147
0.0
147
0.0
147
0.0
147
0.0
147
1.0
  0
MATERIAL
  5
73
102
{ACAD_XDICTIONARY
360
74
102
}
102
{ACAD_REACTORS
330
72
102
}
330
72
100
AcDbMaterial
  1
ByLayer
 72
     0
 43
0.0008202099737533
 43
0.0
 43
0.0
 43
0.0
 43
0.0
 43
0.0008202099737533
 43
0.0
 43
0.0
 43
0.0
 43
0.0
 43
1.0
 43
0.0
 43
0.0
 43
0.0
 43
0.0
 43
1.0
 77
     0
 47
0.0008202099737533
 47
0.0
 47
0.0
 47
0.0
 47
0.0
 47
0.0008202099737533
 47
0.0
 47
0.0
 47
0.0
 47
0.0
 47
1.0
 47
0.0
 47
0.0
 47
0.0
 47
0.0
 47
1.0
171
     0
 49
0.0008202099737533
 49
0.0
 49
0.0
 49
0.0
 49
0.0
 49
0.0008202099737533
 49
0.0
 49
0.0
 49
0.0
 49
0.0
 49
1.0
 49
0.0
 49
0.0
 49
0.0
 49
0.0
 49
1.0
175
     0
142
0.0008202099737533
142
0.0
142
0.0
142
0.0
142
0.0
142
0.0008202099737533
142
0.0
142
0.0
142
0.0
142
0.0
142
1.0
142
0.0
142
0.0
142
0.0
142
0.0
142
1.0
179
     0
144
0.0008202099737533
144
0.0
144
0.0
144
0.0
144
0.0
144
0.0008202099737533
144
0.0
144
0.0
144
0.0
144
0.0
144
1.0
144
0.0
144
0.0
144
0.0
144
0.0
144
1.0
147
0.0008202099737533
147
0.0
147
0.0
147
0.0
147
0.0
147
0.0008202099737533
147
0.0
147
0.0
147
0.0
147
0.0
147
1.0
147
0.0
147
0.0
147
0.0
147
0.0
147
1.0
  0
MATERIAL
  5
83
102
{ACAD_XDICTIONARY
360
84
102
}
102
{ACAD_REACTORS
330
72
102
}
330
72
100
AcDbMaterial
  1
Global
 72
     0
 43
0.0008202099737533
 43
0.0
 43
0.0
 43
0.0
 43
0.0
 43
0.0008202099737533
 43
0.0
 43
0.0
 43
0.0
 43
0.0
 43
1.0
 43
0.0
 43
0.0
 43
0.0
 43
0.0
 43
1.0
 77
     0
 47
0.0008202099737533
 47
0.0
 47
0.0
 47
0.0
 47
0.0
 47
0.0008202099737533
 47
0.0
 47
0.0
 47
0.0
 47
0.0
 47
1.0
 47
0.0
 47
0.0
 47
0.0
 47
0.0
 47
1.0
171
     0
 49
0.0008202099737533
 49
0.0
 49
0.0
 49
0.0
 49
0.0
 49
0.0008202099737533
 49
0.0
 49
0.0
 49
0.0
 49
0.0
 49
1.0
 49
0.0
 49
0.0
 49
0.0
 49
0.0
 49
1.0
175
     0
142
0.0008202099737533
142
0.0
142
0.0
142
0.0
142
0.0
142
0.0008202099737533
142
0.0
142
0.0
142
0.0
142
0.0
142
1.0
142
0.0
142
0.0
142
0.0
142
0.0
142
1.0
179
     0
144
0.0008202099737533
144
0.0
144
0.0
144
0.0
144
0.0
144
0.0008202099737533
144
0.0
144
0.0
144
0.0
144
0.0
144
1.0
144
0.0
144
0.0
144
0.0
144
0.0
144
1.0
147
0.0008202099737533
147
0.0
147
0.0
147
0.0
147
0.0
147
0.0008202099737533
147
0.0
147
0.0
147
0.0
147
0.0
147
1.0
147
0.0
147
0.0
147
0.0
147
0.0
147
1.0
  0
MLEADERSTYLE
  5
BA
102
{ACAD_REACTORS
330
B9
102
}
330
B9
100
AcDbMLeaderStyle
170
     2
171
     1
172
     0
 90
        2
 40
0.0
 41
0.0
173
     1
 91
-1056964608
340
11
 92
       -2
290
     1
 42
0.09
291
     1
 43
0.36
  3
Standard
 44
0.18
300

342
17
174
     1
178
     6
175
     1
176
     0
 93
-1056964608
 45
0.18
292
     0
297
     0
 46
0.18
 94
-1056964608
 47
1.0
 49
1.0
140
1.0
293
     1
141
0.0
294
     1
177
     0
142
1.0
295
     0
296
     0
143
0.125
1001
ACAD_MLEADERVER
1070
     2
  0
MLINESTYLE
  5
1C
102
{ACAD_REACTORS
330
1B
102
}
330
1B
100
AcDbMlineStyle
  2
STANDARD
 70
     0
  3

 62
     0
 51
90.0
 52
90.0
 71
     2
 49
0.5
 62
   256
  6
BYLAYER
 49
-0.5
 62
   256
  6
BYLAYER
  0
ACDBPLACEHOLDER
  5
1D
102
{ACAD_REACTORS
330
1F
102
}
330
1F
  0
SCALE
  5
A8
102
{ACAD_REACTORS
330
A7
102
}
330
A7
100
AcDbScale
 70
     0
300
1:1
140
1.0
141
1.0
290
     1
  0
SCALE
  5
A9
102
{ACAD_REACTORS
330
A7
102
}
330
A7
100
AcDbScale
 70
     0
300
1/128" = 1'-0"
140
0.0078125
141
12.0
290
     0
  0
SCALE
  5
AA
102
{ACAD_REACTORS
330
A7
102
}
330
A7
100
AcDbScale
 70
     0
300
1/64" = 1'-0"
140
0.015625
141
12.0
290
     0
  0
SCALE
  5
AB
102
{ACAD_REACTORS
330
A7
102
}
330
A7
100
AcDbScale
 70
     0
300
1/32" = 1'-0"
140
0.03125
141
12.0
290
     0
  0
SCALE
  5
AC
102
{ACAD_REACTORS
330
A7
102
}
330
A7
100
AcDbScale
 70
     0
300
1/16" = 1'-0"
140
0.0625
141
12.0
290
     0
  0
SCALE
  5
AD
102
{ACAD_REACTORS
330
A7
102
}
330
A7
100
AcDbScale
 70
     0
300
3/32" = 1'-0"
140
0.09375
141
12.0
290
     0
  0
SCALE
  5
AE
102
{ACAD_REACTORS
330
A7
102
}
330
A7
100
AcDbScale
 70
     0
300
1/8" = 1'-0"
140
0.125
141
12.0
290
     0
  0
SCALE
  5
AF
102
{ACAD_REACTORS
330
A7
102
}
330
A7
100
AcDbScale
 70
     0
300
3/16" = 1'-0"
140
0.1875
141
12.0
290
     0
  0
SCALE
  5
B0
102
{ACAD_REACTORS
330
A7
102
}
330
A7
100
AcDbScale
 70
     0
300
1/4" = 1'-0"
140
0.25
141
12.0
290
     0
  0
SCALE
  5
B1
102
{ACAD_REACTORS
330
A7
102
}
330
A7
100
AcDbScale
 70
     0
300
3/8" = 1'-0"
140
0.375
141
12.0
290
     0
  0
SCALE
  5
B2
102
{ACAD_REACTORS
330
A7
102
}
330
A7
100
AcDbScale
 70
     0
300
1/2" = 1'-0"
140
0.5
141
12.0
290
     0
  0
SCALE
  5
B3
102
{ACAD_REACTORS
330
A7
102
}
330
A7
100
AcDbScale
 70
     0
300
3/4" = 1'-0"
140
0.75
141
12.0
290
     0
  0
SCALE
  5
B4
102
{ACAD_REACTORS
330
A7
102
}
330
A7
100
AcDbScale
 70
     0
300
1" = 1'-0"
140
1.0
141
12.0
290
     0
  0
SCALE
  5
B5
102
{ACAD_REACTORS
330
A7
102
}
330
A7
100
AcDbScale
 70
     0
300
1-1/2" = 1'-0"
140
1.5
141
12.0
290
     0
  0
SCALE
  5
B6
102
{ACAD_REACTORS
330
A7
102
}
330
A7
100
AcDbScale
 70
     0
300
3" = 1'-0"
140
3.0
141
12.0
290
     0
  0
SCALE
  5
B7
102
{ACAD_REACTORS
330
A7
102
}
330
A7
100
AcDbScale
 70
     0
300
6" = 1'-0"
140
6.0
141
12.0
290
     0
  0
SCALE
  5
B8
102
{ACAD_REACTORS
330
A7
102
}
330
A7
100
AcDbScale
 70
     0
300
1'-0" = 1'-0"
140
12.0
141
12.0
290
     0
  0
TABLESTYLE
  5
C7
102
{ACAD_XDICTIONARY
360
EA
102
}
102
{ACAD_REACTORS
330
A5
102
}
330
A5
100
AcDbTableStyle
  3

 70
     0
 71
     3
 40
0.06
 41
0.06
280
     0
281
     0
  7
Legend
140
0.4
170
     4
 62
     0
 63
     7
283
     0
274
    -2
284
     0
 64
     0
275
    -2
285
     0
 65
     0
276
    -2
286
     0
 66
     0
277
    -2
287
     0
 67
     0
278
    -2
288
     0
 68
     0
279
    -2
289
     0
 69
     0
  7
Legend
140
0.5
170
     5
 62
     0
 63
     7
283
     0
274
    -2
284
     0
 64
     0
275
    -2
285
     0
 65
     0
276
    -2
286
     0
 66
     0
277
    -2
287
     0
 67
     0
278
    -2
288
     0
 68
     0
279
    -2
289
     0
 69
     0
  7
Legend
140
0.4
170
     4
 62
     0
 63
     7
283
     0
274
    -2
284
     0
 64
     0
275
    -2
285
     0
 65
     0
276
    -2
286
     0
 66
     0
277
    -2
287
     0
 67
     0
278
    -2
288
     0
 68
     0
279
    -2
289
     0
 69
     0
  0
TABLESTYLE
  5
A6
102
{ACAD_XDICTIONARY
360
E8
102
}
102
{ACAD_REACTORS
330
A5
102
}
330
A5
100
AcDbTableStyle
  3
Standard
 70
     0
 71
     0
 40
0.06
 41
0.06
280
     0
281
     0
  7
Standard
140
0.18
170
     2
 62
     0
 63
     7
283
     0
274
    -2
284
     1
 64
     0
275
    -2
285
     1
 65
     0
276
    -2
286
     1
 66
     0
277
    -2
287
     1
 67
     0
278
    -2
288
     1
 68
     0
279
    -2
289
     1
 69
     0
  7
Standard
140
0.25
170
     5
 62
     0
 63
     7
283
     0
274
    -2
284
     1
 64
     0
275
    -2
285
     1
 65
     0
276
    -2
286
     1
 66
     0
277
    -2
287
     1
 67
     0
278
    -2
288
     1
 68
     0
279
    -2
289
     1
 69
     0
  7
Standard
140
0.18
170
     5
 62
     0
 63
     7
283
     0
274
    -2
284
     1
 64
     0
275
    -2
285
     1
 65
     0
276
    -2
286
     1
 66
     0
277
    -2
287
     1
 67
     0
278
    -2
288
     1
 68
     0
279
    -2
289
     1
 69
     0
  0
VISUALSTYLE
  5
91
102
{ACAD_XDICTIONARY
360
FF
102
}
102
{ACAD_REACTORS
330
8B
102
}
330
8B
100
AcDbVisualStyle
  2
2dWireframe
 70
     4
 71
     0
 72
     2
 73
     0
 90
        0
 40
-0.6
 41
-30.0
 62
     5
 63
     7
 74
     1
 91
        4
 64
     7
 65
   257
 75
     1
175
     1
 42
1.0
 92
        0
 66
   257
 43
1.0
 76
     1
 77
     6
 78
     2
 67
     7
 79
     5
170
     0
171
     0
290
     0
174
     0
 93
        1
 44
0.0
173
     0
291
     0
 45
0.0
1001
ACAD
1000
AcDbSavedByObjectVersion
1070
     0
  0
VISUALSTYLE
  5
90
102
{ACAD_XDICTIONARY
360
FD
102
}
102
{ACAD_REACTORS
330
8B
102
}
330
8B
100
AcDbVisualStyle
  2
Basic
 70
     7
 71
     1
 72
     0
 73
     1
 90
        0
 40
-0.6
 41
-30.0
 62
     5
 63
     7
 74
     0
 91
        4
 64
     7
 65
   257
 75
     1
175
     1
 42
1.0
 92
        8
 66
     7
 43
1.0
 76
     1
 77
     6
 78
     2
 67
     7
 79
     5
170
     0
171
     0
290
     0
174
     0
 93
        1
 44
0.0
173
     0
291
     1
 45
0.0
1001
ACAD
1000
AcDbSavedByObjectVersion
1070
     0
  0
VISUALSTYLE
  5
97
102
{ACAD_XDICTIONARY
360
10B
102
}
102
{ACAD_REACTORS
330
8B
102
}
330
8B
100
AcDbVisualStyle
  2
Brighten
 70
    12
 71
     2
 72
     2
 73
     0
 90
        0
 40
-0.6
 41
-30.0
 62
     5
 63
     7
 74
     1
 91
        4
 64
     7
 65
   257
 75
     1
175
     1
 42
1.0
 92
        8
 66
     7
 43
1.0
 76
     1
 77
     6
 78
     2
 67
     7
 79
     5
170
     0
171
     0
290
     0
174
     0
 93
        1
 44
50.0
173
     0
291
     1
 45
0.0
1001
ACAD
1000
AcDbSavedByObjectVersion
1070
     0
  0
VISUALSTYLE
  5
9B
102
{ACAD_XDICTIONARY
360
113
102
}
102
{ACAD_REACTORS
330
8B
102
}
330
8B
100
AcDbVisualStyle
  2
ColorChange
 70
    16
 71
     2
 72
     2
 73
     3
 90
        0
 40
-0.6
 41
-30.0
 62
     5
 63
     8
 74
     1
 91
        4
 64
     7
 65
   257
 75
     1
175
     1
 42
1.0
 92
        8
 66
     8
 43
1.0
 76
     1
 77
     6
 78
     2
 67
     7
 79
     5
170
     0
171
     0
290
     0
174
     0
 93
        1
 44
0.0
173
     0
291
     1
 45
0.0
1001
ACAD
1000
AcDbSavedByObjectVersion
1070
     0
  0
VISUALSTYLE
  5
94
102
{ACAD_XDICTIONARY
360
105
102
}
102
{ACAD_REACTORS
330
8B
102
}
330
8B
100
AcDbVisualStyle
  2
Conceptual
 70
     9
 71
     3
 72
     2
 73
     0
 90
        0
 40
-0.6
 41
-30.0
 62
     5
 63
     7
 74
     2
 91
        2
 64
     7
 65
   257
 75
     1
175
     1
 42
179.0
 92
        8
 66
     7
 43
1.0
 76
     1
 77
     6
 78
     2
 67
     7
 79
     3
170
     0
171
     0
290
     0
174
     0
 93
        1
 44
0.0
173
     0
291
     0
 45
0.0
1001
ACAD
1000
AcDbSavedByObjectVersion
1070
     0
  0
VISUALSTYLE
  5
96
102
{ACAD_XDICTIONARY
360
109
102
}
102
{ACAD_REACTORS
330
8B
102
}
330
8B
100
AcDbVisualStyle
  2
Dim
 70
    11
 71
     2
 72
     2
 73
     0
 90
        0
 40
-0.6
 41
-30.0
 62
     5
 63
     7
 74
     1
 91
        4
 64
     7
 65
   257
 75
     1
175
     1
 42
1.0
 92
        8
 66
     7
 43
1.0
 76
     1
 77
     6
 78
     2
 67
     7
 79
     5
170
     0
171
     0
290
     0
174
     0
 93
        1
 44
-50.0
173
     0
291
     1
 45
0.0
1001
ACAD
1000
AcDbSavedByObjectVersion
1070
     0
  0
VISUALSTYLE
  5
A3
102
{ACAD_XDICTIONARY
360
123
102
}
102
{ACAD_REACTORS
330
8B
102
}
330
8B
100
AcDbVisualStyle
  2
EdgeColorOff
 70
    22
 71
     2
 72
     2
 73
     0
 90
        0
 40
-0.6
 41
-30.0
 62
     5
 63
     7
 74
     1
 91
        4
 64
     7
 65
   257
 75
     1
175
     1
 42
1.0
 92
        8
 66
     7
 43
1.0
 76
     1
 77
     6
 78
     2
 67
     7
 79
     5
170
     0
171
     0
290
     0
174
     0
 93
        1
 44
0.0
173
     0
291
     1
 45
0.0
1001
ACAD
1000
AcDbSavedByObjectVersion
1070
     0
  0
VISUALSTYLE
  5
9A
102
{ACAD_XDICTIONARY
360
111
102
}
102
{ACAD_REACTORS
330
8B
102
}
330
8B
100
AcDbVisualStyle
  2
Facepattern
 70
    15
 71
     2
 72
     2
 73
     0
 90
        0
 40
-0.6
 41
-30.0
 62
     5
 63
     7
 74
     1
 91
        4
 64
     7
 65
   257
 75
     1
175
     1
 42
1.0
 92
        8
 66
     7
 43
1.0
 76
     1
 77
     6
 78
     2
 67
     7
 79
     5
170
     0
171
     0
290
     0
174
     0
 93
        1
 44
0.0
173
     0
291
     1
 45
0.0
1001
ACAD
1000
AcDbSavedByObjectVersion
1070
     0
  0
VISUALSTYLE
  5
8C
102
{ACAD_XDICTIONARY
360
F5
102
}
102
{ACAD_REACTORS
330
8B
102
}
330
8B
100
AcDbVisualStyle
  2
Flat
 70
     0
 71
     2
 72
     1
 73
     1
 90
        2
 40
-0.6
 41
30.0
 62
     5
 63
     7
 74
     0
 91
        0
 64
     7
 65
   257
 75
     1
175
     1
 42
1.0
 92
        8
 66
     7
 43
1.0
 76
     1
 77
     6
 78
     2
 67
     7
 79
     5
170
     0
171
     0
290
     0
174
     0
 93
       13
 44
0.0
173
     0
291
     1
 45
0.0
1001
ACAD
1000
AcDbSavedByObjectVersion
1070
     0
  0
VISUALSTYLE
  5
8D
102
{ACAD_XDICTIONARY
360
F7
102
}
102
{ACAD_REACTORS
330
8B
102
}
330
8B
100
AcDbVisualStyle
  2
FlatWithEdges
 70
     1
 71
     2
 72
     1
 73
     1
 90
        2
 40
-0.6
 41
30.0
 62
     5
 63
     7
 74
     1
 91
        0
 64
     7
 65
   257
 75
     1
175
     1
 42
1.0
 92
        0
 66
   257
 43
1.0
 76
     1
 77
     6
 78
     2
 67
     7
 79
     5
170
     0
171
     0
290
     0
174
     0
 93
       13
 44
0.0
173
     0
291
     1
 45
0.0
1001
ACAD
1000
AcDbSavedByObjectVersion
1070
     0
  0
VISUALSTYLE
  5
8E
102
{ACAD_XDICTIONARY
360
F9
102
}
102
{ACAD_REACTORS
330
8B
102
}
330
8B
100
AcDbVisualStyle
  2
Gouraud
 70
     2
 71
     2
 72
     2
 73
     1
 90
        2
 40
-0.6
 41
30.0
 62
     5
 63
     7
 74
     0
 91
        0
 64
     7
 65
   257
 75
     1
175
     1
 42
1.0
 92
        0
 66
     7
 43
1.0
 76
     1
 77
     6
 78
     2
 67
     7
 79
     5
170
     0
171
     0
290
     0
174
     0
 93
       13
 44
0.0
173
     0
291
     1
 45
0.0
1001
ACAD
1000
AcDbSavedByObjectVersion
1070
     0
  0
VISUALSTYLE
  5
8F
102
{ACAD_XDICTIONARY
360
FB
102
}
102
{ACAD_REACTORS
330
8B
102
}
330
8B
100
AcDbVisualStyle
  2
GouraudWithEdges
 70
     3
 71
     2
 72
     2
 73
     1
 90
        2
 40
-0.6
 41
30.0
 62
     5
 63
     7
 74
     1
 91
        0
 64
     7
 65
   257
 75
     1
175
     1
 42
1.0
 92
        0
 66
   257
 43
1.0
 76
     1
 77
     6
 78
     2
 67
     7
 79
     5
170
     0
171
     0
290
     0
174
     0
 93
       13
 44
0.0
173
     0
291
     1
 45
0.0
1001
ACAD
1000
AcDbSavedByObjectVersion
1070
     0
  0
VISUALSTYLE
  5
93
102
{ACAD_XDICTIONARY
360
103
102
}
102
{ACAD_REACTORS
330
8B
102
}
330
8B
100
AcDbVisualStyle
  2
Hidden
 70
     6
 71
     1
 72
     2
 73
     2
 90
        0
 40
-0.6
 41
-30.0
 62
     5
 63
     7
 74
     2
 91
        2
 64
     7
 65
   257
 75
     2
175
     1
 42
40.0
 92
        0
 66
   257
 43
1.0
 76
     1
 77
     6
 78
     2
 67
     7
 79
     3
170
     0
171
     0
290
     0
174
     0
 93
        1
 44
0.0
173
     0
291
     0
 45
0.0
1001
ACAD
1000
AcDbSavedByObjectVersion
1070
     0
  0
VISUALSTYLE
  5
A1
102
{ACAD_XDICTIONARY
360
11F
102
}
102
{ACAD_REACTORS
330
8B
102
}
330
8B
100
AcDbVisualStyle
  2
JitterOff
 70
    20
 71
     2
 72
     2
 73
     0
 90
        0
 40
-0.6
 41
-30.0
 62
     5
 63
     7
 74
     1
 91
        4
 64
     7
 65
   257
 75
     1
175
     1
 42
1.0
 92
       10
 66
     7
 43
1.0
 76
     1
 77
     6
 78
     2
 67
     7
 79
     5
170
     0
171
     0
290
     0
174
     0
 93
        1
 44
0.0
173
     0
291
     1
 45
0.0
1001
ACAD
1000
AcDbSavedByObjectVersion
1070
     0
  0
VISUALSTYLE
  5
99
102
{ACAD_XDICTIONARY
360
10F
102
}
102
{ACAD_REACTORS
330
8B
102
}
330
8B
100
AcDbVisualStyle
  2
Linepattern
 70
    14
 71
     2
 72
     2
 73
     0
 90
        0
 40
-0.6
 41
-30.0
 62
     5
 63
     7
 74
     1
 91
        4
 64
     7
 65
   257
 75
     7
175
     7
 42
1.0
 92
        8
 66
     7
 43
1.0
 76
     1
 77
     6
 78
     2
 67
     7
 79
     5
170
     0
171
     0
290
     0
174
     0
 93
        1
 44
0.0
173
     0
291
     1
 45
0.0
1001
ACAD
1000
AcDbSavedByObjectVersion
1070
     0
  0
VISUALSTYLE
  5
A2
102
{ACAD_XDICTIONARY
360
121
102
}
102
{ACAD_REACTORS
330
8B
102
}
330
8B
100
AcDbVisualStyle
  2
OverhangOff
 70
    21
 71
     2
 72
     2
 73
     0
 90
        0
 40
-0.6
 41
-30.0
 62
     5
 63
     7
 74
     1
 91
        4
 64
     7
 65
   257
 75
     1
175
     1
 42
1.0
 92
        9
 66
     7
 43
1.0
 76
     1
 77
     6
 78
     2
 67
     7
 79
     5
170
     0
171
     0
290
     0
174
     0
 93
        1
 44
0.0
173
     0
291
     1
 45
0.0
1001
ACAD
1000
AcDbSavedByObjectVersion
1070
     0
  0
VISUALSTYLE
  5
95
102
{ACAD_XDICTIONARY
360
107
102
}
102
{ACAD_REACTORS
330
8B
102
}
330
8B
100
AcDbVisualStyle
  2
Realistic
 70
     8
 71
     2
 72
     3
 73
     0
 90
        2
 40
-0.6
 41
30.0
 62
     5
 63
     7
 74
     0
 91
        0
 64
     7
 65
   257
 75
     1
175
     1
 42
1.0
 92
        8
 66
   257
 43
1.0
 76
     1
 77
     6
 78
     2
 67
     7
 79
     3
170
     0
171
     0
290
     0
174
     0
 93
       13
 44
0.0
173
     0
291
     0
 45
0.0
1001
ACAD
1000
AcDbSavedByObjectVersion
1070
     0
  0
VISUALSTYLE
  5
A0
102
{ACAD_XDICTIONARY
360
11D
102
}
102
{ACAD_REACTORS
330
8B
102
}
330
8B
100
AcDbVisualStyle
  2
Shaded
 70
    27
 71
     2
 72
     2
 73
     1
 90
        2
 40
-0.6
 41
30.0
 62
     5
 63
     7
 74
     0
 91
        4
 64
     7
 65
   257
 75
     1
175
     1
 42
1.0
 92
        8
 66
   257
 43
1.0
 76
     1
 77
     6
 78
     2
 67
     8
 79
     3
170
     0
171
     0
290
     0
174
     0
 93
        5
 44
0.0
173
     0
291
     0
 45
0.0
1001
ACAD
1000
AcDbSavedByObjectVersion
1070
     0
  0
VISUALSTYLE
  5
9F
102
{ACAD_XDICTIONARY
360
11B
102
}
102
{ACAD_REACTORS
330
8B
102
}
330
8B
100
AcDbVisualStyle
  2
Shaded with edges
 70
    26
 71
     2
 72
     2
 73
     1
 90
        2
 40
-0.6
 41
30.0
 62
     5
 63
     7
 74
     1
 91
       10
 64
     7
 65
   257
 75
     2
175
     1
 42
1.0
 92
        8
 66
   257
 43
1.0
 76
     1
 77
     6
 78
     2
 67
     7
 79
     3
170
     0
171
     0
290
     0
174
     0
 93
        5
 44
0.0
173
     0
291
     0
 45
0.0
1001
ACAD
1000
AcDbSavedByObjectVersion
1070
     0
  0
VISUALSTYLE
  5
9C
102
{ACAD_XDICTIONARY
360
115
102
}
102
{ACAD_REACTORS
330
8B
102
}
330
8B
100
AcDbVisualStyle
  2
Shades of Gray
 70
    23
 71
     2
 72
     2
 73
     3
 90
        0
 40
-0.6
 41
-30.0
 62
     5
 63
     7
 74
     2
 91
        2
 64
     7
 65
     7
 75
     1
175
     1
 42
40.0
 92
        8
 66
     7
 43
1.0
 76
     1
 77
     6
 78
     2
 67
     7
 79
     3
170
     0
171
     0
290
     0
174
     0
 93
        1
 44
0.0
173
     0
291
     0
 45
0.0
1001
ACAD
1000
AcDbSavedByObjectVersion
1070
     0
  0
VISUALSTYLE
  5
9D
102
{ACAD_XDICTIONARY
360
117
102
}
102
{ACAD_REACTORS
330
8B
102
}
330
8B
100
AcDbVisualStyle
  2
Sketchy
 70
    24
 71
     1
 72
     2
 73
     2
 90
        0
 40
-0.6
 41
-30.0
 62
     5
 63
     7
 74
     2
 91
        2
 64
     7
 65
     7
 75
     1
175
     1
 42
40.0
 92
       11
 66
     7
 43
1.0
 76
     1
 77
     6
 78
     2
 67
     7
 79
     6
170
     0
171
     0
290
     0
174
     0
 93
        1
 44
0.0
173
     0
291
     0
 45
0.0
1001
ACAD
1000
AcDbSavedByObjectVersion
1070
     0
  0
VISUALSTYLE
  5
98
102
{ACAD_XDICTIONARY
360
10D
102
}
102
{ACAD_REACTORS
330
8B
102
}
330
8B
100
AcDbVisualStyle
  2
Thicken
 70
    13
 71
     2
 72
     2
 73
     0
 90
        0
 40
-0.6
 41
-30.0
 62
     5
 63
     7
 74
     1
 91
        4
 64
     7
 65
   257
 75
     1
175
     1
 42
1.0
 92
       12
 66
     7
 43
1.0
 76
     1
 77
     6
 78
     2
 67
     7
 79
     5
170
     0
171
     0
290
     0
174
     0
 93
        1
 44
0.0
173
     0
291
     1
 45
0.0
1001
ACAD
1000
AcDbSavedByObjectVersion
1070
     0
  0
VISUALSTYLE
  5
92
102
{ACAD_XDICTIONARY
360
101
102
}
102
{ACAD_REACTORS
330
8B
102
}
330
8B
100
AcDbVisualStyle
  2
Wireframe
 70
     5
 71
     0
 72
     2
 73
     0
 90
        0
 40
-0.6
 41
-30.0
 62
     5
 63
     7
 74
     1
 91
        4
 64
     7
 65
   257
 75
     1
175
     1
 42
1.0
 92
        0
 66
   257
 43
1.0
 76
     1
 77
     6
 78
     2
 67
     7
 79
     3
170
     0
171
     0
290
     0
174
     0
 93
        1
 44
0.0
173
     0
291
     0
 45
0.0
1001
ACAD
1000
AcDbSavedByObjectVersion
1070
     0
  0
VISUALSTYLE
  5
9E
102
{ACAD_XDICTIONARY
360
119
102
}
102
{ACAD_REACTORS
330
8B
102
}
330
8B
100
AcDbVisualStyle
  2
X-Ray
 70
    25
 71
     2
 72
     2
 73
     1
 90
        1
 40
0.5
 41
-30.0
 62
     5
 63
     7
 74
     1
 91
        0
 64
     7
 65
   257
 75
     1
175
     1
 42
1.0
 92
        8
 66
     7
 43
1.0
 76
     1
 77
     6
 78
     2
 67
     7
 79
     3
170
     0
171
     0
290
     0
174
     0
 93
       13
 44
0.0
173
     0
291
     0
 45
0.0
1001
ACAD
1000
AcDbSavedByObjectVersion
1070
     0
  0
DICTIONARYVAR
  5
E2
102
{ACAD_REACTORS
330
DF
102
}
330
DF
100
DictionaryVariables
280
     0
  1
1:1
  0
DICTIONARYVAR
  5
E1
102
{ACAD_REACTORS
330
DF
102
}
330
DF
100
DictionaryVariables
280
     0
  1
STANDARD
  0
DICTIONARYVAR
  5
E0
102
{ACAD_REACTORS
330
DF
102
}
330
DF
100
DictionaryVariables
280
     0
  1
STANDARD
  0
DICTIONARYVAR
  5
E5
102
{ACAD_REACTORS
330
DF
102
}
330
DF
100
DictionaryVariables
280
     0
  1
1
  0
DICTIONARYVAR
  5
E4
102
{ACAD_REACTORS
330
DF
102
}
330
DF
100
DictionaryVariables
280
     0
  1
0
  0
DICTIONARYVAR
  5
E3
102
{ACAD_REACTORS
330
DF
102
}
330
DF
100
DictionaryVariables
280
     0
  1
127
  0
DICTIONARYVAR
  5
E6
102
{ACAD_REACTORS
330
DF
102
}
330
DF
100
DictionaryVariables
280
     0
  1
2
  0
XRECORD
  5
D4
102
{ACAD_REACTORS
330
D3
102
}
330
D3
100
AcDbXrecord
280
     1
1000
ADE02C001
1070
     1
1070
     0
1002
{
1002
}
1002
{
1002
}
1002
{
1002
}
1000

  0
XRECORD
  5
DD
102
{ACAD_REACTORS
330
DB
102
}
330
DB
100
AcDbXrecord
280
     1
  0
DMSTYLIZEDENTITIESTABLE
  5
D0
102
{ACAD_REACTORS
330
BB
102
}
330
BB
100
AcMapDMStylizedEntitiesTable
 70
     1
  0
DICTIONARY
  5
C3
102
{ACAD_REACTORS
330
BB
102
}
330
BB
100
AcDbDictionary
280
     1
281
     1
  0
ACDBDATATABLE
  5
BF
102
{ACAD_REACTORS
330
BB
102
}
330
BB
100
ACDBDATATABLE
 70
     2
 90
        4
 91
       15
  1

 92
        3
  2
OriginalClassName
  3
AcMapDMDefaultStyle
  3
AcMapDMEntityStyle
  3
AcMapDMRasterStyle
  3
AcMapDMSEAnnotationStyle
  3
AcMapDMSEHatchStyle
  3
AcMapDMSETextStyle
  3
AcMapDMThematicStyle
  3
AcMapDMBaseElement
  3
AcMapDMAttachedDwgsQueryElement
  3
AcMapDMFeatureElement
  3
AcMapDMLayerElement
  3
AcMapDMCurrentDwgQueryElement
  3
AcMapDMRasterElement
  3
AcMapDMTopoElement
  3
AcMapDMTopoQueryElement
 92
        3
  2
ProxyDisplayName
  3
Default
  3
Entity
  3
Raster
  3
Annotation
  3
Hatch
  3
Text
  3
Thematic
  3
Map Base
  3
Ade Query
  3
Feature Class
  3
Layer
  3
Ade Project Query
  3
Raster
  3
Topology
  3
Topology Query
 92
        1
  2
CustomObjectType
 93
        2
 93
        2
 93
        2
 93
        2
 93
        2
 93
        2
 93
        2
 93
        1
 93
        1
 93
        1
 93
        1
 93
        1
 93
        1
 93
        1
 93
        1
 92
        1
  2
StyleCoExistanceType
 93
        1
 93
        1
 93
        1
 93
        1
 93
        1
 93
        1
 93
        2
 93
        0
 93
        0
 93
        0
 93
        0
 93
        0
 93
        0
 93
        0
 93
        0
  0
DMMAPMANAGER
  5
BC
102
{ACAD_REACTORS
330
BB
102
}
330
BB
100
AcDbDictionary
281
     1
  3
DisplayMap1
350
C5
100
AcDbDictionaryWithDefault
340
C5
100
AcMapDMMapManager
 70
     1
340
C5
  0
DMSTYLELIBRARY
  5
BD
102
{ACAD_REACTORS
330
BB
102
}
330
BB
100
AcMapDMStyleLibrary
 70
     1
 70
     1
360
BE
  0
DICTIONARY
  5
D1
102
{ACAD_REACTORS
330
BB
102
}
330
BB
100
AcDbDictionary
281
     1
  0
DICTIONARY
  5
F0
330
21
100
AcDbDictionary
280
     1
281
     1
  3
ACAD_XREC_ROUNDTRIP
360
F1
  0
DICTIONARY
  5
EE
330
20
100
AcDbDictionary
280
     1
281
     1
  3
ACAD_XREC_ROUNDTRIP
360
EF
  0
DICTIONARY
  5
7C
330
7B
100
AcDbDictionary
280
     1
281
     1
  3
ACAD_XREC_ROUNDTRIP
360
F3
  3
BUMPTILE
360
7E
  3
DIFFUSETILE
360
7D
  3
OPACITYTILE
360
81
  3
REFLECTIONTILE
360
80
  3
REFRACTIONTILE
360
82
  3
SPECULARTILE
360
7F
  0
DICTIONARY
  5
74
330
73
100
AcDbDictionary
280
     1
281
     1
  3
ACAD_XREC_ROUNDTRIP
360
F2
  3
BUMPTILE
360
76
  3
DIFFUSETILE
360
75
  3
OPACITYTILE
360
79
  3
REFLECTIONTILE
360
78
  3
REFRACTIONTILE
360
7A
  3
SPECULARTILE
360
77
  0
DICTIONARY
  5
84
330
83
100
AcDbDictionary
280
     1
281
     1
  3
ACAD_XREC_ROUNDTRIP
360
F4
  3
BUMPTILE
360
86
  3
DIFFUSETILE
360
85
  3
OPACITYTILE
360
89
  3
REFLECTIONTILE
360
88
  3
REFRACTIONTILE
360
8A
  3
SPECULARTILE
360
87
  0
DICTIONARY
  5
EA
330
C7
100
AcDbDictionary
280
     1
281
     1
  3
ACAD_ROUNDTRIP_2008_TABLESTYLE_CELLSTYLEMAP
360
EB
  3
ACAD_XREC_ROUNDTRIP
360
127
  0
DICTIONARY
  5
E8
330
A6
100
AcDbDictionary
280
     1
281
     1
  3
ACAD_ROUNDTRIP_2008_TABLESTYLE_CELLSTYLEMAP
360
E9
  3
ACAD_XREC_ROUNDTRIP
360
125
  0
DICTIONARY
  5
FF
330
91
100
AcDbDictionary
280
     1
281
     1
  3
ACAD_XREC_ROUNDTRIP
360
100
  0
DICTIONARY
  5
FD
330
90
100
AcDbDictionary
280
     1
281
     1
  3
ACAD_XREC_ROUNDTRIP
360
FE
  0
DICTIONARY
  5
10B
330
97
100
AcDbDictionary
280
     1
281
     1
  3
ACAD_XREC_ROUNDTRIP
360
10C
  0
DICTIONARY
  5
113
330
9B
100
AcDbDictionary
280
     1
281
     1
  3
ACAD_XREC_ROUNDTRIP
360
114
  0
DICTIONARY
  5
105
330
94
100
AcDbDictionary
280
     1
281
     1
  3
ACAD_XREC_ROUNDTRIP
360
106
  0
DICTIONARY
  5
109
330
96
100
AcDbDictionary
280
     1
281
     1
  3
ACAD_XREC_ROUNDTRIP
360
10A
  0
DICTIONARY
  5
123
330
A3
100
AcDbDictionary
280
     1
281
     1
  3
ACAD_XREC_ROUNDTRIP
360
124
  0
DICTIONARY
  5
111
330
9A
100
AcDbDictionary
280
     1
281
     1
  3
ACAD_XREC_ROUNDTRIP
360
112
  0
DICTIONARY
  5
F5
330
8C
100
AcDbDictionary
280
     1
281
     1
  3
ACAD_XREC_ROUNDTRIP
360
F6
  0
DICTIONARY
  5
F7
330
8D
100
AcDbDictionary
280
     1
281
     1
  3
ACAD_XREC_ROUNDTRIP
360
F8
  0
DICTIONARY
  5
F9
330
8E
100
AcDbDictionary
280
     1
281
     1
  3
ACAD_XREC_ROUNDTRIP
360
FA
  0
DICTIONARY
  5
FB
330
8F
100
AcDbDictionary
280
     1
281
     1
  3
ACAD_XREC_ROUNDTRIP
360
FC
  0
DICTIONARY
  5
103
330
93
100
AcDbDictionary
280
     1
281
     1
  3
ACAD_XREC_ROUNDTRIP
360
104
  0
DICTIONARY
  5
11F
330
A1
100
AcDbDictionary
280
     1
281
     1
  3
ACAD_XREC_ROUNDTRIP
360
120
  0
DICTIONARY
  5
10F
330
99
100
AcDbDictionary
280
     1
281
     1
  3
ACAD_XREC_ROUNDTRIP
360
110
  0
DICTIONARY
  5
121
330
A2
100
AcDbDictionary
280
     1
281
     1
  3
ACAD_XREC_ROUNDTRIP
360
122
  0
DICTIONARY
  5
107
330
95
100
AcDbDictionary
280
     1
281
     1
  3
ACAD_XREC_ROUNDTRIP
360
108
  0
DICTIONARY
  5
11D
330
A0
100
AcDbDictionary
280
     1
281
     1
  3
ACAD_XREC_ROUNDTRIP
360
11E
  0
DICTIONARY
  5
11B
330
9F
100
AcDbDictionary
280
     1
281
     1
  3
ACAD_XREC_ROUNDTRIP
360
11C
  0
DICTIONARY
  5
115
330
9C
100
AcDbDictionary
280
     1
281
     1
  3
ACAD_XREC_ROUNDTRIP
360
116
  0
DICTIONARY
  5
117
330
9D
100
AcDbDictionary
280
     1
281
     1
  3
ACAD_XREC_ROUNDTRIP
360
118
  0
DICTIONARY
  5
10D
330
98
100
AcDbDictionary
280
     1
281
     1
  3
ACAD_XREC_ROUNDTRIP
360
10E
  0
DICTIONARY
  5
101
330
92
100
AcDbDictionary
280
     1
281
     1
  3
ACAD_XREC_ROUNDTRIP
360
102
  0
DICTIONARY
  5
119
330
9E
100
AcDbDictionary
280
     1
281
     1
  3
ACAD_XREC_ROUNDTRIP
360
11A
  0
DMMAP
  5
C5
102
{ACAD_REACTORS
330
BC
330
C8
102
}
330
BC
100
AcMapDMMap
 70
     1
  1
Por defecto
 70
     1
330
0
100
AcMapDMMap
 70
     1
 90
        1
360
C8
 90
        1
 40
1.797693134862314E+99
 70
     1
100
AcMapDMMap
 70
     2
 70
     0
 40
1.797693134862314E+99
290
     1
290
     1
 40
1.0
 40
3.0
  1
Legend
 90
        1
 40
1.797693134862314E+99
  1

 70
     0
 40
1.0
 70
     1
 90
        0
 90
        1
360
C9
  0
DMSTYLECATEGORY
  5
BE
102
{ACAD_REACTORS
330
BD
102
}
330
BD
100
AcMapDMStyleCategory
 70
     1
  1
Visualizar estilos
 70
     0
  0
XRECORD
  5
F1
102
{ACAD_REACTORS
330
F0
102
}
330
F0
100
AcDbXrecord
280
     1
102
SHADEPLOT
 70
     0
102
SHADEPLOTRESLEVEL
 70
     2
102
SHADEPLOTCUSTOMDPI
 70
   300
  0
XRECORD
  5
EF
102
{ACAD_REACTORS
330
EE
102
}
330
EE
100
AcDbXrecord
280
     1
102
SHADEPLOT
 70
     0
102
SHADEPLOTRESLEVEL
 70
     2
102
SHADEPLOTCUSTOMDPI
 70
   300
  0
XRECORD
  5
F3
102
{ACAD_REACTORS
330
7C
102
}
330
7C
100
AcDbXrecord
280
     1
102
MATERIAL
148
0.0
149
0.0
149
0.0
 93
        0
 94
      127
282
     0
 72
     0
 77
     0
171
     0
175
     0
179
     0
273
     0
  0
XRECORD
  5
7E
102
{ACAD_REACTORS
330
7C
102
}
330
7C
100
AcDbXrecord
280
     1
270
     1
271
     1
  0
XRECORD
  5
7D
102
{ACAD_REACTORS
330
7C
102
}
330
7C
100
AcDbXrecord
280
     1
270
     1
271
     1
  0
XRECORD
  5
81
102
{ACAD_REACTORS
330
7C
102
}
330
7C
100
AcDbXrecord
280
     1
270
     1
271
     1
  0
XRECORD
  5
80
102
{ACAD_REACTORS
330
7C
102
}
330
7C
100
AcDbXrecord
280
     1
270
     1
271
     1
  0
XRECORD
  5
82
102
{ACAD_REACTORS
330
7C
102
}
330
7C
100
AcDbXrecord
280
     1
270
     1
271
     1
  0
XRECORD
  5
7F
102
{ACAD_REACTORS
330
7C
102
}
330
7C
100
AcDbXrecord
280
     1
270
     1
271
     1
  0
XRECORD
  5
F2
102
{ACAD_REACTORS
330
74
102
}
330
74
100
AcDbXrecord
280
     1
102
MATERIAL
148
0.0
149
0.0
149
0.0
 93
        0
 94
      127
282
     0
 72
     0
 77
     0
171
     0
175
     0
179
     0
273
     0
  0
XRECORD
  5
76
102
{ACAD_REACTORS
330
74
102
}
330
74
100
AcDbXrecord
280
     1
270
     1
271
     1
  0
XRECORD
  5
75
102
{ACAD_REACTORS
330
74
102
}
330
74
100
AcDbXrecord
280
     1
270
     1
271
     1
  0
XRECORD
  5
79
102
{ACAD_REACTORS
330
74
102
}
330
74
100
AcDbXrecord
280
     1
270
     1
271
     1
  0
XRECORD
  5
78
102
{ACAD_REACTORS
330
74
102
}
330
74
100
AcDbXrecord
280
     1
270
     1
271
     1
  0
XRECORD
  5
7A
102
{ACAD_REACTORS
330
74
102
}
330
74
100
AcDbXrecord
280
     1
270
     1
271
     1
  0
XRECORD
  5
77
102
{ACAD_REACTORS
330
74
102
}
330
74
100
AcDbXrecord
280
     1
270
     1
271
     1
  0
XRECORD
  5
F4
102
{ACAD_REACTORS
330
84
102
}
330
84
100
AcDbXrecord
280
     1
102
MATERIAL
148
0.0
149
0.0
149
0.0
 93
        0
 94
      127
282
     0
 72
     0
 77
     0
171
     0
175
     0
179
     0
273
     0
  0
XRECORD
  5
86
102
{ACAD_REACTORS
330
84
102
}
330
84
100
AcDbXrecord
280
     1
270
     1
271
     1
  0
XRECORD
  5
85
102
{ACAD_REACTORS
330
84
102
}
330
84
100
AcDbXrecord
280
     1
270
     1
271
     1
  0
XRECORD
  5
89
102
{ACAD_REACTORS
330
84
102
}
330
84
100
AcDbXrecord
280
     1
270
     1
271
     1
  0
XRECORD
  5
88
102
{ACAD_REACTORS
330
84
102
}
330
84
100
AcDbXrecord
280
     1
270
     1
271
     1
  0
XRECORD
  5
8A
102
{ACAD_REACTORS
330
84
102
}
330
84
100
AcDbXrecord
280
     1
270
     1
271
     1
  0
XRECORD
  5
87
102
{ACAD_REACTORS
330
84
102
}
330
84
100
AcDbXrecord
280
     1
270
     1
271
     1
  0
CELLSTYLEMAP
  5
EB
102
{ACAD_REACTORS
330
EA
102
}
330
EA
100
AcDbCellStyleMap
 90
        3
300
CELLSTYLE
  1
TABLEFORMAT_BEGIN
 90
        5
170
     1
 91
        0
 92
    32768
 62
   257
 93
        1
300
CONTENTFORMAT
  1
CONTENTFORMAT_BEGIN
 90
        0
 91
        0
 92
      512
 93
        0
300

 40
0.0
140
1.0
 94
        5
 62
     0
340
C6
144
0.5
309
CONTENTFORMAT_END
171
     0
 94
        6
 95
        1
302
GRIDFORMAT
  1
GRIDFORMAT_BEGIN
 90
        0
 91
        1
 62
     0
 92
       -2
340
0
 93
        1
 40
0.045
309
GRIDFORMAT_END
 95
        2
302
GRIDFORMAT
  1
GRIDFORMAT_BEGIN
 90
        0
 91
        1
 62
     0
 92
       -2
340
0
 93
        1
 40
0.045
309
GRIDFORMAT_END
 95
        4
302
GRIDFORMAT
  1
GRIDFORMAT_BEGIN
 90
        0
 91
        1
 62
     0
 92
       -2
340
0
 93
        1
 40
0.045
309
GRIDFORMAT_END
 95
        8
302
GRIDFORMAT
  1
GRIDFORMAT_BEGIN
 90
        0
 91
        1
 62
     0
 92
       -2
340
0
 93
        1
 40
0.045
309
GRIDFORMAT_END
 95
       16
302
GRIDFORMAT
  1
GRIDFORMAT_BEGIN
 90
        0
 91
        1
 62
     0
 92
       -2
340
0
 93
        1
 40
0.045
309
GRIDFORMAT_END
 95
       32
302
GRIDFORMAT
  1
GRIDFORMAT_BEGIN
 90
        0
 91
        1
 62
     0
 92
       -2
340
0
 93
        1
 40
0.045
309
GRIDFORMAT_END
309
TABLEFORMAT_END
  1
CELLSTYLE_BEGIN
 90
        1
 91
        1
300
_TITLE
309
CELLSTYLE_END
300
CELLSTYLE
  1
TABLEFORMAT_BEGIN
 90
        5
170
     1
 91
        0
 92
        0
 62
   257
 93
        1
300
CONTENTFORMAT
  1
CONTENTFORMAT_BEGIN
 90
        0
 91
        0
 92
      512
 93
        0
300

 40
0.0
140
1.0
 94
        4
 62
     0
340
C6
144
0.4
309
CONTENTFORMAT_END
171
     0
 94
        6
 95
        1
302
GRIDFORMAT
  1
GRIDFORMAT_BEGIN
 90
        0
 91
        1
 62
     0
 92
       -2
340
0
 93
        1
 40
0.045
309
GRIDFORMAT_END
 95
        2
302
GRIDFORMAT
  1
GRIDFORMAT_BEGIN
 90
        0
 91
        1
 62
     0
 92
       -2
340
0
 93
        1
 40
0.045
309
GRIDFORMAT_END
 95
        4
302
GRIDFORMAT
  1
GRIDFORMAT_BEGIN
 90
        0
 91
        1
 62
     0
 92
       -2
340
0
 93
        1
 40
0.045
309
GRIDFORMAT_END
 95
        8
302
GRIDFORMAT
  1
GRIDFORMAT_BEGIN
 90
        0
 91
        1
 62
     0
 92
       -2
340
0
 93
        1
 40
0.045
309
GRIDFORMAT_END
 95
       16
302
GRIDFORMAT
  1
GRIDFORMAT_BEGIN
 90
        0
 91
        1
 62
     0
 92
       -2
340
0
 93
        1
 40
0.045
309
GRIDFORMAT_END
 95
       32
302
GRIDFORMAT
  1
GRIDFORMAT_BEGIN
 90
        0
 91
        1
 62
     0
 92
       -2
340
0
 93
        1
 40
0.045
309
GRIDFORMAT_END
309
TABLEFORMAT_END
  1
CELLSTYLE_BEGIN
 90
        2
 91
        1
300
_HEADER
309
CELLSTYLE_END
300
CELLSTYLE
  1
TABLEFORMAT_BEGIN
 90
        5
170
     1
 91
        0
 92
        0
 62
   257
 93
        1
300
CONTENTFORMAT
  1
CONTENTFORMAT_BEGIN
 90
        0
 91
        0
 92
      512
 93
        0
300

 40
0.0
140
1.0
 94
        4
 62
     0
340
C6
144
0.4
309
CONTENTFORMAT_END
171
     0
 94
        6
 95
        1
302
GRIDFORMAT
  1
GRIDFORMAT_BEGIN
 90
        0
 91
        1
 62
     0
 92
       -2
340
0
 93
        1
 40
0.045
309
GRIDFORMAT_END
 95
        2
302
GRIDFORMAT
  1
GRIDFORMAT_BEGIN
 90
        0
 91
        1
 62
     0
 92
       -2
340
0
 93
        1
 40
0.045
309
GRIDFORMAT_END
 95
        4
302
GRIDFORMAT
  1
GRIDFORMAT_BEGIN
 90
        0
 91
        1
 62
     0
 92
       -2
340
0
 93
        1
 40
0.045
309
GRIDFORMAT_END
 95
        8
302
GRIDFORMAT
  1
GRIDFORMAT_BEGIN
 90
        0
 91
        1
 62
     0
 92
       -2
340
0
 93
        1
 40
0.045
309
GRIDFORMAT_END
 95
       16
302
GRIDFORMAT
  1
GRIDFORMAT_BEGIN
 90
        0
 91
        1
 62
     0
 92
       -2
340
0
 93
        1
 40
0.045
309
GRIDFORMAT_END
 95
       32
302
GRIDFORMAT
  1
GRIDFORMAT_BEGIN
 90
        0
 91
        1
 62
     0
 92
       -2
340
0
 93
        1
 40
0.045
309
GRIDFORMAT_END
309
TABLEFORMAT_END
  1
CELLSTYLE_BEGIN
 90
        3
 91
        2
300
_DATA
309
CELLSTYLE_END
  0
XRECORD
  5
127
102
{ACAD_REACTORS
330
EA
102
}
330
EA
100
AcDbXrecord
280
     1
102
ACAD_ROUNDTRIP_PRE2007_TABLESTYLE
 90
      512
 91
        0
  1

 92
      512
 93
        0
  2

 94
      512
 95
        0
  3

  0
CELLSTYLEMAP
  5
E9
102
{ACAD_REACTORS
330
E8
102
}
330
E8
100
AcDbCellStyleMap
 90
        3
300
CELLSTYLE
  1
TABLEFORMAT_BEGIN
 90
        5
170
     1
 91
        0
 92
    32768
 62
   257
 93
        1
300
CONTENTFORMAT
  1
CONTENTFORMAT_BEGIN
 90
        0
 91
        0
 92
      512
 93
        0
300

 40
0.0
140
1.0
 94
        5
 62
     0
340
17
144
0.25
309
CONTENTFORMAT_END
171
     0
 94
        0
309
TABLEFORMAT_END
  1
CELLSTYLE_BEGIN
 90
        1
 91
        1
300
_TITLE
309
CELLSTYLE_END
300
CELLSTYLE
  1
TABLEFORMAT_BEGIN
 90
        5
170
     1
 91
        0
 92
        0
 62
   257
 93
        1
300
CONTENTFORMAT
  1
CONTENTFORMAT_BEGIN
 90
        0
 91
        0
 92
      512
 93
        0
300

 40
0.0
140
1.0
 94
        5
 62
     0
340
17
144
0.18
309
CONTENTFORMAT_END
171
     0
 94
        0
309
TABLEFORMAT_END
  1
CELLSTYLE_BEGIN
 90
        2
 91
        1
300
_HEADER
309
CELLSTYLE_END
300
CELLSTYLE
  1
TABLEFORMAT_BEGIN
 90
        5
170
     1
 91
        0
 92
        0
 62
   257
 93
        1
300
CONTENTFORMAT
  1
CONTENTFORMAT_BEGIN
 90
        0
 91
        0
 92
      512
 93
        0
300

 40
0.0
140
1.0
 94
        2
 62
     0
340
17
144
0.18
309
CONTENTFORMAT_END
171
     0
 94
        0
309
TABLEFORMAT_END
  1
CELLSTYLE_BEGIN
 90
        3
 91
        2
300
_DATA
309
CELLSTYLE_END
  0
XRECORD
  5
125
102
{ACAD_REACTORS
330
E8
102
}
330
E8
100
AcDbXrecord
280
     1
102
ACAD_ROUNDTRIP_PRE2007_TABLESTYLE
 90
      512
 91
        0
  1

 92
      512
 93
        0
  2

 94
      512
 95
        0
  3

  0
XRECORD
  5
100
102
{ACAD_REACTORS
330
FF
102
}
330
FF
100
AcDbXrecord
280
     1
102
RTVSPropertyOp0
 70
     1
102
RTVSPropertyOp1
 70
     1
102
RTVSPropertyOp2
 70
     1
102
RTVSPropertyOp3
 70
     1
102
RTVSPropertyOp4
 70
     1
102
RTVSPropertyOp5
 70
     1
102
RTVSPropertyOp6
 70
     1
102
RTVSPropertyOp7
 70
     1
102
RTVSPropertyOp8
 70
     1
102
RTVSPropertyOp9
 70
     1
102
RTVSPropertyOp10
 70
     1
102
RTVSPropertyOp11
 70
     1
102
RTVSPropertyOp12
 70
     1
102
RTVSPropertyOp13
 70
     1
102
RTVSPropertyOp14
 70
     1
102
RTVSPropertyOp15
 70
     1
102
RTVSPropertyOp16
 70
     1
102
RTVSPropertyOp17
 70
     1
102
RTVSPropertyOp18
 70
     1
102
RTVSPropertyOp19
 70
     1
102
RTVSPropertyOp20
 70
     1
102
RTVSPropertyOp21
 70
     1
102
RTVSPropertyOp22
 70
     1
102
RTVSPropertyOp23
 70
     1
102
RTVSPropertyOp24
 70
     1
102
RTVSPropertyOp25
 70
     1
102
RTVSPropertyOp26
 70
     1
102
RTVSPropertyOp27
 70
     1
102
RTVSPropertyOp28
 70
     1
102
RTVSPropertyOp29
 70
     1
102
RTVSPropertyOp30
 70
     1
102
RTVSPropertyOp31
 70
     1
102
RTVSPropertyOp32
 70
     1
  0
XRECORD
  5
FE
102
{ACAD_REACTORS
330
FD
102
}
330
FD
100
AcDbXrecord
280
     1
102
RTVSPropertyOp0
 70
     1
102
RTVSPropertyOp1
 70
     1
102
RTVSPropertyOp2
 70
     1
102
RTVSPropertyOp3
 70
     1
102
RTVSPropertyOp4
 70
     1
102
RTVSPropertyOp5
 70
     1
102
RTVSPropertyOp6
 70
     1
102
RTVSPropertyOp7
 70
     1
102
RTVSPropertyOp8
 70
     1
102
RTVSPropertyOp9
 70
     1
102
RTVSPropertyOp10
 70
     1
102
RTVSPropertyOp11
 70
     1
102
RTVSPropertyOp12
 70
     1
102
RTVSPropertyOp13
 70
     1
102
RTVSPropertyOp14
 70
     1
102
RTVSPropertyOp15
 70
     1
102
RTVSPropertyOp16
 70
     1
102
RTVSPropertyOp17
 70
     1
102
RTVSPropertyOp18
 70
     1
102
RTVSPropertyOp19
 70
     1
102
RTVSPropertyOp20
 70
     1
102
RTVSPropertyOp21
 70
     1
102
RTVSPropertyOp22
 70
     1
102
RTVSPropertyOp23
 70
     1
102
RTVSPropertyOp24
 70
     1
102
RTVSPropertyOp25
 70
     1
102
RTVSPropertyOp26
 70
     1
102
RTVSPropertyOp27
 70
     1
102
RTVSPropertyOp28
 70
     1
102
RTVSPropertyOp29
 70
     1
102
RTVSPropertyOp30
 70
     1
102
RTVSPropertyOp31
 70
     1
102
RTVSPropertyOp32
 70
     1
  0
XRECORD
  5
10C
102
{ACAD_REACTORS
330
10B
102
}
330
10B
100
AcDbXrecord
280
     1
102
RTVSPropertyOp0
 70
     1
102
RTVSPropertyOp1
 70
     1
102
RTVSPropertyOp2
 70
     1
102
RTVSPropertyOp3
 70
     1
102
RTVSPropertyOp4
 70
     1
102
RTVSPropertyOp5
 70
     1
102
RTVSPropertyOp6
 70
     1
102
RTVSPropertyOp7
 70
     1
102
RTVSPropertyOp8
 70
     1
102
RTVSPropertyOp9
 70
     1
102
RTVSPropertyOp10
 70
     1
102
RTVSPropertyOp11
 70
     1
102
RTVSPropertyOp12
 70
     1
102
RTVSPropertyOp13
 70
     1
102
RTVSPropertyOp14
 70
     1
102
RTVSPropertyOp15
 70
     1
102
RTVSPropertyOp16
 70
     1
102
RTVSPropertyOp17
 70
     1
102
RTVSPropertyOp18
 70
     1
102
RTVSPropertyOp19
 70
     1
102
RTVSPropertyOp20
 70
     1
102
RTVSPropertyOp21
 70
     1
102
RTVSPropertyOp22
 70
     1
102
RTVSPropertyOp23
 70
     1
102
RTVSPropertyOp24
 70
     1
102
RTVSPropertyOp25
 70
     1
102
RTVSPropertyOp26
 70
     1
102
RTVSPropertyOp27
 70
     1
102
RTVSPropertyOp28
 70
     1
102
RTVSPropertyOp29
 70
     1
102
RTVSPropertyOp30
 70
     1
102
RTVSPropertyOp31
 70
     1
102
RTVSPropertyOp32
 70
     1
  0
XRECORD
  5
114
102
{ACAD_REACTORS
330
113
102
}
330
113
100
AcDbXrecord
280
     1
102
RTVSPropertyOp0
 70
     1
102
RTVSPropertyOp1
 70
     1
102
RTVSPropertyOp2
 70
     1
102
RTVSPropertyOp3
 70
     1
102
RTVSPropertyOp4
 70
     1
102
RTVSPropertyOp5
 70
     1
102
RTVSPropertyOp6
 70
     1
102
RTVSPropertyOp7
 70
     1
102
RTVSPropertyOp8
 70
     1
102
RTVSPropertyOp9
 70
     1
102
RTVSPropertyOp10
 70
     1
102
RTVSPropertyOp11
 70
     1
102
RTVSPropertyOp12
 70
     1
102
RTVSPropertyOp13
 70
     1
102
RTVSPropertyOp14
 70
     1
102
RTVSPropertyOp15
 70
     1
102
RTVSPropertyOp16
 70
     1
102
RTVSPropertyOp17
 70
     1
102
RTVSPropertyOp18
 70
     1
102
RTVSPropertyOp19
 70
     1
102
RTVSPropertyOp20
 70
     1
102
RTVSPropertyOp21
 70
     1
102
RTVSPropertyOp22
 70
     1
102
RTVSPropertyOp23
 70
     1
102
RTVSPropertyOp24
 70
     1
102
RTVSPropertyOp25
 70
     1
102
RTVSPropertyOp26
 70
     1
102
RTVSPropertyOp27
 70
     1
102
RTVSPropertyOp28
 70
     1
102
RTVSPropertyOp29
 70
     1
102
RTVSPropertyOp30
 70
     1
102
RTVSPropertyOp31
 70
     1
102
RTVSPropertyOp32
 70
     1
  0
XRECORD
  5
106
102
{ACAD_REACTORS
330
105
102
}
330
105
100
AcDbXrecord
280
     1
102
RTVSPropertyOp0
 70
     1
102
RTVSPropertyOp1
 70
     1
102
RTVSPropertyOp2
 70
     1
102
RTVSPropertyOp3
 70
     1
102
RTVSPropertyOp4
 70
     1
102
RTVSPropertyOp5
 70
     1
102
RTVSPropertyOp6
 70
     1
102
RTVSPropertyOp7
 70
     1
102
RTVSPropertyOp8
 70
     1
102
RTVSPropertyOp9
 70
     1
102
RTVSPropertyOp10
 70
     1
102
RTVSPropertyOp11
 70
     1
102
RTVSPropertyOp12
 70
     1
102
RTVSPropertyOp13
 70
     1
102
RTVSPropertyOp14
 70
     1
102
RTVSPropertyOp15
 70
     1
102
RTVSPropertyOp16
 70
     1
102
RTVSPropertyOp17
 70
     1
102
RTVSPropertyOp18
 70
     1
102
RTVSPropertyOp19
 70
     1
102
RTVSPropertyOp20
 70
     1
102
RTVSPropertyOp21
 70
     1
102
RTVSPropertyOp22
 70
     1
102
RTVSPropertyOp23
 70
     1
102
RTVSPropertyOp24
 70
     1
102
RTVSPropertyOp25
 70
     1
102
RTVSPropertyOp26
 70
     1
102
RTVSPropertyOp27
 70
     1
102
RTVSPropertyOp28
 70
     1
102
RTVSPropertyOp29
 70
     1
102
RTVSPropertyOp30
 70
     1
102
RTVSPropertyOp31
 70
     1
102
RTVSPropertyOp32
 70
     1
  0
XRECORD
  5
10A
102
{ACAD_REACTORS
330
109
102
}
330
109
100
AcDbXrecord
280
     1
102
RTVSPropertyOp0
 70
     1
102
RTVSPropertyOp1
 70
     1
102
RTVSPropertyOp2
 70
     1
102
RTVSPropertyOp3
 70
     1
102
RTVSPropertyOp4
 70
     1
102
RTVSPropertyOp5
 70
     1
102
RTVSPropertyOp6
 70
     1
102
RTVSPropertyOp7
 70
     1
102
RTVSPropertyOp8
 70
     1
102
RTVSPropertyOp9
 70
     1
102
RTVSPropertyOp10
 70
     1
102
RTVSPropertyOp11
 70
     1
102
RTVSPropertyOp12
 70
     1
102
RTVSPropertyOp13
 70
     1
102
RTVSPropertyOp14
 70
     1
102
RTVSPropertyOp15
 70
     1
102
RTVSPropertyOp16
 70
     1
102
RTVSPropertyOp17
 70
     1
102
RTVSPropertyOp18
 70
     1
102
RTVSPropertyOp19
 70
     1
102
RTVSPropertyOp20
 70
     1
102
RTVSPropertyOp21
 70
     1
102
RTVSPropertyOp22
 70
     1
102
RTVSPropertyOp23
 70
     1
102
RTVSPropertyOp24
 70
     1
102
RTVSPropertyOp25
 70
     1
102
RTVSPropertyOp26
 70
     1
102
RTVSPropertyOp27
 70
     1
102
RTVSPropertyOp28
 70
     1
102
RTVSPropertyOp29
 70
     1
102
RTVSPropertyOp30
 70
     1
102
RTVSPropertyOp31
 70
     1
102
RTVSPropertyOp32
 70
     1
  0
XRECORD
  5
124
102
{ACAD_REACTORS
330
123
102
}
330
123
100
AcDbXrecord
280
     1
102
RTVSPropertyOp0
 70
     0
102
RTVSPropertyOp1
 70
     0
102
RTVSPropertyOp2
 70
     0
102
RTVSPropertyOp3
 70
     0
102
RTVSPropertyOp4
 70
     0
102
RTVSPropertyOp5
 70
     0
102
RTVSPropertyOp6
 70
     0
102
RTVSPropertyOp7
 70
     0
102
RTVSPropertyOp8
 70
     0
102
RTVSPropertyOp9
 70
     0
102
RTVSPropertyOp10
 70
     0
102
RTVSPropertyOp11
 70
     0
102
RTVSPropertyOp12
 70
     0
102
RTVSPropertyOp13
 70
     0
102
RTVSPropertyOp14
 70
     2
102
RTVSPropertyOp15
 70
     0
102
RTVSPropertyOp16
 70
     0
102
RTVSPropertyOp17
 70
     0
102
RTVSPropertyOp18
 70
     0
102
RTVSPropertyOp19
 70
     0
102
RTVSPropertyOp20
 70
     0
102
RTVSPropertyOp21
 70
     0
102
RTVSPropertyOp22
 70
     0
102
RTVSPropertyOp23
 70
     0
102
RTVSPropertyOp24
 70
     0
102
RTVSPropertyOp25
 70
     0
102
RTVSPropertyOp26
 70
     0
102
RTVSPropertyOp27
 70
     0
102
RTVSPropertyOp28
 70
     0
102
RTVSPropertyOp29
 70
     0
102
RTVSPropertyOp30
 70
     0
102
RTVSPropertyOp31
 70
     0
102
RTVSPropertyOp32
 70
     0
  0
XRECORD
  5
112
102
{ACAD_REACTORS
330
111
102
}
330
111
100
AcDbXrecord
280
     1
102
RTVSPropertyOp0
 70
     1
102
RTVSPropertyOp1
 70
     1
102
RTVSPropertyOp2
 70
     1
102
RTVSPropertyOp3
 70
     1
102
RTVSPropertyOp4
 70
     1
102
RTVSPropertyOp5
 70
     1
102
RTVSPropertyOp6
 70
     1
102
RTVSPropertyOp7
 70
     1
102
RTVSPropertyOp8
 70
     1
102
RTVSPropertyOp9
 70
     1
102
RTVSPropertyOp10
 70
     1
102
RTVSPropertyOp11
 70
     1
102
RTVSPropertyOp12
 70
     1
102
RTVSPropertyOp13
 70
     1
102
RTVSPropertyOp14
 70
     1
102
RTVSPropertyOp15
 70
     1
102
RTVSPropertyOp16
 70
     1
102
RTVSPropertyOp17
 70
     1
102
RTVSPropertyOp18
 70
     1
102
RTVSPropertyOp19
 70
     1
102
RTVSPropertyOp20
 70
     1
102
RTVSPropertyOp21
 70
     1
102
RTVSPropertyOp22
 70
     1
102
RTVSPropertyOp23
 70
     1
102
RTVSPropertyOp24
 70
     1
102
RTVSPropertyOp25
 70
     1
102
RTVSPropertyOp26
 70
     1
102
RTVSPropertyOp27
 70
     1
102
RTVSPropertyOp28
 70
     1
102
RTVSPropertyOp29
 70
     1
102
RTVSPropertyOp30
 70
     1
102
RTVSPropertyOp31
 70
     1
102
RTVSPropertyOp32
 70
     1
  0
XRECORD
  5
F6
102
{ACAD_REACTORS
330
F5
102
}
330
F5
100
AcDbXrecord
280
     1
102
RTVSPropertyOp0
 70
     1
102
RTVSPropertyOp1
 70
     1
102
RTVSPropertyOp2
 70
     1
102
RTVSPropertyOp3
 70
     1
102
RTVSPropertyOp4
 70
     1
102
RTVSPropertyOp5
 70
     1
102
RTVSPropertyOp6
 70
     1
102
RTVSPropertyOp7
 70
     1
102
RTVSPropertyOp8
 70
     1
102
RTVSPropertyOp9
 70
     1
102
RTVSPropertyOp10
 70
     1
102
RTVSPropertyOp11
 70
     1
102
RTVSPropertyOp12
 70
     1
102
RTVSPropertyOp13
 70
     1
102
RTVSPropertyOp14
 70
     1
102
RTVSPropertyOp15
 70
     1
102
RTVSPropertyOp16
 70
     1
102
RTVSPropertyOp17
 70
     1
102
RTVSPropertyOp18
 70
     1
102
RTVSPropertyOp19
 70
     1
102
RTVSPropertyOp20
 70
     1
102
RTVSPropertyOp21
 70
     1
102
RTVSPropertyOp22
 70
     1
102
RTVSPropertyOp23
 70
     1
102
RTVSPropertyOp24
 70
     1
102
RTVSPropertyOp25
 70
     1
102
RTVSPropertyOp26
 70
     1
102
RTVSPropertyOp27
 70
     1
102
RTVSPropertyOp28
 70
     1
102
RTVSPropertyOp29
 70
     1
102
RTVSPropertyOp30
 70
     1
102
RTVSPropertyOp31
 70
     1
102
RTVSPropertyOp32
 70
     1
  0
XRECORD
  5
F8
102
{ACAD_REACTORS
330
F7
102
}
330
F7
100
AcDbXrecord
280
     1
102
RTVSPropertyOp0
 70
     1
102
RTVSPropertyOp1
 70
     1
102
RTVSPropertyOp2
 70
     1
102
RTVSPropertyOp3
 70
     1
102
RTVSPropertyOp4
 70
     1
102
RTVSPropertyOp5
 70
     1
102
RTVSPropertyOp6
 70
     1
102
RTVSPropertyOp7
 70
     1
102
RTVSPropertyOp8
 70
     1
102
RTVSPropertyOp9
 70
     1
102
RTVSPropertyOp10
 70
     1
102
RTVSPropertyOp11
 70
     1
102
RTVSPropertyOp12
 70
     1
102
RTVSPropertyOp13
 70
     1
102
RTVSPropertyOp14
 70
     1
102
RTVSPropertyOp15
 70
     1
102
RTVSPropertyOp16
 70
     1
102
RTVSPropertyOp17
 70
     1
102
RTVSPropertyOp18
 70
     1
102
RTVSPropertyOp19
 70
     1
102
RTVSPropertyOp20
 70
     1
102
RTVSPropertyOp21
 70
     1
102
RTVSPropertyOp22
 70
     1
102
RTVSPropertyOp23
 70
     1
102
RTVSPropertyOp24
 70
     1
102
RTVSPropertyOp25
 70
     1
102
RTVSPropertyOp26
 70
     1
102
RTVSPropertyOp27
 70
     1
102
RTVSPropertyOp28
 70
     1
102
RTVSPropertyOp29
 70
     1
102
RTVSPropertyOp30
 70
     1
102
RTVSPropertyOp31
 70
     1
102
RTVSPropertyOp32
 70
     1
  0
XRECORD
  5
FA
102
{ACAD_REACTORS
330
F9
102
}
330
F9
100
AcDbXrecord
280
     1
102
RTVSPropertyOp0
 70
     1
102
RTVSPropertyOp1
 70
     1
102
RTVSPropertyOp2
 70
     1
102
RTVSPropertyOp3
 70
     1
102
RTVSPropertyOp4
 70
     1
102
RTVSPropertyOp5
 70
     1
102
RTVSPropertyOp6
 70
     1
102
RTVSPropertyOp7
 70
     1
102
RTVSPropertyOp8
 70
     1
102
RTVSPropertyOp9
 70
     1
102
RTVSPropertyOp10
 70
     1
102
RTVSPropertyOp11
 70
     1
102
RTVSPropertyOp12
 70
     1
102
RTVSPropertyOp13
 70
     1
102
RTVSPropertyOp14
 70
     1
102
RTVSPropertyOp15
 70
     1
102
RTVSPropertyOp16
 70
     1
102
RTVSPropertyOp17
 70
     1
102
RTVSPropertyOp18
 70
     1
102
RTVSPropertyOp19
 70
     1
102
RTVSPropertyOp20
 70
     1
102
RTVSPropertyOp21
 70
     1
102
RTVSPropertyOp22
 70
     1
102
RTVSPropertyOp23
 70
     1
102
RTVSPropertyOp24
 70
     1
102
RTVSPropertyOp25
 70
     1
102
RTVSPropertyOp26
 70
     1
102
RTVSPropertyOp27
 70
     1
102
RTVSPropertyOp28
 70
     1
102
RTVSPropertyOp29
 70
     1
102
RTVSPropertyOp30
 70
     1
102
RTVSPropertyOp31
 70
     1
102
RTVSPropertyOp32
 70
     1
  0
XRECORD
  5
FC
102
{ACAD_REACTORS
330
FB
102
}
330
FB
100
AcDbXrecord
280
     1
102
RTVSPropertyOp0
 70
     1
102
RTVSPropertyOp1
 70
     1
102
RTVSPropertyOp2
 70
     1
102
RTVSPropertyOp3
 70
     1
102
RTVSPropertyOp4
 70
     1
102
RTVSPropertyOp5
 70
     1
102
RTVSPropertyOp6
 70
     1
102
RTVSPropertyOp7
 70
     1
102
RTVSPropertyOp8
 70
     1
102
RTVSPropertyOp9
 70
     1
102
RTVSPropertyOp10
 70
     1
102
RTVSPropertyOp11
 70
     1
102
RTVSPropertyOp12
 70
     1
102
RTVSPropertyOp13
 70
     1
102
RTVSPropertyOp14
 70
     1
102
RTVSPropertyOp15
 70
     1
102
RTVSPropertyOp16
 70
     1
102
RTVSPropertyOp17
 70
     1
102
RTVSPropertyOp18
 70
     1
102
RTVSPropertyOp19
 70
     1
102
RTVSPropertyOp20
 70
     1
102
RTVSPropertyOp21
 70
     1
102
RTVSPropertyOp22
 70
     1
102
RTVSPropertyOp23
 70
     1
102
RTVSPropertyOp24
 70
     1
102
RTVSPropertyOp25
 70
     1
102
RTVSPropertyOp26
 70
     1
102
RTVSPropertyOp27
 70
     1
102
RTVSPropertyOp28
 70
     1
102
RTVSPropertyOp29
 70
     1
102
RTVSPropertyOp30
 70
     1
102
RTVSPropertyOp31
 70
     1
102
RTVSPropertyOp32
 70
     1
  0
XRECORD
  5
104
102
{ACAD_REACTORS
330
103
102
}
330
103
100
AcDbXrecord
280
     1
102
RTVSPropertyOp0
 70
     1
102
RTVSPropertyOp1
 70
     1
102
RTVSPropertyOp2
 70
     1
102
RTVSPropertyOp3
 70
     1
102
RTVSPropertyOp4
 70
     1
102
RTVSPropertyOp5
 70
     1
102
RTVSPropertyOp6
 70
     1
102
RTVSPropertyOp7
 70
     1
102
RTVSPropertyOp8
 70
     1
102
RTVSPropertyOp9
 70
     1
102
RTVSPropertyOp10
 70
     1
102
RTVSPropertyOp11
 70
     1
102
RTVSPropertyOp12
 70
     1
102
RTVSPropertyOp13
 70
     1
102
RTVSPropertyOp14
 70
     1
102
RTVSPropertyOp15
 70
     1
102
RTVSPropertyOp16
 70
     1
102
RTVSPropertyOp17
 70
     1
102
RTVSPropertyOp18
 70
     1
102
RTVSPropertyOp19
 70
     1
102
RTVSPropertyOp20
 70
     1
102
RTVSPropertyOp21
 70
     1
102
RTVSPropertyOp22
 70
     1
102
RTVSPropertyOp23
 70
     1
102
RTVSPropertyOp24
 70
     1
102
RTVSPropertyOp25
 70
     1
102
RTVSPropertyOp26
 70
     1
102
RTVSPropertyOp27
 70
     1
102
RTVSPropertyOp28
 70
     1
102
RTVSPropertyOp29
 70
     1
102
RTVSPropertyOp30
 70
     1
102
RTVSPropertyOp31
 70
     1
102
RTVSPropertyOp32
 70
     1
  0
XRECORD
  5
120
102
{ACAD_REACTORS
330
11F
102
}
330
11F
100
AcDbXrecord
280
     1
102
RTVSPropertyOp0
 70
     0
102
RTVSPropertyOp1
 70
     0
102
RTVSPropertyOp2
 70
     0
102
RTVSPropertyOp3
 70
     0
102
RTVSPropertyOp4
 70
     0
102
RTVSPropertyOp5
 70
     0
102
RTVSPropertyOp6
 70
     0
102
RTVSPropertyOp7
 70
     0
102
RTVSPropertyOp8
 70
     0
102
RTVSPropertyOp9
 70
     0
102
RTVSPropertyOp10
 70
     0
102
RTVSPropertyOp11
 70
     0
102
RTVSPropertyOp12
 70
     0
102
RTVSPropertyOp13
 70
     0
102
RTVSPropertyOp14
 70
     2
102
RTVSPropertyOp15
 70
     0
102
RTVSPropertyOp16
 70
     0
102
RTVSPropertyOp17
 70
     0
102
RTVSPropertyOp18
 70
     0
102
RTVSPropertyOp19
 70
     0
102
RTVSPropertyOp20
 70
     0
102
RTVSPropertyOp21
 70
     0
102
RTVSPropertyOp22
 70
     0
102
RTVSPropertyOp23
 70
     0
102
RTVSPropertyOp24
 70
     0
102
RTVSPropertyOp25
 70
     0
102
RTVSPropertyOp26
 70
     0
102
RTVSPropertyOp27
 70
     0
102
RTVSPropertyOp28
 70
     0
102
RTVSPropertyOp29
 70
     0
102
RTVSPropertyOp30
 70
     0
102
RTVSPropertyOp31
 70
     0
102
RTVSPropertyOp32
 70
     0
  0
XRECORD
  5
110
102
{ACAD_REACTORS
330
10F
102
}
330
10F
100
AcDbXrecord
280
     1
102
RTVSPropertyOp0
 70
     1
102
RTVSPropertyOp1
 70
     1
102
RTVSPropertyOp2
 70
     1
102
RTVSPropertyOp3
 70
     1
102
RTVSPropertyOp4
 70
     1
102
RTVSPropertyOp5
 70
     1
102
RTVSPropertyOp6
 70
     1
102
RTVSPropertyOp7
 70
     1
102
RTVSPropertyOp8
 70
     1
102
RTVSPropertyOp9
 70
     1
102
RTVSPropertyOp10
 70
     1
102
RTVSPropertyOp11
 70
     1
102
RTVSPropertyOp12
 70
     1
102
RTVSPropertyOp13
 70
     1
102
RTVSPropertyOp14
 70
     1
102
RTVSPropertyOp15
 70
     1
102
RTVSPropertyOp16
 70
     1
102
RTVSPropertyOp17
 70
     1
102
RTVSPropertyOp18
 70
     1
102
RTVSPropertyOp19
 70
     1
102
RTVSPropertyOp20
 70
     1
102
RTVSPropertyOp21
 70
     1
102
RTVSPropertyOp22
 70
     1
102
RTVSPropertyOp23
 70
     1
102
RTVSPropertyOp24
 70
     1
102
RTVSPropertyOp25
 70
     1
102
RTVSPropertyOp26
 70
     1
102
RTVSPropertyOp27
 70
     1
102
RTVSPropertyOp28
 70
     1
102
RTVSPropertyOp29
 70
     1
102
RTVSPropertyOp30
 70
     1
102
RTVSPropertyOp31
 70
     1
102
RTVSPropertyOp32
 70
     1
  0
XRECORD
  5
122
102
{ACAD_REACTORS
330
121
102
}
330
121
100
AcDbXrecord
280
     1
102
RTVSPropertyOp0
 70
     0
102
RTVSPropertyOp1
 70
     0
102
RTVSPropertyOp2
 70
     0
102
RTVSPropertyOp3
 70
     0
102
RTVSPropertyOp4
 70
     0
102
RTVSPropertyOp5
 70
     0
102
RTVSPropertyOp6
 70
     0
102
RTVSPropertyOp7
 70
     0
102
RTVSPropertyOp8
 70
     0
102
RTVSPropertyOp9
 70
     0
102
RTVSPropertyOp10
 70
     0
102
RTVSPropertyOp11
 70
     0
102
RTVSPropertyOp12
 70
     0
102
RTVSPropertyOp13
 70
     0
102
RTVSPropertyOp14
 70
     2
102
RTVSPropertyOp15
 70
     0
102
RTVSPropertyOp16
 70
     0
102
RTVSPropertyOp17
 70
     0
102
RTVSPropertyOp18
 70
     0
102
RTVSPropertyOp19
 70
     0
102
RTVSPropertyOp20
 70
     0
102
RTVSPropertyOp21
 70
     0
102
RTVSPropertyOp22
 70
     0
102
RTVSPropertyOp23
 70
     0
102
RTVSPropertyOp24
 70
     0
102
RTVSPropertyOp25
 70
     0
102
RTVSPropertyOp26
 70
     0
102
RTVSPropertyOp27
 70
     0
102
RTVSPropertyOp28
 70
     0
102
RTVSPropertyOp29
 70
     0
102
RTVSPropertyOp30
 70
     0
102
RTVSPropertyOp31
 70
     0
102
RTVSPropertyOp32
 70
     0
  0
XRECORD
  5
108
102
{ACAD_REACTORS
330
107
102
}
330
107
100
AcDbXrecord
280
     1
102
RTVSPropertyOp0
 70
     1
102
RTVSPropertyOp1
 70
     1
102
RTVSPropertyOp2
 70
     1
102
RTVSPropertyOp3
 70
     1
102
RTVSPropertyOp4
 70
     1
102
RTVSPropertyOp5
 70
     1
102
RTVSPropertyOp6
 70
     1
102
RTVSPropertyOp7
 70
     1
102
RTVSPropertyOp8
 70
     1
102
RTVSPropertyOp9
 70
     1
102
RTVSPropertyOp10
 70
     1
102
RTVSPropertyOp11
 70
     1
102
RTVSPropertyOp12
 70
     1
102
RTVSPropertyOp13
 70
     1
102
RTVSPropertyOp14
 70
     1
102
RTVSPropertyOp15
 70
     1
102
RTVSPropertyOp16
 70
     1
102
RTVSPropertyOp17
 70
     1
102
RTVSPropertyOp18
 70
     1
102
RTVSPropertyOp19
 70
     1
102
RTVSPropertyOp20
 70
     1
102
RTVSPropertyOp21
 70
     1
102
RTVSPropertyOp22
 70
     1
102
RTVSPropertyOp23
 70
     1
102
RTVSPropertyOp24
 70
     1
102
RTVSPropertyOp25
 70
     1
102
RTVSPropertyOp26
 70
     1
102
RTVSPropertyOp27
 70
     1
102
RTVSPropertyOp28
 70
     1
102
RTVSPropertyOp29
 70
     1
102
RTVSPropertyOp30
 70
     1
102
RTVSPropertyOp31
 70
     1
102
RTVSPropertyOp32
 70
     1
  0
XRECORD
  5
11E
102
{ACAD_REACTORS
330
11D
102
}
330
11D
100
AcDbXrecord
280
     1
102
RTVSPropertyOp0
 70
     1
102
RTVSPropertyOp1
 70
     1
102
RTVSPropertyOp2
 70
     1
102
RTVSPropertyOp3
 70
     1
102
RTVSPropertyOp4
 70
     1
102
RTVSPropertyOp5
 70
     1
102
RTVSPropertyOp6
 70
     1
102
RTVSPropertyOp7
 70
     1
102
RTVSPropertyOp8
 70
     1
102
RTVSPropertyOp9
 70
     1
102
RTVSPropertyOp10
 70
     1
102
RTVSPropertyOp11
 70
     1
102
RTVSPropertyOp12
 70
     1
102
RTVSPropertyOp13
 70
     1
102
RTVSPropertyOp14
 70
     1
102
RTVSPropertyOp15
 70
     1
102
RTVSPropertyOp16
 70
     1
102
RTVSPropertyOp17
 70
     1
102
RTVSPropertyOp18
 70
     1
102
RTVSPropertyOp19
 70
     1
102
RTVSPropertyOp20
 70
     1
102
RTVSPropertyOp21
 70
     1
102
RTVSPropertyOp22
 70
     1
102
RTVSPropertyOp23
 70
     1
102
RTVSPropertyOp24
 70
     1
102
RTVSPropertyOp25
 70
     1
102
RTVSPropertyOp26
 70
     1
102
RTVSPropertyOp27
 70
     1
102
RTVSPropertyOp28
 70
     1
102
RTVSPropertyOp29
 70
     1
102
RTVSPropertyOp30
 70
     1
102
RTVSPropertyOp31
 70
     1
102
RTVSPropertyOp32
 70
     1
  0
XRECORD
  5
11C
102
{ACAD_REACTORS
330
11B
102
}
330
11B
100
AcDbXrecord
280
     1
102
RTVSPropertyOp0
 70
     1
102
RTVSPropertyOp1
 70
     1
102
RTVSPropertyOp2
 70
     1
102
RTVSPropertyOp3
 70
     1
102
RTVSPropertyOp4
 70
     1
102
RTVSPropertyOp5
 70
     1
102
RTVSPropertyOp6
 70
     1
102
RTVSPropertyOp7
 70
     1
102
RTVSPropertyOp8
 70
     1
102
RTVSPropertyOp9
 70
     1
102
RTVSPropertyOp10
 70
     1
102
RTVSPropertyOp11
 70
     1
102
RTVSPropertyOp12
 70
     1
102
RTVSPropertyOp13
 70
     1
102
RTVSPropertyOp14
 70
     1
102
RTVSPropertyOp15
 70
     1
102
RTVSPropertyOp16
 70
     1
102
RTVSPropertyOp17
 70
     1
102
RTVSPropertyOp18
 70
     1
102
RTVSPropertyOp19
 70
     1
102
RTVSPropertyOp20
 70
     1
102
RTVSPropertyOp21
 70
     1
102
RTVSPropertyOp22
 70
     1
102
RTVSPropertyOp23
 70
     1
102
RTVSPropertyOp24
 70
     1
102
RTVSPropertyOp25
 70
     1
102
RTVSPropertyOp26
 70
     1
102
RTVSPropertyOp27
 70
     1
102
RTVSPropertyOp28
 70
     1
102
RTVSPropertyOp29
 70
     1
102
RTVSPropertyOp30
 70
     1
102
RTVSPropertyOp31
 70
     1
102
RTVSPropertyOp32
 70
     1
  0
XRECORD
  5
116
102
{ACAD_REACTORS
330
115
102
}
330
115
100
AcDbXrecord
280
     1
102
RTVSPropertyOp0
 70
     1
102
RTVSPropertyOp1
 70
     1
102
RTVSPropertyOp2
 70
     1
102
RTVSPropertyOp3
 70
     1
102
RTVSPropertyOp4
 70
     1
102
RTVSPropertyOp5
 70
     1
102
RTVSPropertyOp6
 70
     1
102
RTVSPropertyOp7
 70
     1
102
RTVSPropertyOp8
 70
     1
102
RTVSPropertyOp9
 70
     1
102
RTVSPropertyOp10
 70
     1
102
RTVSPropertyOp11
 70
     1
102
RTVSPropertyOp12
 70
     1
102
RTVSPropertyOp13
 70
     1
102
RTVSPropertyOp14
 70
     1
102
RTVSPropertyOp15
 70
     1
102
RTVSPropertyOp16
 70
     1
102
RTVSPropertyOp17
 70
     1
102
RTVSPropertyOp18
 70
     1
102
RTVSPropertyOp19
 70
     1
102
RTVSPropertyOp20
 70
     1
102
RTVSPropertyOp21
 70
     1
102
RTVSPropertyOp22
 70
     1
102
RTVSPropertyOp23
 70
     1
102
RTVSPropertyOp24
 70
     1
102
RTVSPropertyOp25
 70
     1
102
RTVSPropertyOp26
 70
     1
102
RTVSPropertyOp27
 70
     1
102
RTVSPropertyOp28
 70
     1
102
RTVSPropertyOp29
 70
     1
102
RTVSPropertyOp30
 70
     1
102
RTVSPropertyOp31
 70
     1
102
RTVSPropertyOp32
 70
     1
  0
XRECORD
  5
118
102
{ACAD_REACTORS
330
117
102
}
330
117
100
AcDbXrecord
280
     1
102
RTVSPropertyOp0
 70
     1
102
RTVSPropertyOp1
 70
     1
102
RTVSPropertyOp2
 70
     1
102
RTVSPropertyOp3
 70
     1
102
RTVSPropertyOp4
 70
     1
102
RTVSPropertyOp5
 70
     1
102
RTVSPropertyOp6
 70
     1
102
RTVSPropertyOp7
 70
     1
102
RTVSPropertyOp8
 70
     1
102
RTVSPropertyOp9
 70
     1
102
RTVSPropertyOp10
 70
     1
102
RTVSPropertyOp11
 70
     1
102
RTVSPropertyOp12
 70
     1
102
RTVSPropertyOp13
 70
     1
102
RTVSPropertyOp14
 70
     1
102
RTVSPropertyOp15
 70
     1
102
RTVSPropertyOp16
 70
     1
102
RTVSPropertyOp17
 70
     1
102
RTVSPropertyOp18
 70
     1
102
RTVSPropertyOp19
 70
     1
102
RTVSPropertyOp20
 70
     1
102
RTVSPropertyOp21
 70
     1
102
RTVSPropertyOp22
 70
     1
102
RTVSPropertyOp23
 70
     1
102
RTVSPropertyOp24
 70
     1
102
RTVSPropertyOp25
 70
     1
102
RTVSPropertyOp26
 70
     1
102
RTVSPropertyOp27
 70
     1
102
RTVSPropertyOp28
 70
     1
102
RTVSPropertyOp29
 70
     1
102
RTVSPropertyOp30
 70
     1
102
RTVSPropertyOp31
 70
     1
102
RTVSPropertyOp32
 70
     1
  0
XRECORD
  5
10E
102
{ACAD_REACTORS
330
10D
102
}
330
10D
100
AcDbXrecord
280
     1
102
RTVSPropertyOp0
 70
     1
102
RTVSPropertyOp1
 70
     1
102
RTVSPropertyOp2
 70
     1
102
RTVSPropertyOp3
 70
     1
102
RTVSPropertyOp4
 70
     1
102
RTVSPropertyOp5
 70
     1
102
RTVSPropertyOp6
 70
     1
102
RTVSPropertyOp7
 70
     1
102
RTVSPropertyOp8
 70
     1
102
RTVSPropertyOp9
 70
     1
102
RTVSPropertyOp10
 70
     1
102
RTVSPropertyOp11
 70
     1
102
RTVSPropertyOp12
 70
     1
102
RTVSPropertyOp13
 70
     1
102
RTVSPropertyOp14
 70
     1
102
RTVSPropertyOp15
 70
     1
102
RTVSPropertyOp16
 70
     1
102
RTVSPropertyOp17
 70
     1
102
RTVSPropertyOp18
 70
     1
102
RTVSPropertyOp19
 70
     1
102
RTVSPropertyOp20
 70
     1
102
RTVSPropertyOp21
 70
     1
102
RTVSPropertyOp22
 70
     1
102
RTVSPropertyOp23
 70
     1
102
RTVSPropertyOp24
 70
     1
102
RTVSPropertyOp25
 70
     1
102
RTVSPropertyOp26
 70
     1
102
RTVSPropertyOp27
 70
     1
102
RTVSPropertyOp28
 70
     1
102
RTVSPropertyOp29
 70
     1
102
RTVSPropertyOp30
 70
     1
102
RTVSPropertyOp31
 70
     1
102
RTVSPropertyOp32
 70
     1
  0
XRECORD
  5
102
102
{ACAD_REACTORS
330
101
102
}
330
101
100
AcDbXrecord
280
     1
102
RTVSPropertyOp0
 70
     1
102
RTVSPropertyOp1
 70
     1
102
RTVSPropertyOp2
 70
     1
102
RTVSPropertyOp3
 70
     1
102
RTVSPropertyOp4
 70
     1
102
RTVSPropertyOp5
 70
     1
102
RTVSPropertyOp6
 70
     1
102
RTVSPropertyOp7
 70
     1
102
RTVSPropertyOp8
 70
     1
102
RTVSPropertyOp9
 70
     1
102
RTVSPropertyOp10
 70
     1
102
RTVSPropertyOp11
 70
     1
102
RTVSPropertyOp12
 70
     1
102
RTVSPropertyOp13
 70
     1
102
RTVSPropertyOp14
 70
     1
102
RTVSPropertyOp15
 70
     1
102
RTVSPropertyOp16
 70
     1
102
RTVSPropertyOp17
 70
     1
102
RTVSPropertyOp18
 70
     1
102
RTVSPropertyOp19
 70
     1
102
RTVSPropertyOp20
 70
     1
102
RTVSPropertyOp21
 70
     1
102
RTVSPropertyOp22
 70
     1
102
RTVSPropertyOp23
 70
     1
102
RTVSPropertyOp24
 70
     1
102
RTVSPropertyOp25
 70
     1
102
RTVSPropertyOp26
 70
     1
102
RTVSPropertyOp27
 70
     1
102
RTVSPropertyOp28
 70
     1
102
RTVSPropertyOp29
 70
     1
102
RTVSPropertyOp30
 70
     1
102
RTVSPropertyOp31
 70
     1
102
RTVSPropertyOp32
 70
     1
  0
XRECORD
  5
11A
102
{ACAD_REACTORS
330
119
102
}
330
119
100
AcDbXrecord
280
     1
102
RTVSPropertyOp0
 70
     1
102
RTVSPropertyOp1
 70
     1
102
RTVSPropertyOp2
 70
     1
102
RTVSPropertyOp3
 70
     1
102
RTVSPropertyOp4
 70
     1
102
RTVSPropertyOp5
 70
     1
102
RTVSPropertyOp6
 70
     1
102
RTVSPropertyOp7
 70
     1
102
RTVSPropertyOp8
 70
     1
102
RTVSPropertyOp9
 70
     1
102
RTVSPropertyOp10
 70
     1
102
RTVSPropertyOp11
 70
     1
102
RTVSPropertyOp12
 70
     1
102
RTVSPropertyOp13
 70
     1
102
RTVSPropertyOp14
 70
     1
102
RTVSPropertyOp15
 70
     1
102
RTVSPropertyOp16
 70
     1
102
RTVSPropertyOp17
 70
     1
102
RTVSPropertyOp18
 70
     1
102
RTVSPropertyOp19
 70
     1
102
RTVSPropertyOp20
 70
     1
102
RTVSPropertyOp21
 70
     1
102
RTVSPropertyOp22
 70
     1
102
RTVSPropertyOp23
 70
     1
102
RTVSPropertyOp24
 70
     1
102
RTVSPropertyOp25
 70
     1
102
RTVSPropertyOp26
 70
     1
102
RTVSPropertyOp27
 70
     1
102
RTVSPropertyOp28
 70
     1
102
RTVSPropertyOp29
 70
     1
102
RTVSPropertyOp30
 70
     1
102
RTVSPropertyOp31
 70
     1
102
RTVSPropertyOp32
 70
     1
  0
DMBASEELEMENT
  5
C8
102
{ACAD_XDICTIONARY
360
CC
102
}
102
{ACAD_REACTORS
330
C5
102
}
330
C5
100
AcMapDMBaseElement
 70
     1
  1
Base del mapa
 70
     1
330
C5
100
AcMapDMBaseElement
 70
     1
  1

 70
     2
  1

 70
     1
 40
1.797693134862314E+99
 70
     1
 70
     1
 70
     1
 70
     1
360
CB
100
AcMapDMBaseElement
 70
     1
  0
DMDEFAULTSTYLE
  5
C9
102
{ACAD_REACTORS
330
C5
102
}
330
C5
100
AcMapDMDefaultStyle
 70
     1
 90
        1
  1
Por defecto
100
AcMapDMDefaultStyle
 70
     1
280
   100
 90
     0
1001
AcMapDMDisplayStyleRegapp
1070
     2
1071
        1
1000
Por defecto
1000

  0
DICTIONARY
  5
CC
330
C8
100
AcDbDictionary
280
     1
281
     1
  3
AcMapDMSurrogateStyleSets
360
CD
  0
DMSTYLEREFERENCE
  5
CB
330
C8
100
AcMapDMStyleReference
 70
     1
 70
     0
340
C9
330
C5
  0
DMSURROGATESTYLESETS
  5
CD
102
{ACAD_REACTORS
330
CC
102
}
330
CC
100
AcMapDMSurrogateStyleSets
 70
     1
  1
Base del mapa
 70
     1
 40
1.797693134862314E+99
 70
     1
 70
     1
 70
     1
 70
     1
330
CB
 70
     0
  0
ENDSEC
  0
EOF
