999
2D lines of Carene Joe's FisherMouse 1
  0
SECTION
  2
ENTITIES
  0
POLYLINE
  8
1
 62
     7
 66
      1
  6
CONTINUOUS
 70
      8
  0
VERTEX
  8
1
 70
     32
 10
 0.0000 
 20
 0.0000 
 30
 0.0000 
  0
VERTEX
  8
1
 70
     32
 10
 0.0000 
 20
 0.0000 
 30
 0.0000 
  0
VERTEX
  8
1
 70
     32
 10
 0.0000 
 20
 0.0000 
 30
 0.0000 
  0
VERTEX
  8
1
 70
     32
 10
 3.0000 
 20
 0.0000 
 30
 0.0000 
  0
VERTEX
  8
1
 70
     32
 10
 6.0000 
 20
 0.0000 
 30
 0.0000 
  0
VERTEX
  8
1
 70
     32
 10
 9.0000 
 20
 0.0000 
 30
 0.0000 
  0
VERTEX
  8
1
 70
     32
 10
 12.0000 
 20
 0.0000 
 30
 0.0000 
  0
VERTEX
  8
1
 70
     32
 10
 15.0000 
 20
 0.0000 
 30
 0.0000 
  0
VERTEX
  8
1
 70
     32
 10
 18.0000 
 20
 0.0000 
 30
 0.0000 
  0
VERTEX
  8
1
 70
     32
 10
 21.0000 
 20
 0.0000 
 30
 0.0000 
  0
VERTEX
  8
1
 70
     32
 10
 24.0000 
 20
 0.0000 
 30
 0.0000 
  0
VERTEX
  8
1
 70
     32
 10
 27.0000 
 20
 0.0000 
 30
 0.0000 
  0
VERTEX
  8
1
 70
     32
 10
 30.0000 
 20
 0.0000 
 30
 0.0000 
  0
VERTEX
  8
1
 70
     32
 10
 33.0000 
 20
 0.0000 
 30
 0.0000 
  0
VERTEX
  8
1
 70
     32
 10
 36.0000 
 20
 0.0000 
 30
 0.0000 
  0
VERTEX
  8
1
 70
     32
 10
 39.0000 
 20
 0.0000 
 30
 0.0000 
  0
VERTEX
  8
1
 70
     32
 10
 42.0000 
 20
 0.0000 
 30
 0.0000 
  0
VERTEX
  8
1
 70
     32
 10
 45.0000 
 20
 0.0000 
 30
 0.0000 
  0
VERTEX
  8
1
 70
     32
 10
 48.0000 
 20
 0.0000 
 30
 0.0000 
  0
VERTEX
  8
1
 70
     32
 10
 51.0000 
 20
 0.0000 
 30
 0.0000 
  0
VERTEX
  8
1
 70
     32
 10
 54.0000 
 20
 0.0000 
 30
 0.0000 
  0
VERTEX
  8
1
 70
     32
 10
 57.0000 
 20
 0.0000 
 30
 0.0000 
  0
VERTEX
  8
1
 70
     32
 10
 60.0000 
 20
 0.0000 
 30
 0.0000 
  0
VERTEX
  8
1
 70
     32
 10
 63.0000 
 20
 0.0000 
 30
 0.0000 
  0
VERTEX
  8
1
 70
     32
 10
 66.0000 
 20
 0.0000 
 30
 0.0000 
  0
VERTEX
  8
1
 70
     32
 10
 69.0000 
 20
 0.0000 
 30
 0.0000 
  0
VERTEX
  8
1
 70
     32
 10
 72.0000 
 20
 0.0000 
 30
 0.0000 
  0
VERTEX
  8
1
 70
     32
 10
 75.0000 
 20
 0.0000 
 30
 0.0000 
  0
VERTEX
  8
1
 70
     32
 10
 78.0000 
 20
 0.0000 
 30
 0.0000 
  0
VERTEX
  8
1
 70
     32
 10
 81.0000 
 20
 0.0000 
 30
 0.0000 
  0
VERTEX
  8
1
 70
     32
 10
 84.0000 
 20
 0.0000 
 30
 0.0000 
  0
VERTEX
  8
1
 70
     32
 10
 87.0000 
 20
 0.0000 
 30
 0.0000 
  0
VERTEX
  8
1
 70
     32
 10
 90.0000 
 20
 0.0000 
 30
 0.0000 
  0
VERTEX
  8
1
 70
     32
 10
 93.0000 
 20
 0.0000 
 30
 0.0000 
  0
VERTEX
  8
1
 70
     32
 10
 96.0000 
 20
 0.0000 
 30
 0.0000 
  0
VERTEX
  8
1
 70
     32
 10
 99.0000 
 20
 0.0000 
 30
 0.0000 
  0
VERTEX
  8
1
 70
     32
 10
 102.0000 
 20
 0.0000 
 30
 0.0000 
  0
VERTEX
  8
1
 70
     32
 10
 105.0000 
 20
 0.0000 
 30
 0.0000 
  0
VERTEX
  8
1
 70
     32
 10
 108.0000 
 20
 0.0000 
 30
 0.0000 
  0
VERTEX
  8
1
 70
     32
 10
 111.0000 
 20
 0.0000 
 30
 0.0000 
  0
VERTEX
  8
1
 70
     32
 10
 114.0000 
 20
 0.0000 
 30
 0.0000 
  0
VERTEX
  8
1
 70
     32
 10
 117.0000 
 20
 0.0000 
 30
 0.0000 
  0
VERTEX
  8
1
 70
     32
 10
 120.0000 
 20
 0.0000 
 30
 0.0000 
  0
VERTEX
  8
1
 70
     32
 10
 123.0000 
 20
 0.0000 
 30
 0.0000 
  0
VERTEX
  8
1
 70
     32
 10
 126.0000 
 20
 0.0000 
 30
 0.0000 
  0
VERTEX
  8
1
 70
     32
 10
 129.0000 
 20
 0.0000 
 30
 0.0000 
  0
VERTEX
  8
1
 70
     32
 10
 132.0000 
 20
 0.0000 
 30
 0.0000 
  0
VERTEX
  8
1
 70
     32
 10
 135.0000 
 20
 0.0000 
 30
 0.0000 
  0
VERTEX
  8
1
 70
     32
 10
 138.0000 
 20
 0.0000 
 30
 0.0000 
  0
VERTEX
  8
1
 70
     32
 10
 141.0000 
 20
 0.0000 
 30
 0.0000 
  0
VERTEX
  8
1
 70
     32
 10
 144.0000 
 20
 0.0000 
 30
 0.0000 
  0
VERTEX
  8
1
 70
     32
 10
 147.0000 
 20
 0.0000 
 30
 0.0000 
  0
VERTEX
  8
1
 70
     32
 10
 150.0000 
 20
 0.0000 
 30
 0.0000 
  0
VERTEX
  8
1
 70
     32
 10
 153.0000 
 20
 0.0000 
 30
 0.0000 
  0
VERTEX
  8
1
 70
     32
 10
 156.0000 
 20
 0.0000 
 30
 0.0000 
  0
VERTEX
  8
1
 70
     32
 10
 159.0000 
 20
 0.0000 
 30
 0.0000 
  0
VERTEX
  8
1
 70
     32
 10
 162.0000 
 20
 0.0000 
 30
 0.0000 
  0
VERTEX
  8
1
 70
     32
 10
 165.0000 
 20
 0.0000 
 30
 0.0000 
  0
VERTEX
  8
1
 70
     32
 10
 168.0000 
 20
 0.0000 
 30
 0.0000 
  0
VERTEX
  8
1
 70
     32
 10
 171.0000 
 20
 0.0000 
 30
 0.0000 
  0
VERTEX
  8
1
 70
     32
 10
 174.0000 
 20
 0.0000 
 30
 0.0000 
  0
VERTEX
  8
1
 70
     32
 10
 177.0000 
 20
 0.0000 
 30
 0.0000 
  0
VERTEX
  8
1
 70
     32
 10
 180.0000 
 20
 0.0000 
 30
 0.0000 
  0
VERTEX
  8
1
 70
     32
 10
 183.0000 
 20
 0.0000 
 30
 0.0000 
  0
VERTEX
  8
1
 70
     32
 10
 186.0000 
 20
 0.0000 
 30
 0.0000 
  0
VERTEX
  8
1
 70
     32
 10
 189.0000 
 20
 0.0000 
 30
 0.0000 
  0
VERTEX
  8
1
 70
     32
 10
 192.0000 
 20
 0.0000 
 30
 0.0000 
  0
VERTEX
  8
1
 70
     32
 10
 195.0000 
 20
 0.0000 
 30
 0.0000 
  0
VERTEX
  8
1
 70
     32
 10
 198.0000 
 20
 0.0000 
 30
 0.0000 
  0
VERTEX
  8
1
 70
     32
 10
 201.0000 
 20
 0.0000 
 30
 0.0000 
  0
VERTEX
  8
1
 70
     32
 10
 204.0000 
 20
 0.0000 
 30
 0.0000 
  0
VERTEX
  8
1
 70
     32
 10
 207.0000 
 20
 0.0000 
 30
 0.0000 
  0
VERTEX
  8
1
 70
     32
 10
 210.0000 
 20
 0.0000 
 30
 0.0000 
  0
VERTEX
  8
1
 70
     32
 10
 213.0000 
 20
 0.0000 
 30
 0.0000 
  0
VERTEX
  8
1
 70
     32
 10
 216.0000 
 20
 0.0000 
 30
 0.0000 
  0
VERTEX
  8
1
 70
     32
 10
 219.0000 
 20
 0.0000 
 30
 0.0000 
  0
VERTEX
  8
1
 70
     32
 10
 222.0000 
 20
 0.0000 
 30
 0.0000 
  0
VERTEX
  8
1
 70
     32
 10
 225.0000 
 20
 0.0000 
 30
 0.0000 
  0
VERTEX
  8
1
 70
     32
 10
 228.0000 
 20
 0.0000 
 30
 0.0000 
  0
VERTEX
  8
1
 70
     32
 10
 231.0000 
 20
 0.0000 
 30
 0.0000 
  0
VERTEX
  8
1
 70
     32
 10
 234.0000 
 20
 0.0000 
 30
 0.0000 
  0
VERTEX
  8
1
 70
     32
 10
 237.0000 
 20
 0.0000 
 30
 0.0000 
  0
VERTEX
  8
1
 70
     32
 10
 240.0000 
 20
 0.0000 
 30
 0.0000 
  0
VERTEX
  8
1
 70
     32
 10
 240.0000 
 20
 0.0000 
 30
 0.0000 
  0
VERTEX
  8
1
 70
     32
 10
 240.0000 
 20
 0.0000 
 30
 0.0000 
  0
VERTEX
  8
1
 70
     32
 10
 240.0000 
 20
 0.0000 
 30
 0.0000 
  0
VERTEX
  8
1
 70
     32
 10
 237.0000 
 20
 0.0000 
 30
 0.0000 
  0
VERTEX
  8
1
 70
     32
 10
 234.0000 
 20
 0.0000 
 30
 0.0000 
  0
VERTEX
  8
1
 70
     32
 10
 231.0000 
 20
 0.0000 
 30
 0.0000 
  0
VERTEX
  8
1
 70
     32
 10
 228.0000 
 20
 0.0000 
 30
 0.0000 
  0
VERTEX
  8
1
 70
     32
 10
 225.0000 
 20
 0.0000 
 30
 0.0000 
  0
VERTEX
  8
1
 70
     32
 10
 222.0000 
 20
 0.0000 
 30
 0.0000 
  0
VERTEX
  8
1
 70
     32
 10
 219.0000 
 20
 0.0000 
 30
 0.0000 
  0
VERTEX
  8
1
 70
     32
 10
 216.0000 
 20
 0.0000 
 30
 0.0000 
  0
VERTEX
  8
1
 70
     32
 10
 213.0000 
 20
 0.0000 
 30
 0.0000 
  0
VERTEX
  8
1
 70
     32
 10
 210.0000 
 20
 0.0000 
 30
 0.0000 
  0
VERTEX
  8
1
 70
     32
 10
 207.0000 
 20
 0.0000 
 30
 0.0000 
  0
VERTEX
  8
1
 70
     32
 10
 204.0000 
 20
 0.0000 
 30
 0.0000 
  0
VERTEX
  8
1
 70
     32
 10
 201.0000 
 20
 0.0000 
 30
 0.0000 
  0
VERTEX
  8
1
 70
     32
 10
 198.0000 
 20
 0.0000 
 30
 0.0000 
  0
VERTEX
  8
1
 70
     32
 10
 195.0000 
 20
 0.0000 
 30
 0.0000 
  0
VERTEX
  8
1
 70
     32
 10
 192.0000 
 20
 0.0000 
 30
 0.0000 
  0
VERTEX
  8
1
 70
     32
 10
 189.0000 
 20
 0.0000 
 30
 0.0000 
  0
VERTEX
  8
1
 70
     32
 10
 186.0000 
 20
 0.0000 
 30
 0.0000 
  0
VERTEX
  8
1
 70
     32
 10
 183.0000 
 20
 0.0000 
 30
 0.0000 
  0
VERTEX
  8
1
 70
     32
 10
 180.0000 
 20
 0.0000 
 30
 0.0000 
  0
VERTEX
  8
1
 70
     32
 10
 177.0000 
 20
 0.0000 
 30
 0.0000 
  0
VERTEX
  8
1
 70
     32
 10
 174.0000 
 20
 0.0000 
 30
 0.0000 
  0
VERTEX
  8
1
 70
     32
 10
 171.0000 
 20
 0.0000 
 30
 0.0000 
  0
VERTEX
  8
1
 70
     32
 10
 168.0000 
 20
 0.0000 
 30
 0.0000 
  0
VERTEX
  8
1
 70
     32
 10
 165.0000 
 20
 0.0000 
 30
 0.0000 
  0
VERTEX
  8
1
 70
     32
 10
 162.0000 
 20
 0.0000 
 30
 0.0000 
  0
VERTEX
  8
1
 70
     32
 10
 159.0000 
 20
 0.0000 
 30
 0.0000 
  0
VERTEX
  8
1
 70
     32
 10
 156.0000 
 20
 0.0000 
 30
 0.0000 
  0
VERTEX
  8
1
 70
     32
 10
 153.0000 
 20
 0.0000 
 30
 0.0000 
  0
VERTEX
  8
1
 70
     32
 10
 150.0000 
 20
 0.0000 
 30
 0.0000 
  0
VERTEX
  8
1
 70
     32
 10
 147.0000 
 20
 0.0000 
 30
 0.0000 
  0
VERTEX
  8
1
 70
     32
 10
 144.0000 
 20
 0.0000 
 30
 0.0000 
  0
VERTEX
  8
1
 70
     32
 10
 141.0000 
 20
 0.0000 
 30
 0.0000 
  0
VERTEX
  8
1
 70
     32
 10
 138.0000 
 20
 0.0000 
 30
 0.0000 
  0
VERTEX
  8
1
 70
     32
 10
 135.0000 
 20
 0.0000 
 30
 0.0000 
  0
VERTEX
  8
1
 70
     32
 10
 132.0000 
 20
 0.0000 
 30
 0.0000 
  0
VERTEX
  8
1
 70
     32
 10
 129.0000 
 20
 0.0000 
 30
 0.0000 
  0
VERTEX
  8
1
 70
     32
 10
 126.0000 
 20
 0.0000 
 30
 0.0000 
  0
VERTEX
  8
1
 70
     32
 10
 123.0000 
 20
 0.0000 
 30
 0.0000 
  0
VERTEX
  8
1
 70
     32
 10
 120.0000 
 20
 0.0000 
 30
 0.0000 
  0
VERTEX
  8
1
 70
     32
 10
 117.0000 
 20
 0.0000 
 30
 0.0000 
  0
VERTEX
  8
1
 70
     32
 10
 114.0000 
 20
 0.0000 
 30
 0.0000 
  0
VERTEX
  8
1
 70
     32
 10
 111.0000 
 20
 0.0000 
 30
 0.0000 
  0
VERTEX
  8
1
 70
     32
 10
 108.0000 
 20
 0.0000 
 30
 0.0000 
  0
VERTEX
  8
1
 70
     32
 10
 105.0000 
 20
 0.0000 
 30
 0.0000 
  0
VERTEX
  8
1
 70
     32
 10
 102.0000 
 20
 0.0000 
 30
 0.0000 
  0
VERTEX
  8
1
 70
     32
 10
 99.0000 
 20
 0.0000 
 30
 0.0000 
  0
VERTEX
  8
1
 70
     32
 10
 96.0000 
 20
 0.0000 
 30
 0.0000 
  0
VERTEX
  8
1
 70
     32
 10
 93.0000 
 20
 0.0000 
 30
 0.0000 
  0
VERTEX
  8
1
 70
     32
 10
 90.0000 
 20
 0.0000 
 30
 0.0000 
  0
VERTEX
  8
1
 70
     32
 10
 87.0000 
 20
 0.0000 
 30
 0.0000 
  0
VERTEX
  8
1
 70
     32
 10
 84.0000 
 20
 0.0000 
 30
 0.0000 
  0
VERTEX
  8
1
 70
     32
 10
 81.0000 
 20
 0.0000 
 30
 0.0000 
  0
VERTEX
  8
1
 70
     32
 10
 78.0000 
 20
 0.0000 
 30
 0.0000 
  0
VERTEX
  8
1
 70
     32
 10
 75.0000 
 20
 0.0000 
 30
 0.0000 
  0
VERTEX
  8
1
 70
     32
 10
 72.0000 
 20
 0.0000 
 30
 0.0000 
  0
VERTEX
  8
1
 70
     32
 10
 69.0000 
 20
 0.0000 
 30
 0.0000 
  0
VERTEX
  8
1
 70
     32
 10
 66.0000 
 20
 0.0000 
 30
 0.0000 
  0
VERTEX
  8
1
 70
     32
 10
 63.0000 
 20
 0.0000 
 30
 0.0000 
  0
VERTEX
  8
1
 70
     32
 10
 60.0000 
 20
 0.0000 
 30
 0.0000 
  0
VERTEX
  8
1
 70
     32
 10
 57.0000 
 20
 0.0000 
 30
 0.0000 
  0
VERTEX
  8
1
 70
     32
 10
 54.0000 
 20
 0.0000 
 30
 0.0000 
  0
VERTEX
  8
1
 70
     32
 10
 51.0000 
 20
 0.0000 
 30
 0.0000 
  0
VERTEX
  8
1
 70
     32
 10
 48.0000 
 20
 0.0000 
 30
 0.0000 
  0
VERTEX
  8
1
 70
     32
 10
 45.0000 
 20
 0.0000 
 30
 0.0000 
  0
VERTEX
  8
1
 70
     32
 10
 42.0000 
 20
 0.0000 
 30
 0.0000 
  0
VERTEX
  8
1
 70
     32
 10
 39.0000 
 20
 0.0000 
 30
 0.0000 
  0
VERTEX
  8
1
 70
     32
 10
 36.0000 
 20
 0.0000 
 30
 0.0000 
  0
VERTEX
  8
1
 70
     32
 10
 33.0000 
 20
 0.0000 
 30
 0.0000 
  0
VERTEX
  8
1
 70
     32
 10
 30.0000 
 20
 0.0000 
 30
 0.0000 
  0
VERTEX
  8
1
 70
     32
 10
 27.0000 
 20
 0.0000 
 30
 0.0000 
  0
VERTEX
  8
1
 70
     32
 10
 24.0000 
 20
 0.0000 
 30
 0.0000 
  0
VERTEX
  8
1
 70
     32
 10
 21.0000 
 20
 0.0000 
 30
 0.0000 
  0
VERTEX
  8
1
 70
     32
 10
 18.0000 
 20
 0.0000 
 30
 0.0000 
  0
VERTEX
  8
1
 70
     32
 10
 15.0000 
 20
 0.0000 
 30
 0.0000 
  0
VERTEX
  8
1
 70
     32
 10
 12.0000 
 20
 0.0000 
 30
 0.0000 
  0
VERTEX
  8
1
 70
     32
 10
 9.0000 
 20
 0.0000 
 30
 0.0000 
  0
VERTEX
  8
1
 70
     32
 10
 6.0000 
 20
 0.0000 
 30
 0.0000 
  0
VERTEX
  8
1
 70
     32
 10
 3.0000 
 20
 0.0000 
 30
 0.0000 
  0
VERTEX
  8
1
 70
     32
 10
 0.0000 
 20
 0.0000 
 30
 0.0000 
  0
VERTEX
  8
1
 70
     32
 10
 0.0000 
 20
 0.0000 
 30
 0.0000 
  0
VERTEX
  8
1
 70
     32
 10
 0.0000 
 20
 0.0000 
 30
 0.0000 
 0 
SEQEND
  0
POLYLINE
  8
1
 62
     7
 66
      1
  6
CONTINUOUS
 70
      8
  0
VERTEX
  8
1
 70
     32
 10
 0.0000 
 20
 0.0000 
 30
 0.0000 
  0
VERTEX
  8
1
 70
     32
 10
 0.0000 
 20
-36.0000 
 30
 0.0000 
  0
VERTEX
  8
1
 70
     32
 10
 0.0000 
 20
-36.0000 
 30
 0.0000 
  0
VERTEX
  8
1
 70
     32
 10
 3.0000 
 20
-36.5632 
 30
 0.0000 
  0
VERTEX
  8
1
 70
     32
 10
 6.0000 
 20
-37.1074 
 30
 0.0000 
  0
VERTEX
  8
1
 70
     32
 10
 9.0000 
 20
-37.6325 
 30
 0.0000 
  0
VERTEX
  8
1
 70
     32
 10
 12.0000 
 20
-38.1388 
 30
 0.0000 
  0
VERTEX
  8
1
 70
     32
 10
 15.0000 
 20
-38.6262 
 30
 0.0000 
  0
VERTEX
  8
1
 70
     32
 10
 18.0000 
 20
-39.0949 
 30
 0.0000 
  0
VERTEX
  8
1
 70
     32
 10
 21.0000 
 20
-39.5448 
 30
 0.0000 
  0
VERTEX
  8
1
 70
     32
 10
 24.0000 
 20
-39.9761 
 30
 0.0000 
  0
VERTEX
  8
1
 70
     32
 10
 27.0000 
 20
-40.3889 
 30
 0.0000 
  0
VERTEX
  8
1
 70
     32
 10
 30.0000 
 20
-40.7831 
 30
 0.0000 
  0
VERTEX
  8
1
 70
     32
 10
 33.0000 
 20
-41.1589 
 30
 0.0000 
  0
VERTEX
  8
1
 70
     32
 10
 36.0000 
 20
-41.5164 
 30
 0.0000 
  0
VERTEX
  8
1
 70
     32
 10
 39.0000 
 20
-41.8557 
 30
 0.0000 
  0
VERTEX
  8
1
 70
     32
 10
 42.0000 
 20
-42.1768 
 30
 0.0000 
  0
VERTEX
  8
1
 70
     32
 10
 45.0000 
 20
-42.4798 
 30
 0.0000 
  0
VERTEX
  8
1
 70
     32
 10
 48.0000 
 20
-42.7649 
 30
 0.0000 
  0
VERTEX
  8
1
 70
     32
 10
 51.0000 
 20
-43.0320 
 30
 0.0000 
  0
VERTEX
  8
1
 70
     32
 10
 54.0000 
 20
-43.2815 
 30
 0.0000 
  0
VERTEX
  8
1
 70
     32
 10
 57.0000 
 20
-43.5133 
 30
 0.0000 
  0
VERTEX
  8
1
 70
     32
 10
 60.0000 
 20
-43.7275 
 30
 0.0000 
  0
VERTEX
  8
1
 70
     32
 10
 63.0000 
 20
-43.9244 
 30
 0.0000 
  0
VERTEX
  8
1
 70
     32
 10
 66.0000 
 20
-44.1040 
 30
 0.0000 
  0
VERTEX
  8
1
 70
     32
 10
 69.0000 
 20
-44.2666 
 30
 0.0000 
  0
VERTEX
  8
1
 70
     32
 10
 72.0000 
 20
-44.4121 
 30
 0.0000 
  0
VERTEX
  8
1
 70
     32
 10
 75.0000 
 20
-44.5410 
 30
 0.0000 
  0
VERTEX
  8
1
 70
     32
 10
 78.0000 
 20
-44.6532 
 30
 0.0000 
  0
VERTEX
  8
1
 70
     32
 10
 81.0000 
 20
-44.7491 
 30
 0.0000 
  0
VERTEX
  8
1
 70
     32
 10
 84.0000 
 20
-44.8289 
 30
 0.0000 
  0
VERTEX
  8
1
 70
     32
 10
 87.0000 
 20
-44.8929 
 30
 0.0000 
  0
VERTEX
  8
1
 70
     32
 10
 90.0000 
 20
-44.9415 
 30
 0.0000 
  0
VERTEX
  8
1
 70
     32
 10
 93.0000 
 20
-44.9750 
 30
 0.0000 
  0
VERTEX
  8
1
 70
     32
 10
 96.0000 
 20
-44.9942 
 30
 0.0000 
  0
VERTEX
  8
1
 70
     32
 10
 99.0000 
 20
-45.0000 
 30
 0.0000 
  0
VERTEX
  8
1
 70
     32
 10
 102.0000 
 20
-44.9989 
 30
 0.0000 
  0
VERTEX
  8
1
 70
     32
 10
 105.0000 
 20
-44.9938 
 30
 0.0000 
  0
VERTEX
  8
1
 70
     32
 10
 108.0000 
 20
-44.9830 
 30
 0.0000 
  0
VERTEX
  8
1
 70
     32
 10
 111.0000 
 20
-44.9651 
 30
 0.0000 
  0
VERTEX
  8
1
 70
     32
 10
 114.0000 
 20
-44.9391 
 30
 0.0000 
  0
VERTEX
  8
1
 70
     32
 10
 117.0000 
 20
-44.9039 
 30
 0.0000 
  0
VERTEX
  8
1
 70
     32
 10
 120.0000 
 20
-44.8588 
 30
 0.0000 
  0
VERTEX
  8
1
 70
     32
 10
 123.0000 
 20
-44.8028 
 30
 0.0000 
  0
VERTEX
  8
1
 70
     32
 10
 126.0000 
 20
-44.7352 
 30
 0.0000 
  0
VERTEX
  8
1
 70
     32
 10
 129.0000 
 20
-44.6555 
 30
 0.0000 
  0
VERTEX
  8
1
 70
     32
 10
 132.0000 
 20
-44.5628 
 30
 0.0000 
  0
VERTEX
  8
1
 70
     32
 10
 135.0000 
 20
-44.4565 
 30
 0.0000 
  0
VERTEX
  8
1
 70
     32
 10
 138.0000 
 20
-44.3361 
 30
 0.0000 
  0
VERTEX
  8
1
 70
     32
 10
 141.0000 
 20
-44.2010 
 30
 0.0000 
  0
VERTEX
  8
1
 70
     32
 10
 144.0000 
 20
-44.0506 
 30
 0.0000 
  0
VERTEX
  8
1
 70
     32
 10
 147.0000 
 20
-43.8843 
 30
 0.0000 
  0
VERTEX
  8
1
 70
     32
 10
 150.0000 
 20
-43.7017 
 30
 0.0000 
  0
VERTEX
  8
1
 70
     32
 10
 153.0000 
 20
-43.5023 
 30
 0.0000 
  0
VERTEX
  8
1
 70
     32
 10
 156.0000 
 20
-43.2856 
 30
 0.0000 
  0
VERTEX
  8
1
 70
     32
 10
 159.0000 
 20
-43.0510 
 30
 0.0000 
  0
VERTEX
  8
1
 70
     32
 10
 162.0000 
 20
-42.7982 
 30
 0.0000 
  0
VERTEX
  8
1
 70
     32
 10
 165.0000 
 20
-42.5266 
 30
 0.0000 
  0
VERTEX
  8
1
 70
     32
 10
 168.0000 
 20
-42.2359 
 30
 0.0000 
  0
VERTEX
  8
1
 70
     32
 10
 171.0000 
 20
-41.9256 
 30
 0.0000 
  0
VERTEX
  8
1
 70
     32
 10
 174.0000 
 20
-41.5952 
 30
 0.0000 
  0
VERTEX
  8
1
 70
     32
 10
 177.0000 
 20
-41.2445 
 30
 0.0000 
  0
VERTEX
  8
1
 70
     32
 10
 180.0000 
 20
-40.8729 
 30
 0.0000 
  0
VERTEX
  8
1
 70
     32
 10
 183.0000 
 20
-40.4800 
 30
 0.0000 
  0
VERTEX
  8
1
 70
     32
 10
 186.0000 
 20
-40.0656 
 30
 0.0000 
  0
VERTEX
  8
1
 70
     32
 10
 189.0000 
 20
-39.6292 
 30
 0.0000 
  0
VERTEX
  8
1
 70
     32
 10
 192.0000 
 20
-39.1703 
 30
 0.0000 
  0
VERTEX
  8
1
 70
     32
 10
 195.0000 
 20
-38.6888 
 30
 0.0000 
  0
VERTEX
  8
1
 70
     32
 10
 198.0000 
 20
-38.1841 
 30
 0.0000 
  0
VERTEX
  8
1
 70
     32
 10
 201.0000 
 20
-37.6559 
 30
 0.0000 
  0
VERTEX
  8
1
 70
     32
 10
 204.0000 
 20
-37.1040 
 30
 0.0000 
  0
VERTEX
  8
1
 70
     32
 10
 207.0000 
 20
-36.5278 
 30
 0.0000 
  0
VERTEX
  8
1
 70
     32
 10
 210.0000 
 20
-35.9272 
 30
 0.0000 
  0
VERTEX
  8
1
 70
     32
 10
 213.0000 
 20
-35.3016 
 30
 0.0000 
  0
VERTEX
  8
1
 70
     32
 10
 216.0000 
 20
-34.6509 
 30
 0.0000 
  0
VERTEX
  8
1
 70
     32
 10
 219.0000 
 20
-33.9747 
 30
 0.0000 
  0
VERTEX
  8
1
 70
     32
 10
 222.0000 
 20
-33.2727 
 30
 0.0000 
  0
VERTEX
  8
1
 70
     32
 10
 225.0000 
 20
-32.5445 
 30
 0.0000 
  0
VERTEX
  8
1
 70
     32
 10
 228.0000 
 20
-31.7898 
 30
 0.0000 
  0
VERTEX
  8
1
 70
     32
 10
 231.0000 
 20
-31.0083 
 30
 0.0000 
  0
VERTEX
  8
1
 70
     32
 10
 234.0000 
 20
-30.1997 
 30
 0.0000 
  0
VERTEX
  8
1
 70
     32
 10
 237.0000 
 20
-29.3637 
 30
 0.0000 
  0
VERTEX
  8
1
 70
     32
 10
 240.0000 
 20
-28.5000 
 30
 0.0000 
  0
VERTEX
  8
1
 70
     32
 10
 240.0000 
 20
-28.5000 
 30
 0.0000 
  0
VERTEX
  8
1
 70
     32
 10
 240.0000 
 20
 28.5000 
 30
 0.0000 
  0
VERTEX
  8
1
 70
     32
 10
 240.0000 
 20
 28.5000 
 30
 0.0000 
  0
VERTEX
  8
1
 70
     32
 10
 237.0000 
 20
 29.3637 
 30
 0.0000 
  0
VERTEX
  8
1
 70
     32
 10
 234.0000 
 20
 30.1997 
 30
 0.0000 
  0
VERTEX
  8
1
 70
     32
 10
 231.0000 
 20
 31.0083 
 30
 0.0000 
  0
VERTEX
  8
1
 70
     32
 10
 228.0000 
 20
 31.7898 
 30
 0.0000 
  0
VERTEX
  8
1
 70
     32
 10
 225.0000 
 20
 32.5445 
 30
 0.0000 
  0
VERTEX
  8
1
 70
     32
 10
 222.0000 
 20
 33.2727 
 30
 0.0000 
  0
VERTEX
  8
1
 70
     32
 10
 219.0000 
 20
 33.9747 
 30
 0.0000 
  0
VERTEX
  8
1
 70
     32
 10
 216.0000 
 20
 34.6509 
 30
 0.0000 
  0
VERTEX
  8
1
 70
     32
 10
 213.0000 
 20
 35.3016 
 30
 0.0000 
  0
VERTEX
  8
1
 70
     32
 10
 210.0000 
 20
 35.9272 
 30
 0.0000 
  0
VERTEX
  8
1
 70
     32
 10
 207.0000 
 20
 36.5278 
 30
 0.0000 
  0
VERTEX
  8
1
 70
     32
 10
 204.0000 
 20
 37.1040 
 30
 0.0000 
  0
VERTEX
  8
1
 70
     32
 10
 201.0000 
 20
 37.6559 
 30
 0.0000 
  0
VERTEX
  8
1
 70
     32
 10
 198.0000 
 20
 38.1841 
 30
 0.0000 
  0
VERTEX
  8
1
 70
     32
 10
 195.0000 
 20
 38.6888 
 30
 0.0000 
  0
VERTEX
  8
1
 70
     32
 10
 192.0000 
 20
 39.1703 
 30
 0.0000 
  0
VERTEX
  8
1
 70
     32
 10
 189.0000 
 20
 39.6292 
 30
 0.0000 
  0
VERTEX
  8
1
 70
     32
 10
 186.0000 
 20
 40.0656 
 30
 0.0000 
  0
VERTEX
  8
1
 70
     32
 10
 183.0000 
 20
 40.4800 
 30
 0.0000 
  0
VERTEX
  8
1
 70
     32
 10
 180.0000 
 20
 40.8729 
 30
 0.0000 
  0
VERTEX
  8
1
 70
     32
 10
 177.0000 
 20
 41.2445 
 30
 0.0000 
  0
VERTEX
  8
1
 70
     32
 10
 174.0000 
 20
 41.5952 
 30
 0.0000 
  0
VERTEX
  8
1
 70
     32
 10
 171.0000 
 20
 41.9256 
 30
 0.0000 
  0
VERTEX
  8
1
 70
     32
 10
 168.0000 
 20
 42.2359 
 30
 0.0000 
  0
VERTEX
  8
1
 70
     32
 10
 165.0000 
 20
 42.5266 
 30
 0.0000 
  0
VERTEX
  8
1
 70
     32
 10
 162.0000 
 20
 42.7982 
 30
 0.0000 
  0
VERTEX
  8
1
 70
     32
 10
 159.0000 
 20
 43.0510 
 30
 0.0000 
  0
VERTEX
  8
1
 70
     32
 10
 156.0000 
 20
 43.2856 
 30
 0.0000 
  0
VERTEX
  8
1
 70
     32
 10
 153.0000 
 20
 43.5023 
 30
 0.0000 
  0
VERTEX
  8
1
 70
     32
 10
 150.0000 
 20
 43.7017 
 30
 0.0000 
  0
VERTEX
  8
1
 70
     32
 10
 147.0000 
 20
 43.8843 
 30
 0.0000 
  0
VERTEX
  8
1
 70
     32
 10
 144.0000 
 20
 44.0506 
 30
 0.0000 
  0
VERTEX
  8
1
 70
     32
 10
 141.0000 
 20
 44.2010 
 30
 0.0000 
  0
VERTEX
  8
1
 70
     32
 10
 138.0000 
 20
 44.3361 
 30
 0.0000 
  0
VERTEX
  8
1
 70
     32
 10
 135.0000 
 20
 44.4565 
 30
 0.0000 
  0
VERTEX
  8
1
 70
     32
 10
 132.0000 
 20
 44.5628 
 30
 0.0000 
  0
VERTEX
  8
1
 70
     32
 10
 129.0000 
 20
 44.6555 
 30
 0.0000 
  0
VERTEX
  8
1
 70
     32
 10
 126.0000 
 20
 44.7352 
 30
 0.0000 
  0
VERTEX
  8
1
 70
     32
 10
 123.0000 
 20
 44.8028 
 30
 0.0000 
  0
VERTEX
  8
1
 70
     32
 10
 120.0000 
 20
 44.8588 
 30
 0.0000 
  0
VERTEX
  8
1
 70
     32
 10
 117.0000 
 20
 44.9039 
 30
 0.0000 
  0
VERTEX
  8
1
 70
     32
 10
 114.0000 
 20
 44.9391 
 30
 0.0000 
  0
VERTEX
  8
1
 70
     32
 10
 111.0000 
 20
 44.9651 
 30
 0.0000 
  0
VERTEX
  8
1
 70
     32
 10
 108.0000 
 20
 44.9830 
 30
 0.0000 
  0
VERTEX
  8
1
 70
     32
 10
 105.0000 
 20
 44.9938 
 30
 0.0000 
  0
VERTEX
  8
1
 70
     32
 10
 102.0000 
 20
 44.9989 
 30
 0.0000 
  0
VERTEX
  8
1
 70
     32
 10
 99.0000 
 20
 45.0000 
 30
 0.0000 
  0
VERTEX
  8
1
 70
     32
 10
 96.0000 
 20
 44.9942 
 30
 0.0000 
  0
VERTEX
  8
1
 70
     32
 10
 93.0000 
 20
 44.9750 
 30
 0.0000 
  0
VERTEX
  8
1
 70
     32
 10
 90.0000 
 20
 44.9415 
 30
 0.0000 
  0
VERTEX
  8
1
 70
     32
 10
 87.0000 
 20
 44.8929 
 30
 0.0000 
  0
VERTEX
  8
1
 70
     32
 10
 84.0000 
 20
 44.8289 
 30
 0.0000 
  0
VERTEX
  8
1
 70
     32
 10
 81.0000 
 20
 44.7491 
 30
 0.0000 
  0
VERTEX
  8
1
 70
     32
 10
 78.0000 
 20
 44.6532 
 30
 0.0000 
  0
VERTEX
  8
1
 70
     32
 10
 75.0000 
 20
 44.5410 
 30
 0.0000 
  0
VERTEX
  8
1
 70
     32
 10
 72.0000 
 20
 44.4121 
 30
 0.0000 
  0
VERTEX
  8
1
 70
     32
 10
 69.0000 
 20
 44.2666 
 30
 0.0000 
  0
VERTEX
  8
1
 70
     32
 10
 66.0000 
 20
 44.1040 
 30
 0.0000 
  0
VERTEX
  8
1
 70
     32
 10
 63.0000 
 20
 43.9244 
 30
 0.0000 
  0
VERTEX
  8
1
 70
     32
 10
 60.0000 
 20
 43.7275 
 30
 0.0000 
  0
VERTEX
  8
1
 70
     32
 10
 57.0000 
 20
 43.5133 
 30
 0.0000 
  0
VERTEX
  8
1
 70
     32
 10
 54.0000 
 20
 43.2815 
 30
 0.0000 
  0
VERTEX
  8
1
 70
     32
 10
 51.0000 
 20
 43.0320 
 30
 0.0000 
  0
VERTEX
  8
1
 70
     32
 10
 48.0000 
 20
 42.7649 
 30
 0.0000 
  0
VERTEX
  8
1
 70
     32
 10
 45.0000 
 20
 42.4798 
 30
 0.0000 
  0
VERTEX
  8
1
 70
     32
 10
 42.0000 
 20
 42.1768 
 30
 0.0000 
  0
VERTEX
  8
1
 70
     32
 10
 39.0000 
 20
 41.8557 
 30
 0.0000 
  0
VERTEX
  8
1
 70
     32
 10
 36.0000 
 20
 41.5164 
 30
 0.0000 
  0
VERTEX
  8
1
 70
     32
 10
 33.0000 
 20
 41.1589 
 30
 0.0000 
  0
VERTEX
  8
1
 70
     32
 10
 30.0000 
 20
 40.7831 
 30
 0.0000 
  0
VERTEX
  8
1
 70
     32
 10
 27.0000 
 20
 40.3889 
 30
 0.0000 
  0
VERTEX
  8
1
 70
     32
 10
 24.0000 
 20
 39.9761 
 30
 0.0000 
  0
VERTEX
  8
1
 70
     32
 10
 21.0000 
 20
 39.5448 
 30
 0.0000 
  0
VERTEX
  8
1
 70
     32
 10
 18.0000 
 20
 39.0949 
 30
 0.0000 
  0
VERTEX
  8
1
 70
     32
 10
 15.0000 
 20
 38.6262 
 30
 0.0000 
  0
VERTEX
  8
1
 70
     32
 10
 12.0000 
 20
 38.1388 
 30
 0.0000 
  0
VERTEX
  8
1
 70
     32
 10
 9.0000 
 20
 37.6325 
 30
 0.0000 
  0
VERTEX
  8
1
 70
     32
 10
 6.0000 
 20
 37.1074 
 30
 0.0000 
  0
VERTEX
  8
1
 70
     32
 10
 3.0000 
 20
 36.5632 
 30
 0.0000 
  0
VERTEX
  8
1
 70
     32
 10
 0.0000 
 20
 36.0000 
 30
 0.0000 
  0
VERTEX
  8
1
 70
     32
 10
 0.0000 
 20
 36.0000 
 30
 0.0000 
  0
VERTEX
  8
1
 70
     32
 10
 0.0000 
 20
 0.0000 
 30
 0.0000 
 0 
SEQEND
  0
POLYLINE
  8
1
 62
     7
 66
      1
  6
CONTINUOUS
 70
      8
  0
VERTEX
  8
1
 70
     32
 10
 0.0000 
 20
 0.0000 
 30
 0.0000 
  0
VERTEX
  8
1
 70
     32
 10
 0.0000 
 20
-36.0000 
 30
 0.0000 
  0
VERTEX
  8
1
 70
     32
 10
 0.0000 
 20
-36.0000 
 30
 0.0000 
  0
VERTEX
  8
1
 70
     32
 10
 3.0000 
 20
-36.5632 
 30
 0.0000 
  0
VERTEX
  8
1
 70
     32
 10
 6.0000 
 20
-37.1074 
 30
 0.0000 
  0
VERTEX
  8
1
 70
     32
 10
 9.0000 
 20
-37.6325 
 30
 0.0000 
  0
VERTEX
  8
1
 70
     32
 10
 12.0000 
 20
-38.1388 
 30
 0.0000 
  0
VERTEX
  8
1
 70
     32
 10
 15.0000 
 20
-38.6262 
 30
 0.0000 
  0
VERTEX
  8
1
 70
     32
 10
 18.0000 
 20
-39.0949 
 30
 0.0000 
  0
VERTEX
  8
1
 70
     32
 10
 21.0000 
 20
-39.5448 
 30
 0.0000 
  0
VERTEX
  8
1
 70
     32
 10
 24.0000 
 20
-39.9761 
 30
 0.0000 
  0
VERTEX
  8
1
 70
     32
 10
 27.0000 
 20
-40.3889 
 30
 0.0000 
  0
VERTEX
  8
1
 70
     32
 10
 30.0000 
 20
-40.7831 
 30
 0.0000 
  0
VERTEX
  8
1
 70
     32
 10
 33.0000 
 20
-41.1589 
 30
 0.0000 
  0
VERTEX
  8
1
 70
     32
 10
 36.0000 
 20
-41.5164 
 30
 0.0000 
  0
VERTEX
  8
1
 70
     32
 10
 39.0000 
 20
-41.8557 
 30
 0.0000 
  0
VERTEX
  8
1
 70
     32
 10
 42.0000 
 20
-42.1768 
 30
 0.0000 
  0
VERTEX
  8
1
 70
     32
 10
 45.0000 
 20
-42.4798 
 30
 0.0000 
  0
VERTEX
  8
1
 70
     32
 10
 48.0000 
 20
-42.7649 
 30
 0.0000 
  0
VERTEX
  8
1
 70
     32
 10
 51.0000 
 20
-43.0320 
 30
 0.0000 
  0
VERTEX
  8
1
 70
     32
 10
 54.0000 
 20
-43.2815 
 30
 0.0000 
  0
VERTEX
  8
1
 70
     32
 10
 57.0000 
 20
-43.5133 
 30
 0.0000 
  0
VERTEX
  8
1
 70
     32
 10
 60.0000 
 20
-43.7275 
 30
 0.0000 
  0
VERTEX
  8
1
 70
     32
 10
 63.0000 
 20
-43.9244 
 30
 0.0000 
  0
VERTEX
  8
1
 70
     32
 10
 66.0000 
 20
-44.1040 
 30
 0.0000 
  0
VERTEX
  8
1
 70
     32
 10
 69.0000 
 20
-44.2666 
 30
 0.0000 
  0
VERTEX
  8
1
 70
     32
 10
 72.0000 
 20
-44.4121 
 30
 0.0000 
  0
VERTEX
  8
1
 70
     32
 10
 75.0000 
 20
-44.5410 
 30
 0.0000 
  0
VERTEX
  8
1
 70
     32
 10
 78.0000 
 20
-44.6532 
 30
 0.0000 
  0
VERTEX
  8
1
 70
     32
 10
 81.0000 
 20
-44.7491 
 30
 0.0000 
  0
VERTEX
  8
1
 70
     32
 10
 84.0000 
 20
-44.8289 
 30
 0.0000 
  0
VERTEX
  8
1
 70
     32
 10
 87.0000 
 20
-44.8929 
 30
 0.0000 
  0
VERTEX
  8
1
 70
     32
 10
 90.0000 
 20
-44.9415 
 30
 0.0000 
  0
VERTEX
  8
1
 70
     32
 10
 93.0000 
 20
-44.9750 
 30
 0.0000 
  0
VERTEX
  8
1
 70
     32
 10
 96.0000 
 20
-44.9942 
 30
 0.0000 
  0
VERTEX
  8
1
 70
     32
 10
 99.0000 
 20
-45.0000 
 30
 0.0000 
  0
VERTEX
  8
1
 70
     32
 10
 102.0000 
 20
-44.9989 
 30
 0.0000 
  0
VERTEX
  8
1
 70
     32
 10
 105.0000 
 20
-44.9938 
 30
 0.0000 
  0
VERTEX
  8
1
 70
     32
 10
 108.0000 
 20
-44.9830 
 30
 0.0000 
  0
VERTEX
  8
1
 70
     32
 10
 111.0000 
 20
-44.9651 
 30
 0.0000 
  0
VERTEX
  8
1
 70
     32
 10
 114.0000 
 20
-44.9391 
 30
 0.0000 
  0
VERTEX
  8
1
 70
     32
 10
 117.0000 
 20
-44.9039 
 30
 0.0000 
  0
VERTEX
  8
1
 70
     32
 10
 120.0000 
 20
-44.8588 
 30
 0.0000 
  0
VERTEX
  8
1
 70
     32
 10
 123.0000 
 20
-44.8028 
 30
 0.0000 
  0
VERTEX
  8
1
 70
     32
 10
 126.0000 
 20
-44.7352 
 30
 0.0000 
  0
VERTEX
  8
1
 70
     32
 10
 129.0000 
 20
-44.6555 
 30
 0.0000 
  0
VERTEX
  8
1
 70
     32
 10
 132.0000 
 20
-44.5628 
 30
 0.0000 
  0
VERTEX
  8
1
 70
     32
 10
 135.0000 
 20
-44.4565 
 30
 0.0000 
  0
VERTEX
  8
1
 70
     32
 10
 138.0000 
 20
-44.3361 
 30
 0.0000 
  0
VERTEX
  8
1
 70
     32
 10
 141.0000 
 20
-44.2010 
 30
 0.0000 
  0
VERTEX
  8
1
 70
     32
 10
 144.0000 
 20
-44.0506 
 30
 0.0000 
  0
VERTEX
  8
1
 70
     32
 10
 147.0000 
 20
-43.8843 
 30
 0.0000 
  0
VERTEX
  8
1
 70
     32
 10
 150.0000 
 20
-43.7017 
 30
 0.0000 
  0
VERTEX
  8
1
 70
     32
 10
 153.0000 
 20
-43.5023 
 30
 0.0000 
  0
VERTEX
  8
1
 70
     32
 10
 156.0000 
 20
-43.2856 
 30
 0.0000 
  0
VERTEX
  8
1
 70
     32
 10
 159.0000 
 20
-43.0510 
 30
 0.0000 
  0
VERTEX
  8
1
 70
     32
 10
 162.0000 
 20
-42.7982 
 30
 0.0000 
  0
VERTEX
  8
1
 70
     32
 10
 165.0000 
 20
-42.5266 
 30
 0.0000 
  0
VERTEX
  8
1
 70
     32
 10
 168.0000 
 20
-42.2359 
 30
 0.0000 
  0
VERTEX
  8
1
 70
     32
 10
 171.0000 
 20
-41.9256 
 30
 0.0000 
  0
VERTEX
  8
1
 70
     32
 10
 174.0000 
 20
-41.5952 
 30
 0.0000 
  0
VERTEX
  8
1
 70
     32
 10
 177.0000 
 20
-41.2445 
 30
 0.0000 
  0
VERTEX
  8
1
 70
     32
 10
 180.0000 
 20
-40.8729 
 30
 0.0000 
  0
VERTEX
  8
1
 70
     32
 10
 183.0000 
 20
-40.4800 
 30
 0.0000 
  0
VERTEX
  8
1
 70
     32
 10
 186.0000 
 20
-40.0656 
 30
 0.0000 
  0
VERTEX
  8
1
 70
     32
 10
 189.0000 
 20
-39.6292 
 30
 0.0000 
  0
VERTEX
  8
1
 70
     32
 10
 192.0000 
 20
-39.1703 
 30
 0.0000 
  0
VERTEX
  8
1
 70
     32
 10
 195.0000 
 20
-38.6888 
 30
 0.0000 
  0
VERTEX
  8
1
 70
     32
 10
 198.0000 
 20
-38.1841 
 30
 0.0000 
  0
VERTEX
  8
1
 70
     32
 10
 201.0000 
 20
-37.6559 
 30
 0.0000 
  0
VERTEX
  8
1
 70
     32
 10
 204.0000 
 20
-37.1040 
 30
 0.0000 
  0
VERTEX
  8
1
 70
     32
 10
 207.0000 
 20
-36.5278 
 30
 0.0000 
  0
VERTEX
  8
1
 70
     32
 10
 210.0000 
 20
-35.9272 
 30
 0.0000 
  0
VERTEX
  8
1
 70
     32
 10
 213.0000 
 20
-35.3016 
 30
 0.0000 
  0
VERTEX
  8
1
 70
     32
 10
 216.0000 
 20
-34.6509 
 30
 0.0000 
  0
VERTEX
  8
1
 70
     32
 10
 219.0000 
 20
-33.9747 
 30
 0.0000 
  0
VERTEX
  8
1
 70
     32
 10
 222.0000 
 20
-33.2727 
 30
 0.0000 
  0
VERTEX
  8
1
 70
     32
 10
 225.0000 
 20
-32.5445 
 30
 0.0000 
  0
VERTEX
  8
1
 70
     32
 10
 228.0000 
 20
-31.7898 
 30
 0.0000 
  0
VERTEX
  8
1
 70
     32
 10
 231.0000 
 20
-31.0083 
 30
 0.0000 
  0
VERTEX
  8
1
 70
     32
 10
 234.0000 
 20
-30.1997 
 30
 0.0000 
  0
VERTEX
  8
1
 70
     32
 10
 237.0000 
 20
-29.3637 
 30
 0.0000 
  0
VERTEX
  8
1
 70
     32
 10
 240.0000 
 20
-28.5000 
 30
 0.0000 
  0
VERTEX
  8
1
 70
     32
 10
 240.0000 
 20
-28.5000 
 30
 0.0000 
  0
VERTEX
  8
1
 70
     32
 10
 240.0000 
 20
 28.5000 
 30
 0.0000 
  0
VERTEX
  8
1
 70
     32
 10
 240.0000 
 20
 28.5000 
 30
 0.0000 
  0
VERTEX
  8
1
 70
     32
 10
 237.0000 
 20
 29.3637 
 30
 0.0000 
  0
VERTEX
  8
1
 70
     32
 10
 234.0000 
 20
 30.1997 
 30
 0.0000 
  0
VERTEX
  8
1
 70
     32
 10
 231.0000 
 20
 31.0083 
 30
 0.0000 
  0
VERTEX
  8
1
 70
     32
 10
 228.0000 
 20
 31.7898 
 30
 0.0000 
  0
VERTEX
  8
1
 70
     32
 10
 225.0000 
 20
 32.5445 
 30
 0.0000 
  0
VERTEX
  8
1
 70
     32
 10
 222.0000 
 20
 33.2727 
 30
 0.0000 
  0
VERTEX
  8
1
 70
     32
 10
 219.0000 
 20
 33.9747 
 30
 0.0000 
  0
VERTEX
  8
1
 70
     32
 10
 216.0000 
 20
 34.6509 
 30
 0.0000 
  0
VERTEX
  8
1
 70
     32
 10
 213.0000 
 20
 35.3016 
 30
 0.0000 
  0
VERTEX
  8
1
 70
     32
 10
 210.0000 
 20
 35.9272 
 30
 0.0000 
  0
VERTEX
  8
1
 70
     32
 10
 207.0000 
 20
 36.5278 
 30
 0.0000 
  0
VERTEX
  8
1
 70
     32
 10
 204.0000 
 20
 37.1040 
 30
 0.0000 
  0
VERTEX
  8
1
 70
     32
 10
 201.0000 
 20
 37.6559 
 30
 0.0000 
  0
VERTEX
  8
1
 70
     32
 10
 198.0000 
 20
 38.1841 
 30
 0.0000 
  0
VERTEX
  8
1
 70
     32
 10
 195.0000 
 20
 38.6888 
 30
 0.0000 
  0
VERTEX
  8
1
 70
     32
 10
 192.0000 
 20
 39.1703 
 30
 0.0000 
  0
VERTEX
  8
1
 70
     32
 10
 189.0000 
 20
 39.6292 
 30
 0.0000 
  0
VERTEX
  8
1
 70
     32
 10
 186.0000 
 20
 40.0656 
 30
 0.0000 
  0
VERTEX
  8
1
 70
     32
 10
 183.0000 
 20
 40.4800 
 30
 0.0000 
  0
VERTEX
  8
1
 70
     32
 10
 180.0000 
 20
 40.8729 
 30
 0.0000 
  0
VERTEX
  8
1
 70
     32
 10
 177.0000 
 20
 41.2445 
 30
 0.0000 
  0
VERTEX
  8
1
 70
     32
 10
 174.0000 
 20
 41.5952 
 30
 0.0000 
  0
VERTEX
  8
1
 70
     32
 10
 171.0000 
 20
 41.9256 
 30
 0.0000 
  0
VERTEX
  8
1
 70
     32
 10
 168.0000 
 20
 42.2359 
 30
 0.0000 
  0
VERTEX
  8
1
 70
     32
 10
 165.0000 
 20
 42.5266 
 30
 0.0000 
  0
VERTEX
  8
1
 70
     32
 10
 162.0000 
 20
 42.7982 
 30
 0.0000 
  0
VERTEX
  8
1
 70
     32
 10
 159.0000 
 20
 43.0510 
 30
 0.0000 
  0
VERTEX
  8
1
 70
     32
 10
 156.0000 
 20
 43.2856 
 30
 0.0000 
  0
VERTEX
  8
1
 70
     32
 10
 153.0000 
 20
 43.5023 
 30
 0.0000 
  0
VERTEX
  8
1
 70
     32
 10
 150.0000 
 20
 43.7017 
 30
 0.0000 
  0
VERTEX
  8
1
 70
     32
 10
 147.0000 
 20
 43.8843 
 30
 0.0000 
  0
VERTEX
  8
1
 70
     32
 10
 144.0000 
 20
 44.0506 
 30
 0.0000 
  0
VERTEX
  8
1
 70
     32
 10
 141.0000 
 20
 44.2010 
 30
 0.0000 
  0
VERTEX
  8
1
 70
     32
 10
 138.0000 
 20
 44.3361 
 30
 0.0000 
  0
VERTEX
  8
1
 70
     32
 10
 135.0000 
 20
 44.4565 
 30
 0.0000 
  0
VERTEX
  8
1
 70
     32
 10
 132.0000 
 20
 44.5628 
 30
 0.0000 
  0
VERTEX
  8
1
 70
     32
 10
 129.0000 
 20
 44.6555 
 30
 0.0000 
  0
VERTEX
  8
1
 70
     32
 10
 126.0000 
 20
 44.7352 
 30
 0.0000 
  0
VERTEX
  8
1
 70
     32
 10
 123.0000 
 20
 44.8028 
 30
 0.0000 
  0
VERTEX
  8
1
 70
     32
 10
 120.0000 
 20
 44.8588 
 30
 0.0000 
  0
VERTEX
  8
1
 70
     32
 10
 117.0000 
 20
 44.9039 
 30
 0.0000 
  0
VERTEX
  8
1
 70
     32
 10
 114.0000 
 20
 44.9391 
 30
 0.0000 
  0
VERTEX
  8
1
 70
     32
 10
 111.0000 
 20
 44.9651 
 30
 0.0000 
  0
VERTEX
  8
1
 70
     32
 10
 108.0000 
 20
 44.9830 
 30
 0.0000 
  0
VERTEX
  8
1
 70
     32
 10
 105.0000 
 20
 44.9938 
 30
 0.0000 
  0
VERTEX
  8
1
 70
     32
 10
 102.0000 
 20
 44.9989 
 30
 0.0000 
  0
VERTEX
  8
1
 70
     32
 10
 99.0000 
 20
 45.0000 
 30
 0.0000 
  0
VERTEX
  8
1
 70
     32
 10
 96.0000 
 20
 44.9942 
 30
 0.0000 
  0
VERTEX
  8
1
 70
     32
 10
 93.0000 
 20
 44.9750 
 30
 0.0000 
  0
VERTEX
  8
1
 70
     32
 10
 90.0000 
 20
 44.9415 
 30
 0.0000 
  0
VERTEX
  8
1
 70
     32
 10
 87.0000 
 20
 44.8929 
 30
 0.0000 
  0
VERTEX
  8
1
 70
     32
 10
 84.0000 
 20
 44.8289 
 30
 0.0000 
  0
VERTEX
  8
1
 70
     32
 10
 81.0000 
 20
 44.7491 
 30
 0.0000 
  0
VERTEX
  8
1
 70
     32
 10
 78.0000 
 20
 44.6532 
 30
 0.0000 
  0
VERTEX
  8
1
 70
     32
 10
 75.0000 
 20
 44.5410 
 30
 0.0000 
  0
VERTEX
  8
1
 70
     32
 10
 72.0000 
 20
 44.4121 
 30
 0.0000 
  0
VERTEX
  8
1
 70
     32
 10
 69.0000 
 20
 44.2666 
 30
 0.0000 
  0
VERTEX
  8
1
 70
     32
 10
 66.0000 
 20
 44.1040 
 30
 0.0000 
  0
VERTEX
  8
1
 70
     32
 10
 63.0000 
 20
 43.9244 
 30
 0.0000 
  0
VERTEX
  8
1
 70
     32
 10
 60.0000 
 20
 43.7275 
 30
 0.0000 
  0
VERTEX
  8
1
 70
     32
 10
 57.0000 
 20
 43.5133 
 30
 0.0000 
  0
VERTEX
  8
1
 70
     32
 10
 54.0000 
 20
 43.2815 
 30
 0.0000 
  0
VERTEX
  8
1
 70
     32
 10
 51.0000 
 20
 43.0320 
 30
 0.0000 
  0
VERTEX
  8
1
 70
     32
 10
 48.0000 
 20
 42.7649 
 30
 0.0000 
  0
VERTEX
  8
1
 70
     32
 10
 45.0000 
 20
 42.4798 
 30
 0.0000 
  0
VERTEX
  8
1
 70
     32
 10
 42.0000 
 20
 42.1768 
 30
 0.0000 
  0
VERTEX
  8
1
 70
     32
 10
 39.0000 
 20
 41.8557 
 30
 0.0000 
  0
VERTEX
  8
1
 70
     32
 10
 36.0000 
 20
 41.5164 
 30
 0.0000 
  0
VERTEX
  8
1
 70
     32
 10
 33.0000 
 20
 41.1589 
 30
 0.0000 
  0
VERTEX
  8
1
 70
     32
 10
 30.0000 
 20
 40.7831 
 30
 0.0000 
  0
VERTEX
  8
1
 70
     32
 10
 27.0000 
 20
 40.3889 
 30
 0.0000 
  0
VERTEX
  8
1
 70
     32
 10
 24.0000 
 20
 39.9761 
 30
 0.0000 
  0
VERTEX
  8
1
 70
     32
 10
 21.0000 
 20
 39.5448 
 30
 0.0000 
  0
VERTEX
  8
1
 70
     32
 10
 18.0000 
 20
 39.0949 
 30
 0.0000 
  0
VERTEX
  8
1
 70
     32
 10
 15.0000 
 20
 38.6262 
 30
 0.0000 
  0
VERTEX
  8
1
 70
     32
 10
 12.0000 
 20
 38.1388 
 30
 0.0000 
  0
VERTEX
  8
1
 70
     32
 10
 9.0000 
 20
 37.6325 
 30
 0.0000 
  0
VERTEX
  8
1
 70
     32
 10
 6.0000 
 20
 37.1074 
 30
 0.0000 
  0
VERTEX
  8
1
 70
     32
 10
 3.0000 
 20
 36.5632 
 30
 0.0000 
  0
VERTEX
  8
1
 70
     32
 10
 0.0000 
 20
 36.0000 
 30
 0.0000 
  0
VERTEX
  8
1
 70
     32
 10
 0.0000 
 20
 36.0000 
 30
 0.0000 
  0
VERTEX
  8
1
 70
     32
 10
 0.0000 
 20
 0.0000 
 30
 0.0000 
 0 
SEQEND
  0
POLYLINE
  8
1
 62
     7
 66
      1
  6
CONTINUOUS
 70
      8
  0
VERTEX
  8
1
 70
     32
 10
 0.0000 
 20
-36.0000 
 30
 0.0000 
  0
VERTEX
  8
1
 70
     32
 10
 0.0000 
 20
-36.0000 
 30
 0.0000 
  0
VERTEX
  8
1
 70
     32
 10
 0.0000 
 20
 0.0000 
 30
 0.0000 
  0
VERTEX
  8
1
 70
     32
 10
 0.0000 
 20
 0.0000 
 30
 0.0000 
  0
VERTEX
  8
1
 70
     32
 10
 0.0000 
 20
 36.0000 
 30
 0.0000 
  0
VERTEX
  8
1
 70
     32
 10
 0.0000 
 20
 36.0000 
 30
 0.0000 
 0 
SEQEND
  0
POLYLINE
  8
1
 62
     7
 66
      1
  6
CONTINUOUS
 70
      8
  0
VERTEX
  8
1
 70
     32
 10
 240.0000 
 20
-28.5000 
 30
 0.0000 
  0
VERTEX
  8
1
 70
     32
 10
 240.0000 
 20
-28.5000 
 30
 0.0000 
  0
VERTEX
  8
1
 70
     32
 10
 240.0000 
 20
 0.0000 
 30
 0.0000 
  0
VERTEX
  8
1
 70
     32
 10
 240.0000 
 20
 0.0000 
 30
 0.0000 
  0
VERTEX
  8
1
 70
     32
 10
 240.0000 
 20
 28.5000 
 30
 0.0000 
  0
VERTEX
  8
1
 70
     32
 10
 240.0000 
 20
 28.5000 
 30
 0.0000 
 0 
SEQEND
  0
POLYLINE
  8
4
 62
     5
 66
      1
  6
CONTINUOUS
 70
      8
  0
VERTEX
  8
4
 70
     32
 10
 24.0000 
 20
-39.9761 
 30
 0.0000 
  0
VERTEX
  8
4
 70
     32
 10
 24.0000 
 20
 39.9761 
 30
 0.0000 
 0 
SEQEND
  0
POLYLINE
  8
4
 62
     5
 66
      1
  6
CONTINUOUS
 70
      8
  0
VERTEX
  8
4
 70
     32
 10
 48.0000 
 20
-42.7649 
 30
 0.0000 
  0
VERTEX
  8
4
 70
     32
 10
 48.0000 
 20
 42.7649 
 30
 0.0000 
 0 
SEQEND
  0
POLYLINE
  8
4
 62
     5
 66
      1
  6
CONTINUOUS
 70
      8
  0
VERTEX
  8
4
 70
     32
 10
 72.0000 
 20
-44.4121 
 30
 0.0000 
  0
VERTEX
  8
4
 70
     32
 10
 72.0000 
 20
 44.4121 
 30
 0.0000 
 0 
SEQEND
  0
POLYLINE
  8
4
 62
     5
 66
      1
  6
CONTINUOUS
 70
      8
  0
VERTEX
  8
4
 70
     32
 10
 96.0000 
 20
-44.9942 
 30
 0.0000 
  0
VERTEX
  8
4
 70
     32
 10
 96.0000 
 20
 44.9942 
 30
 0.0000 
 0 
SEQEND
  0
POLYLINE
  8
4
 62
     5
 66
      1
  6
CONTINUOUS
 70
      8
  0
VERTEX
  8
4
 70
     32
 10
 120.0000 
 20
-44.8588 
 30
 0.0000 
  0
VERTEX
  8
4
 70
     32
 10
 120.0000 
 20
 44.8588 
 30
 0.0000 
 0 
SEQEND
  0
POLYLINE
  8
4
 62
     5
 66
      1
  6
CONTINUOUS
 70
      8
  0
VERTEX
  8
4
 70
     32
 10
 144.0000 
 20
-44.0506 
 30
 0.0000 
  0
VERTEX
  8
4
 70
     32
 10
 144.0000 
 20
 44.0506 
 30
 0.0000 
 0 
SEQEND
  0
POLYLINE
  8
4
 62
     5
 66
      1
  6
CONTINUOUS
 70
      8
  0
VERTEX
  8
4
 70
     32
 10
 168.0000 
 20
-42.2359 
 30
 0.0000 
  0
VERTEX
  8
4
 70
     32
 10
 168.0000 
 20
 42.2359 
 30
 0.0000 
 0 
SEQEND
  0
POLYLINE
  8
4
 62
     5
 66
      1
  6
CONTINUOUS
 70
      8
  0
VERTEX
  8
4
 70
     32
 10
 192.0000 
 20
-39.1703 
 30
 0.0000 
  0
VERTEX
  8
4
 70
     32
 10
 192.0000 
 20
 39.1703 
 30
 0.0000 
 0 
SEQEND
  0
POLYLINE
  8
4
 62
     5
 66
      1
  6
CONTINUOUS
 70
      8
  0
VERTEX
  8
4
 70
     32
 10
 216.0000 
 20
-34.6509 
 30
 0.0000 
  0
VERTEX
  8
4
 70
     32
 10
 216.0000 
 20
 34.6509 
 30
 0.0000 
 0 
SEQEND
  0
POLYLINE
  8
4
 62
     5
 66
      1
  6
CONTINUOUS
 70
      8
  0
VERTEX
  8
4
 70
     32
 10
 240.0000 
 20
-28.5000 
 30
 0.0000 
  0
VERTEX
  8
4
 70
     32
 10
 240.0000 
 20
 28.5000 
 30
 0.0000 
 0 
SEQEND
  0
POLYLINE
  8
2
 62
     7
 66
      1
  6
CONTINUOUS
 70
      8
  0
VERTEX
  8
2
 70
     32
 10
 0.0000 
 20
 105.5798 
 30
 0.0000 
  0
VERTEX
  8
2
 70
     32
 10
 0.0000 
 20
 105.5798 
 30
 0.0000 
  0
VERTEX
  8
2
 70
     32
 10
 3.0000 
 20
 105.1006 
 30
 0.0000 
  0
VERTEX
  8
2
 70
     32
 10
 6.0000 
 20
 104.6051 
 30
 0.0000 
  0
VERTEX
  8
2
 70
     32
 10
 9.0000 
 20
 104.0956 
 30
 0.0000 
  0
VERTEX
  8
2
 70
     32
 10
 12.0000 
 20
 103.5743 
 30
 0.0000 
  0
VERTEX
  8
2
 70
     32
 10
 15.0000 
 20
 103.0433 
 30
 0.0000 
  0
VERTEX
  8
2
 70
     32
 10
 18.0000 
 20
 102.5048 
 30
 0.0000 
  0
VERTEX
  8
2
 70
     32
 10
 21.0000 
 20
 101.9609 
 30
 0.0000 
  0
VERTEX
  8
2
 70
     32
 10
 24.0000 
 20
 101.4139 
 30
 0.0000 
  0
VERTEX
  8
2
 70
     32
 10
 27.0000 
 20
 100.8658 
 30
 0.0000 
  0
VERTEX
  8
2
 70
     32
 10
 30.0000 
 20
 100.3188 
 30
 0.0000 
  0
VERTEX
  8
2
 70
     32
 10
 33.0000 
 20
 99.7749 
 30
 0.0000 
  0
VERTEX
  8
2
 70
     32
 10
 36.0000 
 20
 99.2362 
 30
 0.0000 
  0
VERTEX
  8
2
 70
     32
 10
 39.0000 
 20
 98.7048 
 30
 0.0000 
  0
VERTEX
  8
2
 70
     32
 10
 42.0000 
 20
 98.1826 
 30
 0.0000 
  0
VERTEX
  8
2
 70
     32
 10
 45.0000 
 20
 97.6718 
 30
 0.0000 
  0
VERTEX
  8
2
 70
     32
 10
 48.0000 
 20
 97.1743 
 30
 0.0000 
  0
VERTEX
  8
2
 70
     32
 10
 51.0000 
 20
 96.6920 
 30
 0.0000 
  0
VERTEX
  8
2
 70
     32
 10
 54.0000 
 20
 96.2269 
 30
 0.0000 
  0
VERTEX
  8
2
 70
     32
 10
 57.0000 
 20
 95.7809 
 30
 0.0000 
  0
VERTEX
  8
2
 70
     32
 10
 60.0000 
 20
 95.3558 
 30
 0.0000 
  0
VERTEX
  8
2
 70
     32
 10
 63.0000 
 20
 94.9535 
 30
 0.0000 
  0
VERTEX
  8
2
 70
     32
 10
 66.0000 
 20
 94.5757 
 30
 0.0000 
  0
VERTEX
  8
2
 70
     32
 10
 69.0000 
 20
 94.2242 
 30
 0.0000 
  0
VERTEX
  8
2
 70
     32
 10
 72.0000 
 20
 93.9007 
 30
 0.0000 
  0
VERTEX
  8
2
 70
     32
 10
 75.0000 
 20
 93.6068 
 30
 0.0000 
  0
VERTEX
  8
2
 70
     32
 10
 78.0000 
 20
 93.3440 
 30
 0.0000 
  0
VERTEX
  8
2
 70
     32
 10
 81.0000 
 20
 93.1137 
 30
 0.0000 
  0
VERTEX
  8
2
 70
     32
 10
 84.0000 
 20
 92.9174 
 30
 0.0000 
  0
VERTEX
  8
2
 70
     32
 10
 87.0000 
 20
 92.7561 
 30
 0.0000 
  0
VERTEX
  8
2
 70
     32
 10
 90.0000 
 20
 92.6308 
 30
 0.0000 
  0
VERTEX
  8
2
 70
     32
 10
 93.0000 
 20
 92.5423 
 30
 0.0000 
  0
VERTEX
  8
2
 70
     32
 10
 96.0000 
 20
 92.4907 
 30
 0.0000 
  0
VERTEX
  8
2
 70
     32
 10
 99.0000 
 20
 92.4747 
 30
 0.0000 
  0
VERTEX
  8
2
 70
     32
 10
 102.0000 
 20
 92.4767 
 30
 0.0000 
  0
VERTEX
  8
2
 70
     32
 10
 105.0000 
 20
 92.4857 
 30
 0.0000 
  0
VERTEX
  8
2
 70
     32
 10
 108.0000 
 20
 92.5047 
 30
 0.0000 
  0
VERTEX
  8
2
 70
     32
 10
 111.0000 
 20
 92.5356 
 30
 0.0000 
  0
VERTEX
  8
2
 70
     32
 10
 114.0000 
 20
 92.5800 
 30
 0.0000 
  0
VERTEX
  8
2
 70
     32
 10
 117.0000 
 20
 92.6391 
 30
 0.0000 
  0
VERTEX
  8
2
 70
     32
 10
 120.0000 
 20
 92.7139 
 30
 0.0000 
  0
VERTEX
  8
2
 70
     32
 10
 123.0000 
 20
 92.8051 
 30
 0.0000 
  0
VERTEX
  8
2
 70
     32
 10
 126.0000 
 20
 92.9135 
 30
 0.0000 
  0
VERTEX
  8
2
 70
     32
 10
 129.0000 
 20
 93.0395 
 30
 0.0000 
  0
VERTEX
  8
2
 70
     32
 10
 132.0000 
 20
 93.1835 
 30
 0.0000 
  0
VERTEX
  8
2
 70
     32
 10
 135.0000 
 20
 93.3460 
 30
 0.0000 
  0
VERTEX
  8
2
 70
     32
 10
 138.0000 
 20
 93.5270 
 30
 0.0000 
  0
VERTEX
  8
2
 70
     32
 10
 141.0000 
 20
 93.7268 
 30
 0.0000 
  0
VERTEX
  8
2
 70
     32
 10
 144.0000 
 20
 93.9453 
 30
 0.0000 
  0
VERTEX
  8
2
 70
     32
 10
 147.0000 
 20
 94.1827 
 30
 0.0000 
  0
VERTEX
  8
2
 70
     32
 10
 150.0000 
 20
 94.4388 
 30
 0.0000 
  0
VERTEX
  8
2
 70
     32
 10
 153.0000 
 20
 94.7134 
 30
 0.0000 
  0
VERTEX
  8
2
 70
     32
 10
 156.0000 
 20
 95.0065 
 30
 0.0000 
  0
VERTEX
  8
2
 70
     32
 10
 159.0000 
 20
 95.3177 
 30
 0.0000 
  0
VERTEX
  8
2
 70
     32
 10
 162.0000 
 20
 95.6468 
 30
 0.0000 
  0
VERTEX
  8
2
 70
     32
 10
 165.0000 
 20
 95.9933 
 30
 0.0000 
  0
VERTEX
  8
2
 70
     32
 10
 168.0000 
 20
 96.3570 
 30
 0.0000 
  0
VERTEX
  8
2
 70
     32
 10
 171.0000 
 20
 96.7374 
 30
 0.0000 
  0
VERTEX
  8
2
 70
     32
 10
 174.0000 
 20
 97.1339 
 30
 0.0000 
  0
VERTEX
  8
2
 70
     32
 10
 177.0000 
 20
 97.5461 
 30
 0.0000 
  0
VERTEX
  8
2
 70
     32
 10
 180.0000 
 20
 97.9734 
 30
 0.0000 
  0
VERTEX
  8
2
 70
     32
 10
 183.0000 
 20
 98.4152 
 30
 0.0000 
  0
VERTEX
  8
2
 70
     32
 10
 186.0000 
 20
 98.8708 
 30
 0.0000 
  0
VERTEX
  8
2
 70
     32
 10
 189.0000 
 20
 99.3395 
 30
 0.0000 
  0
VERTEX
  8
2
 70
     32
 10
 192.0000 
 20
 99.8207 
 30
 0.0000 
  0
VERTEX
  8
2
 70
     32
 10
 195.0000 
 20
 100.3136 
 30
 0.0000 
  0
VERTEX
  8
2
 70
     32
 10
 198.0000 
 20
 100.8174 
 30
 0.0000 
  0
VERTEX
  8
2
 70
     32
 10
 201.0000 
 20
 101.3313 
 30
 0.0000 
  0
VERTEX
  8
2
 70
     32
 10
 204.0000 
 20
 101.8544 
 30
 0.0000 
  0
VERTEX
  8
2
 70
     32
 10
 207.0000 
 20
 102.3859 
 30
 0.0000 
  0
VERTEX
  8
2
 70
     32
 10
 210.0000 
 20
 102.9248 
 30
 0.0000 
  0
VERTEX
  8
2
 70
     32
 10
 213.0000 
 20
 103.4702 
 30
 0.0000 
  0
VERTEX
  8
2
 70
     32
 10
 216.0000 
 20
 104.0211 
 30
 0.0000 
  0
VERTEX
  8
2
 70
     32
 10
 219.0000 
 20
 104.5765 
 30
 0.0000 
  0
VERTEX
  8
2
 70
     32
 10
 222.0000 
 20
 105.1354 
 30
 0.0000 
  0
VERTEX
  8
2
 70
     32
 10
 225.0000 
 20
 105.6967 
 30
 0.0000 
  0
VERTEX
  8
2
 70
     32
 10
 228.0000 
 20
 106.2593 
 30
 0.0000 
  0
VERTEX
  8
2
 70
     32
 10
 231.0000 
 20
 106.8222 
 30
 0.0000 
  0
VERTEX
  8
2
 70
     32
 10
 234.0000 
 20
 107.3842 
 30
 0.0000 
  0
VERTEX
  8
2
 70
     32
 10
 237.0000 
 20
 107.9440 
 30
 0.0000 
  0
VERTEX
  8
2
 70
     32
 10
 240.0000 
 20
 108.5006 
 30
 0.0000 
  0
VERTEX
  8
2
 70
     32
 10
 240.0000 
 20
 108.5006 
 30
 0.0000 
 0 
SEQEND
  0
POLYLINE
  8
2
 62
     7
 66
      1
  6
CONTINUOUS
 70
      8
  0
VERTEX
  8
2
 70
     32
 10
 0.0000 
 20
 105.5798 
 30
 0.0000 
  0
VERTEX
  8
2
 70
     32
 10
 0.0000 
 20
 110.0000 
 30
 0.0000 
  0
VERTEX
  8
2
 70
     32
 10
 0.0000 
 20
 110.0000 
 30
 0.0000 
  0
VERTEX
  8
2
 70
     32
 10
 3.0000 
 20
 109.5900 
 30
 0.0000 
  0
VERTEX
  8
2
 70
     32
 10
 6.0000 
 20
 109.1613 
 30
 0.0000 
  0
VERTEX
  8
2
 70
     32
 10
 9.0000 
 20
 108.7163 
 30
 0.0000 
  0
VERTEX
  8
2
 70
     32
 10
 12.0000 
 20
 108.2571 
 30
 0.0000 
  0
VERTEX
  8
2
 70
     32
 10
 15.0000 
 20
 107.7860 
 30
 0.0000 
  0
VERTEX
  8
2
 70
     32
 10
 18.0000 
 20
 107.3050 
 30
 0.0000 
  0
VERTEX
  8
2
 70
     32
 10
 21.0000 
 20
 106.8164 
 30
 0.0000 
  0
VERTEX
  8
2
 70
     32
 10
 24.0000 
 20
 106.3223 
 30
 0.0000 
  0
VERTEX
  8
2
 70
     32
 10
 27.0000 
 20
 105.8249 
 30
 0.0000 
  0
VERTEX
  8
2
 70
     32
 10
 30.0000 
 20
 105.3263 
 30
 0.0000 
  0
VERTEX
  8
2
 70
     32
 10
 33.0000 
 20
 104.8285 
 30
 0.0000 
  0
VERTEX
  8
2
 70
     32
 10
 36.0000 
 20
 104.3338 
 30
 0.0000 
  0
VERTEX
  8
2
 70
     32
 10
 39.0000 
 20
 103.8440 
 30
 0.0000 
  0
VERTEX
  8
2
 70
     32
 10
 42.0000 
 20
 103.3613 
 30
 0.0000 
  0
VERTEX
  8
2
 70
     32
 10
 45.0000 
 20
 102.8877 
 30
 0.0000 
  0
VERTEX
  8
2
 70
     32
 10
 48.0000 
 20
 102.4251 
 30
 0.0000 
  0
VERTEX
  8
2
 70
     32
 10
 51.0000 
 20
 101.9757 
 30
 0.0000 
  0
VERTEX
  8
2
 70
     32
 10
 54.0000 
 20
 101.5412 
 30
 0.0000 
  0
VERTEX
  8
2
 70
     32
 10
 57.0000 
 20
 101.1236 
 30
 0.0000 
  0
VERTEX
  8
2
 70
     32
 10
 60.0000 
 20
 100.7249 
 30
 0.0000 
  0
VERTEX
  8
2
 70
     32
 10
 63.0000 
 20
 100.3467 
 30
 0.0000 
  0
VERTEX
  8
2
 70
     32
 10
 66.0000 
 20
 99.9910 
 30
 0.0000 
  0
VERTEX
  8
2
 70
     32
 10
 69.0000 
 20
 99.6595 
 30
 0.0000 
  0
VERTEX
  8
2
 70
     32
 10
 72.0000 
 20
 99.3539 
 30
 0.0000 
  0
VERTEX
  8
2
 70
     32
 10
 75.0000 
 20
 99.0757 
 30
 0.0000 
  0
VERTEX
  8
2
 70
     32
 10
 78.0000 
 20
 98.8267 
 30
 0.0000 
  0
VERTEX
  8
2
 70
     32
 10
 81.0000 
 20
 98.6082 
 30
 0.0000 
  0
VERTEX
  8
2
 70
     32
 10
 84.0000 
 20
 98.4217 
 30
 0.0000 
  0
VERTEX
  8
2
 70
     32
 10
 87.0000 
 20
 98.2682 
 30
 0.0000 
  0
VERTEX
  8
2
 70
     32
 10
 90.0000 
 20
 98.1490 
 30
 0.0000 
  0
VERTEX
  8
2
 70
     32
 10
 93.0000 
 20
 98.0646 
 30
 0.0000 
  0
VERTEX
  8
2
 70
     32
 10
 96.0000 
 20
 98.0153 
 30
 0.0000 
  0
VERTEX
  8
2
 70
     32
 10
 99.0000 
 20
 98.0000 
 30
 0.0000 
  0
VERTEX
  8
2
 70
     32
 10
 102.0000 
 20
 98.0018 
 30
 0.0000 
  0
VERTEX
  8
2
 70
     32
 10
 105.0000 
 20
 98.0102 
 30
 0.0000 
  0
VERTEX
  8
2
 70
     32
 10
 108.0000 
 20
 98.0279 
 30
 0.0000 
  0
VERTEX
  8
2
 70
     32
 10
 111.0000 
 20
 98.0566 
 30
 0.0000 
  0
VERTEX
  8
2
 70
     32
 10
 114.0000 
 20
 98.0979 
 30
 0.0000 
  0
VERTEX
  8
2
 70
     32
 10
 117.0000 
 20
 98.1526 
 30
 0.0000 
  0
VERTEX
  8
2
 70
     32
 10
 120.0000 
 20
 98.2218 
 30
 0.0000 
  0
VERTEX
  8
2
 70
     32
 10
 123.0000 
 20
 98.3062 
 30
 0.0000 
  0
VERTEX
  8
2
 70
     32
 10
 126.0000 
 20
 98.4063 
 30
 0.0000 
  0
VERTEX
  8
2
 70
     32
 10
 129.0000 
 20
 98.5225 
 30
 0.0000 
  0
VERTEX
  8
2
 70
     32
 10
 132.0000 
 20
 98.6552 
 30
 0.0000 
  0
VERTEX
  8
2
 70
     32
 10
 135.0000 
 20
 98.8045 
 30
 0.0000 
  0
VERTEX
  8
2
 70
     32
 10
 138.0000 
 20
 98.9708 
 30
 0.0000 
  0
VERTEX
  8
2
 70
     32
 10
 141.0000 
 20
 99.1540 
 30
 0.0000 
  0
VERTEX
  8
2
 70
     32
 10
 144.0000 
 20
 99.3541 
 30
 0.0000 
  0
VERTEX
  8
2
 70
     32
 10
 147.0000 
 20
 99.5710 
 30
 0.0000 
  0
VERTEX
  8
2
 70
     32
 10
 150.0000 
 20
 99.8047 
 30
 0.0000 
  0
VERTEX
  8
2
 70
     32
 10
 153.0000 
 20
 100.0549 
 30
 0.0000 
  0
VERTEX
  8
2
 70
     32
 10
 156.0000 
 20
 100.3213 
 30
 0.0000 
  0
VERTEX
  8
2
 70
     32
 10
 159.0000 
 20
 100.6037 
 30
 0.0000 
  0
VERTEX
  8
2
 70
     32
 10
 162.0000 
 20
 100.9017 
 30
 0.0000 
  0
VERTEX
  8
2
 70
     32
 10
 165.0000 
 20
 101.2150 
 30
 0.0000 
  0
VERTEX
  8
2
 70
     32
 10
 168.0000 
 20
 101.5429 
 30
 0.0000 
  0
VERTEX
  8
2
 70
     32
 10
 171.0000 
 20
 101.8852 
 30
 0.0000 
  0
VERTEX
  8
2
 70
     32
 10
 174.0000 
 20
 102.2412 
 30
 0.0000 
  0
VERTEX
  8
2
 70
     32
 10
 177.0000 
 20
 102.6103 
 30
 0.0000 
  0
VERTEX
  8
2
 70
     32
 10
 180.0000 
 20
 102.9919 
 30
 0.0000 
  0
VERTEX
  8
2
 70
     32
 10
 183.0000 
 20
 103.3855 
 30
 0.0000 
  0
VERTEX
  8
2
 70
     32
 10
 186.0000 
 20
 103.7902 
 30
 0.0000 
  0
VERTEX
  8
2
 70
     32
 10
 189.0000 
 20
 104.2054 
 30
 0.0000 
  0
VERTEX
  8
2
 70
     32
 10
 192.0000 
 20
 104.6303 
 30
 0.0000 
  0
VERTEX
  8
2
 70
     32
 10
 195.0000 
 20
 105.0640 
 30
 0.0000 
  0
VERTEX
  8
2
 70
     32
 10
 198.0000 
 20
 105.5059 
 30
 0.0000 
  0
VERTEX
  8
2
 70
     32
 10
 201.0000 
 20
 105.9549 
 30
 0.0000 
  0
VERTEX
  8
2
 70
     32
 10
 204.0000 
 20
 106.4102 
 30
 0.0000 
  0
VERTEX
  8
2
 70
     32
 10
 207.0000 
 20
 106.8709 
 30
 0.0000 
  0
VERTEX
  8
2
 70
     32
 10
 210.0000 
 20
 107.3361 
 30
 0.0000 
  0
VERTEX
  8
2
 70
     32
 10
 213.0000 
 20
 107.8047 
 30
 0.0000 
  0
VERTEX
  8
2
 70
     32
 10
 216.0000 
 20
 108.2757 
 30
 0.0000 
  0
VERTEX
  8
2
 70
     32
 10
 219.0000 
 20
 108.7480 
 30
 0.0000 
  0
VERTEX
  8
2
 70
     32
 10
 222.0000 
 20
 109.2207 
 30
 0.0000 
  0
VERTEX
  8
2
 70
     32
 10
 225.0000 
 20
 109.6926 
 30
 0.0000 
  0
VERTEX
  8
2
 70
     32
 10
 228.0000 
 20
 110.1626 
 30
 0.0000 
  0
VERTEX
  8
2
 70
     32
 10
 231.0000 
 20
 110.6295 
 30
 0.0000 
  0
VERTEX
  8
2
 70
     32
 10
 234.0000 
 20
 111.0922 
 30
 0.0000 
  0
VERTEX
  8
2
 70
     32
 10
 237.0000 
 20
 111.5494 
 30
 0.0000 
  0
VERTEX
  8
2
 70
     32
 10
 240.0000 
 20
 112.0000 
 30
 0.0000 
  0
VERTEX
  8
2
 70
     32
 10
 240.0000 
 20
 112.0000 
 30
 0.0000 
  0
VERTEX
  8
2
 70
     32
 10
 240.0000 
 20
 108.5006 
 30
 0.0000 
 0 
SEQEND
  0
POLYLINE
  8
2
 62
     7
 66
      1
  6
CONTINUOUS
 70
      8
  0
VERTEX
  8
2
 70
     32
 10
 0.0000 
 20
 110.0000 
 30
 0.0000 
  0
VERTEX
  8
2
 70
     32
 10
 0.0000 
 20
 120.0000 
 30
 0.0000 
  0
VERTEX
  8
2
 70
     32
 10
 0.0000 
 20
 120.0000 
 30
 0.0000 
  0
VERTEX
  8
2
 70
     32
 10
 3.0000 
 20
 119.9692 
 30
 0.0000 
  0
VERTEX
  8
2
 70
     32
 10
 6.0000 
 20
 119.9389 
 30
 0.0000 
  0
VERTEX
  8
2
 70
     32
 10
 9.0000 
 20
 119.9091 
 30
 0.0000 
  0
VERTEX
  8
2
 70
     32
 10
 12.0000 
 20
 119.8798 
 30
 0.0000 
  0
VERTEX
  8
2
 70
     32
 10
 15.0000 
 20
 119.8511 
 30
 0.0000 
  0
VERTEX
  8
2
 70
     32
 10
 18.0000 
 20
 119.8229 
 30
 0.0000 
  0
VERTEX
  8
2
 70
     32
 10
 21.0000 
 20
 119.7953 
 30
 0.0000 
  0
VERTEX
  8
2
 70
     32
 10
 24.0000 
 20
 119.7681 
 30
 0.0000 
  0
VERTEX
  8
2
 70
     32
 10
 27.0000 
 20
 119.7415 
 30
 0.0000 
  0
VERTEX
  8
2
 70
     32
 10
 30.0000 
 20
 119.7154 
 30
 0.0000 
  0
VERTEX
  8
2
 70
     32
 10
 33.0000 
 20
 119.6898 
 30
 0.0000 
  0
VERTEX
  8
2
 70
     32
 10
 36.0000 
 20
 119.6647 
 30
 0.0000 
  0
VERTEX
  8
2
 70
     32
 10
 39.0000 
 20
 119.6401 
 30
 0.0000 
  0
VERTEX
  8
2
 70
     32
 10
 42.0000 
 20
 119.6160 
 30
 0.0000 
  0
VERTEX
  8
2
 70
     32
 10
 45.0000 
 20
 119.5924 
 30
 0.0000 
  0
VERTEX
  8
2
 70
     32
 10
 48.0000 
 20
 119.5694 
 30
 0.0000 
  0
VERTEX
  8
2
 70
     32
 10
 51.0000 
 20
 119.5468 
 30
 0.0000 
  0
VERTEX
  8
2
 70
     32
 10
 54.0000 
 20
 119.5247 
 30
 0.0000 
  0
VERTEX
  8
2
 70
     32
 10
 57.0000 
 20
 119.5031 
 30
 0.0000 
  0
VERTEX
  8
2
 70
     32
 10
 60.0000 
 20
 119.4820 
 30
 0.0000 
  0
VERTEX
  8
2
 70
     32
 10
 63.0000 
 20
 119.4614 
 30
 0.0000 
  0
VERTEX
  8
2
 70
     32
 10
 66.0000 
 20
 119.4413 
 30
 0.0000 
  0
VERTEX
  8
2
 70
     32
 10
 69.0000 
 20
 119.4216 
 30
 0.0000 
  0
VERTEX
  8
2
 70
     32
 10
 72.0000 
 20
 119.4025 
 30
 0.0000 
  0
VERTEX
  8
2
 70
     32
 10
 75.0000 
 20
 119.3837 
 30
 0.0000 
  0
VERTEX
  8
2
 70
     32
 10
 78.0000 
 20
 119.3655 
 30
 0.0000 
  0
VERTEX
  8
2
 70
     32
 10
 81.0000 
 20
 119.3477 
 30
 0.0000 
  0
VERTEX
  8
2
 70
     32
 10
 84.0000 
 20
 119.3304 
 30
 0.0000 
  0
VERTEX
  8
2
 70
     32
 10
 87.0000 
 20
 119.3135 
 30
 0.0000 
  0
VERTEX
  8
2
 70
     32
 10
 90.0000 
 20
 119.2970 
 30
 0.0000 
  0
VERTEX
  8
2
 70
     32
 10
 93.0000 
 20
 119.2809 
 30
 0.0000 
  0
VERTEX
  8
2
 70
     32
 10
 96.0000 
 20
 119.2653 
 30
 0.0000 
  0
VERTEX
  8
2
 70
     32
 10
 99.0000 
 20
 119.2500 
 30
 0.0000 
  0
VERTEX
  8
2
 70
     32
 10
 102.0000 
 20
 119.2349 
 30
 0.0000 
  0
VERTEX
  8
2
 70
     32
 10
 105.0000 
 20
 119.2199 
 30
 0.0000 
  0
VERTEX
  8
2
 70
     32
 10
 108.0000 
 20
 119.2051 
 30
 0.0000 
  0
VERTEX
  8
2
 70
     32
 10
 111.0000 
 20
 119.1905 
 30
 0.0000 
  0
VERTEX
  8
2
 70
     32
 10
 114.0000 
 20
 119.1761 
 30
 0.0000 
  0
VERTEX
  8
2
 70
     32
 10
 117.0000 
 20
 119.1620 
 30
 0.0000 
  0
VERTEX
  8
2
 70
     32
 10
 120.0000 
 20
 119.1481 
 30
 0.0000 
  0
VERTEX
  8
2
 70
     32
 10
 123.0000 
 20
 119.1346 
 30
 0.0000 
  0
VERTEX
  8
2
 70
     32
 10
 126.0000 
 20
 119.1213 
 30
 0.0000 
  0
VERTEX
  8
2
 70
     32
 10
 129.0000 
 20
 119.1085 
 30
 0.0000 
  0
VERTEX
  8
2
 70
     32
 10
 132.0000 
 20
 119.0959 
 30
 0.0000 
  0
VERTEX
  8
2
 70
     32
 10
 135.0000 
 20
 119.0838 
 30
 0.0000 
  0
VERTEX
  8
2
 70
     32
 10
 138.0000 
 20
 119.0720 
 30
 0.0000 
  0
VERTEX
  8
2
 70
     32
 10
 141.0000 
 20
 119.0607 
 30
 0.0000 
  0
VERTEX
  8
2
 70
     32
 10
 144.0000 
 20
 119.0498 
 30
 0.0000 
  0
VERTEX
  8
2
 70
     32
 10
 147.0000 
 20
 119.0393 
 30
 0.0000 
  0
VERTEX
  8
2
 70
     32
 10
 150.0000 
 20
 119.0293 
 30
 0.0000 
  0
VERTEX
  8
2
 70
     32
 10
 153.0000 
 20
 119.0197 
 30
 0.0000 
  0
VERTEX
  8
2
 70
     32
 10
 156.0000 
 20
 119.0106 
 30
 0.0000 
  0
VERTEX
  8
2
 70
     32
 10
 159.0000 
 20
 119.0021 
 30
 0.0000 
  0
VERTEX
  8
2
 70
     32
 10
 162.0000 
 20
 118.9940 
 30
 0.0000 
  0
VERTEX
  8
2
 70
     32
 10
 165.0000 
 20
 118.9865 
 30
 0.0000 
  0
VERTEX
  8
2
 70
     32
 10
 168.0000 
 20
 118.9795 
 30
 0.0000 
  0
VERTEX
  8
2
 70
     32
 10
 171.0000 
 20
 118.9730 
 30
 0.0000 
  0
VERTEX
  8
2
 70
     32
 10
 174.0000 
 20
 118.9671 
 30
 0.0000 
  0
VERTEX
  8
2
 70
     32
 10
 177.0000 
 20
 118.9618 
 30
 0.0000 
  0
VERTEX
  8
2
 70
     32
 10
 180.0000 
 20
 118.9570 
 30
 0.0000 
  0
VERTEX
  8
2
 70
     32
 10
 183.0000 
 20
 118.9529 
 30
 0.0000 
  0
VERTEX
  8
2
 70
     32
 10
 186.0000 
 20
 118.9493 
 30
 0.0000 
  0
VERTEX
  8
2
 70
     32
 10
 189.0000 
 20
 118.9464 
 30
 0.0000 
  0
VERTEX
  8
2
 70
     32
 10
 192.0000 
 20
 118.9441 
 30
 0.0000 
  0
VERTEX
  8
2
 70
     32
 10
 195.0000 
 20
 118.9424 
 30
 0.0000 
  0
VERTEX
  8
2
 70
     32
 10
 198.0000 
 20
 118.9414 
 30
 0.0000 
  0
VERTEX
  8
2
 70
     32
 10
 201.0000 
 20
 118.9410 
 30
 0.0000 
  0
VERTEX
  8
2
 70
     32
 10
 204.0000 
 20
 118.9413 
 30
 0.0000 
  0
VERTEX
  8
2
 70
     32
 10
 207.0000 
 20
 118.9422 
 30
 0.0000 
  0
VERTEX
  8
2
 70
     32
 10
 210.0000 
 20
 118.9439 
 30
 0.0000 
  0
VERTEX
  8
2
 70
     32
 10
 213.0000 
 20
 118.9462 
 30
 0.0000 
  0
VERTEX
  8
2
 70
     32
 10
 216.0000 
 20
 118.9493 
 30
 0.0000 
  0
VERTEX
  8
2
 70
     32
 10
 219.0000 
 20
 118.9530 
 30
 0.0000 
  0
VERTEX
  8
2
 70
     32
 10
 222.0000 
 20
 118.9575 
 30
 0.0000 
  0
VERTEX
  8
2
 70
     32
 10
 225.0000 
 20
 118.9627 
 30
 0.0000 
  0
VERTEX
  8
2
 70
     32
 10
 228.0000 
 20
 118.9687 
 30
 0.0000 
  0
VERTEX
  8
2
 70
     32
 10
 231.0000 
 20
 118.9754 
 30
 0.0000 
  0
VERTEX
  8
2
 70
     32
 10
 234.0000 
 20
 118.9828 
 30
 0.0000 
  0
VERTEX
  8
2
 70
     32
 10
 237.0000 
 20
 118.9910 
 30
 0.0000 
  0
VERTEX
  8
2
 70
     32
 10
 240.0000 
 20
 119.0000 
 30
 0.0000 
  0
VERTEX
  8
2
 70
     32
 10
 240.0000 
 20
 119.0000 
 30
 0.0000 
  0
VERTEX
  8
2
 70
     32
 10
 240.0000 
 20
 112.0000 
 30
 0.0000 
 0 
SEQEND
  0
POLYLINE
  8
4
 62
     5
 66
      1
  6
CONTINUOUS
 70
      8
  0
VERTEX
  8
4
 70
     32
 10
 24.0000 
 20
 101.4139 
 30
 0.0000 
  0
VERTEX
  8
4
 70
     32
 10
 24.0000 
 20
 119.7681 
 30
 0.0000 
 0 
SEQEND
  0
POLYLINE
  8
4
 62
     5
 66
      1
  6
CONTINUOUS
 70
      8
  0
VERTEX
  8
4
 70
     32
 10
 48.0000 
 20
 97.1743 
 30
 0.0000 
  0
VERTEX
  8
4
 70
     32
 10
 48.0000 
 20
 119.5694 
 30
 0.0000 
 0 
SEQEND
  0
POLYLINE
  8
4
 62
     5
 66
      1
  6
CONTINUOUS
 70
      8
  0
VERTEX
  8
4
 70
     32
 10
 72.0000 
 20
 93.9007 
 30
 0.0000 
  0
VERTEX
  8
4
 70
     32
 10
 72.0000 
 20
 119.4025 
 30
 0.0000 
 0 
SEQEND
  0
POLYLINE
  8
4
 62
     5
 66
      1
  6
CONTINUOUS
 70
      8
  0
VERTEX
  8
4
 70
     32
 10
 96.0000 
 20
 92.4907 
 30
 0.0000 
  0
VERTEX
  8
4
 70
     32
 10
 96.0000 
 20
 119.2653 
 30
 0.0000 
 0 
SEQEND
  0
POLYLINE
  8
4
 62
     5
 66
      1
  6
CONTINUOUS
 70
      8
  0
VERTEX
  8
4
 70
     32
 10
 120.0000 
 20
 92.7139 
 30
 0.0000 
  0
VERTEX
  8
4
 70
     32
 10
 120.0000 
 20
 119.1481 
 30
 0.0000 
 0 
SEQEND
  0
POLYLINE
  8
4
 62
     5
 66
      1
  6
CONTINUOUS
 70
      8
  0
VERTEX
  8
4
 70
     32
 10
 144.0000 
 20
 93.9453 
 30
 0.0000 
  0
VERTEX
  8
4
 70
     32
 10
 144.0000 
 20
 119.0498 
 30
 0.0000 
 0 
SEQEND
  0
POLYLINE
  8
4
 62
     5
 66
      1
  6
CONTINUOUS
 70
      8
  0
VERTEX
  8
4
 70
     32
 10
 168.0000 
 20
 96.3570 
 30
 0.0000 
  0
VERTEX
  8
4
 70
     32
 10
 168.0000 
 20
 118.9795 
 30
 0.0000 
 0 
SEQEND
  0
POLYLINE
  8
4
 62
     5
 66
      1
  6
CONTINUOUS
 70
      8
  0
VERTEX
  8
4
 70
     32
 10
 192.0000 
 20
 99.8207 
 30
 0.0000 
  0
VERTEX
  8
4
 70
     32
 10
 192.0000 
 20
 118.9441 
 30
 0.0000 
 0 
SEQEND
  0
POLYLINE
  8
4
 62
     5
 66
      1
  6
CONTINUOUS
 70
      8
  0
VERTEX
  8
4
 70
     32
 10
 216.0000 
 20
 104.0211 
 30
 0.0000 
  0
VERTEX
  8
4
 70
     32
 10
 216.0000 
 20
 118.9493 
 30
 0.0000 
 0 
SEQEND
  0
POLYLINE
  8
4
 62
     5
 66
      1
  6
CONTINUOUS
 70
      8
  0
VERTEX
  8
4
 70
     32
 10
 240.0000 
 20
 108.5006 
 30
 0.0000 
  0
VERTEX
  8
4
 70
     32
 10
 240.0000 
 20
 119.0000 
 30
 0.0000 
 0 
SEQEND
  0
POLYLINE
  8
3
 62
     7
 66
      1
  6
CONTINUOUS
 70
      8
  0
VERTEX
  8
3
 70
     32
 10
 333.0000 
 20
 120.0000 
 30
 0.0000 
  0
VERTEX
  8
3
 70
     32
 10
 297.0000 
 20
 120.0000 
 30
 0.0000 
  0
VERTEX
  8
3
 70
     32
 10
 297.0000 
 20
 110.0000 
 30
 0.0000 
  0
VERTEX
  8
3
 70
     32
 10
 300.6000 
 20
 109.5580 
 30
 0.0000 
  0
VERTEX
  8
3
 70
     32
 10
 304.2000 
 20
 109.1160 
 30
 0.0000 
  0
VERTEX
  8
3
 70
     32
 10
 307.8000 
 20
 108.6739 
 30
 0.0000 
  0
VERTEX
  8
3
 70
     32
 10
 311.4000 
 20
 108.2319 
 30
 0.0000 
  0
VERTEX
  8
3
 70
     32
 10
 315.0000 
 20
 107.7899 
 30
 0.0000 
  0
VERTEX
  8
3
 70
     32
 10
 318.6000 
 20
 107.3479 
 30
 0.0000 
  0
VERTEX
  8
3
 70
     32
 10
 322.2000 
 20
 106.9058 
 30
 0.0000 
  0
VERTEX
  8
3
 70
     32
 10
 325.8000 
 20
 106.4638 
 30
 0.0000 
  0
VERTEX
  8
3
 70
     32
 10
 329.4000 
 20
 106.0218 
 30
 0.0000 
  0
VERTEX
  8
3
 70
     32
 10
 333.0000 
 20
 105.5798 
 30
 0.0000 
  0
VERTEX
  8
3
 70
     32
 10
 336.6000 
 20
 106.0218 
 30
 0.0000 
  0
VERTEX
  8
3
 70
     32
 10
 340.2000 
 20
 106.4638 
 30
 0.0000 
  0
VERTEX
  8
3
 70
     32
 10
 343.8000 
 20
 106.9058 
 30
 0.0000 
  0
VERTEX
  8
3
 70
     32
 10
 347.4000 
 20
 107.3479 
 30
 0.0000 
  0
VERTEX
  8
3
 70
     32
 10
 351.0000 
 20
 107.7899 
 30
 0.0000 
  0
VERTEX
  8
3
 70
     32
 10
 354.6000 
 20
 108.2319 
 30
 0.0000 
  0
VERTEX
  8
3
 70
     32
 10
 358.2000 
 20
 108.6739 
 30
 0.0000 
  0
VERTEX
  8
3
 70
     32
 10
 361.8000 
 20
 109.1160 
 30
 0.0000 
  0
VERTEX
  8
3
 70
     32
 10
 365.4000 
 20
 109.5580 
 30
 0.0000 
  0
VERTEX
  8
3
 70
     32
 10
 369.0000 
 20
 110.0000 
 30
 0.0000 
  0
VERTEX
  8
3
 70
     32
 10
 369.0000 
 20
 120.0000 
 30
 0.0000 
  0
VERTEX
  8
3
 70
     32
 10
 333.0000 
 20
 120.0000 
 30
 0.0000 
 0 
SEQEND
  0
POLYLINE
  8
3
 62
     7
 66
      1
  6
CONTINUOUS
 70
      8
  0
VERTEX
  8
3
 70
     32
 10
 333.0000 
 20
 119.0000 
 30
 0.0000 
  0
VERTEX
  8
3
 70
     32
 10
 304.5000 
 20
 119.0000 
 30
 0.0000 
  0
VERTEX
  8
3
 70
     32
 10
 304.5000 
 20
 112.0000 
 30
 0.0000 
  0
VERTEX
  8
3
 70
     32
 10
 307.3500 
 20
 111.6501 
 30
 0.0000 
  0
VERTEX
  8
3
 70
     32
 10
 310.2000 
 20
 111.3001 
 30
 0.0000 
  0
VERTEX
  8
3
 70
     32
 10
 313.0500 
 20
 110.9502 
 30
 0.0000 
  0
VERTEX
  8
3
 70
     32
 10
 315.9000 
 20
 110.6003 
 30
 0.0000 
  0
VERTEX
  8
3
 70
     32
 10
 318.7500 
 20
 110.2503 
 30
 0.0000 
  0
VERTEX
  8
3
 70
     32
 10
 321.6000 
 20
 109.9004 
 30
 0.0000 
  0
VERTEX
  8
3
 70
     32
 10
 324.4500 
 20
 109.5504 
 30
 0.0000 
  0
VERTEX
  8
3
 70
     32
 10
 327.3000 
 20
 109.2005 
 30
 0.0000 
  0
VERTEX
  8
3
 70
     32
 10
 330.1500 
 20
 108.8506 
 30
 0.0000 
  0
VERTEX
  8
3
 70
     32
 10
 333.0000 
 20
 108.5006 
 30
 0.0000 
  0
VERTEX
  8
3
 70
     32
 10
 335.8500 
 20
 108.8506 
 30
 0.0000 
  0
VERTEX
  8
3
 70
     32
 10
 338.7000 
 20
 109.2005 
 30
 0.0000 
  0
VERTEX
  8
3
 70
     32
 10
 341.5500 
 20
 109.5504 
 30
 0.0000 
  0
VERTEX
  8
3
 70
     32
 10
 344.4000 
 20
 109.9004 
 30
 0.0000 
  0
VERTEX
  8
3
 70
     32
 10
 347.2500 
 20
 110.2503 
 30
 0.0000 
  0
VERTEX
  8
3
 70
     32
 10
 350.1000 
 20
 110.6003 
 30
 0.0000 
  0
VERTEX
  8
3
 70
     32
 10
 352.9500 
 20
 110.9502 
 30
 0.0000 
  0
VERTEX
  8
3
 70
     32
 10
 355.8000 
 20
 111.3001 
 30
 0.0000 
  0
VERTEX
  8
3
 70
     32
 10
 358.6500 
 20
 111.6501 
 30
 0.0000 
  0
VERTEX
  8
3
 70
     32
 10
 361.5000 
 20
 112.0000 
 30
 0.0000 
  0
VERTEX
  8
3
 70
     32
 10
 361.5000 
 20
 119.0000 
 30
 0.0000 
  0
VERTEX
  8
3
 70
     32
 10
 333.0000 
 20
 119.0000 
 30
 0.0000 
 0 
SEQEND
  0
POLYLINE
  8
3
 62
     7
 66
      1
  6
CONTINUOUS
 70
      8
  0
VERTEX
  8
3
 70
     32
 10
 333.0000 
 20
 105.5798 
 30
 0.0000 
  0
VERTEX
  8
3
 70
     32
 10
 333.0000 
 20
 105.5798 
 30
 0.0000 
  0
VERTEX
  8
3
 70
     32
 10
 333.0000 
 20
 105.1006 
 30
 0.0000 
  0
VERTEX
  8
3
 70
     32
 10
 333.0000 
 20
 104.6051 
 30
 0.0000 
  0
VERTEX
  8
3
 70
     32
 10
 333.0000 
 20
 104.0956 
 30
 0.0000 
  0
VERTEX
  8
3
 70
     32
 10
 333.0000 
 20
 103.5743 
 30
 0.0000 
  0
VERTEX
  8
3
 70
     32
 10
 333.0000 
 20
 103.0433 
 30
 0.0000 
  0
VERTEX
  8
3
 70
     32
 10
 333.0000 
 20
 102.5048 
 30
 0.0000 
  0
VERTEX
  8
3
 70
     32
 10
 333.0000 
 20
 101.9609 
 30
 0.0000 
  0
VERTEX
  8
3
 70
     32
 10
 333.0000 
 20
 101.4139 
 30
 0.0000 
  0
VERTEX
  8
3
 70
     32
 10
 333.0000 
 20
 100.8658 
 30
 0.0000 
  0
VERTEX
  8
3
 70
     32
 10
 333.0000 
 20
 100.3188 
 30
 0.0000 
  0
VERTEX
  8
3
 70
     32
 10
 333.0000 
 20
 99.7749 
 30
 0.0000 
  0
VERTEX
  8
3
 70
     32
 10
 333.0000 
 20
 99.2362 
 30
 0.0000 
  0
VERTEX
  8
3
 70
     32
 10
 333.0000 
 20
 98.7048 
 30
 0.0000 
  0
VERTEX
  8
3
 70
     32
 10
 333.0000 
 20
 98.1826 
 30
 0.0000 
  0
VERTEX
  8
3
 70
     32
 10
 333.0000 
 20
 97.6718 
 30
 0.0000 
  0
VERTEX
  8
3
 70
     32
 10
 333.0000 
 20
 97.1743 
 30
 0.0000 
  0
VERTEX
  8
3
 70
     32
 10
 333.0000 
 20
 96.6920 
 30
 0.0000 
  0
VERTEX
  8
3
 70
     32
 10
 333.0000 
 20
 96.2269 
 30
 0.0000 
  0
VERTEX
  8
3
 70
     32
 10
 333.0000 
 20
 95.7809 
 30
 0.0000 
  0
VERTEX
  8
3
 70
     32
 10
 333.0000 
 20
 95.3558 
 30
 0.0000 
  0
VERTEX
  8
3
 70
     32
 10
 333.0000 
 20
 94.9535 
 30
 0.0000 
  0
VERTEX
  8
3
 70
     32
 10
 333.0000 
 20
 94.5757 
 30
 0.0000 
  0
VERTEX
  8
3
 70
     32
 10
 333.0000 
 20
 94.2242 
 30
 0.0000 
  0
VERTEX
  8
3
 70
     32
 10
 333.0000 
 20
 93.9007 
 30
 0.0000 
  0
VERTEX
  8
3
 70
     32
 10
 333.0000 
 20
 93.6068 
 30
 0.0000 
  0
VERTEX
  8
3
 70
     32
 10
 333.0000 
 20
 93.3440 
 30
 0.0000 
  0
VERTEX
  8
3
 70
     32
 10
 333.0000 
 20
 93.1137 
 30
 0.0000 
  0
VERTEX
  8
3
 70
     32
 10
 333.0000 
 20
 92.9174 
 30
 0.0000 
  0
VERTEX
  8
3
 70
     32
 10
 333.0000 
 20
 92.7561 
 30
 0.0000 
  0
VERTEX
  8
3
 70
     32
 10
 333.0000 
 20
 92.6308 
 30
 0.0000 
  0
VERTEX
  8
3
 70
     32
 10
 333.0000 
 20
 92.5423 
 30
 0.0000 
  0
VERTEX
  8
3
 70
     32
 10
 333.0000 
 20
 92.4907 
 30
 0.0000 
  0
VERTEX
  8
3
 70
     32
 10
 333.0000 
 20
 92.4747 
 30
 0.0000 
  0
VERTEX
  8
3
 70
     32
 10
 333.0000 
 20
 92.4767 
 30
 0.0000 
  0
VERTEX
  8
3
 70
     32
 10
 333.0000 
 20
 92.4857 
 30
 0.0000 
  0
VERTEX
  8
3
 70
     32
 10
 333.0000 
 20
 92.5047 
 30
 0.0000 
  0
VERTEX
  8
3
 70
     32
 10
 333.0000 
 20
 92.5356 
 30
 0.0000 
  0
VERTEX
  8
3
 70
     32
 10
 333.0000 
 20
 92.5800 
 30
 0.0000 
  0
VERTEX
  8
3
 70
     32
 10
 333.0000 
 20
 92.6391 
 30
 0.0000 
  0
VERTEX
  8
3
 70
     32
 10
 333.0000 
 20
 92.7139 
 30
 0.0000 
  0
VERTEX
  8
3
 70
     32
 10
 333.0000 
 20
 92.8051 
 30
 0.0000 
  0
VERTEX
  8
3
 70
     32
 10
 333.0000 
 20
 92.9135 
 30
 0.0000 
  0
VERTEX
  8
3
 70
     32
 10
 333.0000 
 20
 93.0395 
 30
 0.0000 
  0
VERTEX
  8
3
 70
     32
 10
 333.0000 
 20
 93.1835 
 30
 0.0000 
  0
VERTEX
  8
3
 70
     32
 10
 333.0000 
 20
 93.3460 
 30
 0.0000 
  0
VERTEX
  8
3
 70
     32
 10
 333.0000 
 20
 93.5270 
 30
 0.0000 
  0
VERTEX
  8
3
 70
     32
 10
 333.0000 
 20
 93.7268 
 30
 0.0000 
  0
VERTEX
  8
3
 70
     32
 10
 333.0000 
 20
 93.9453 
 30
 0.0000 
  0
VERTEX
  8
3
 70
     32
 10
 333.0000 
 20
 94.1827 
 30
 0.0000 
  0
VERTEX
  8
3
 70
     32
 10
 333.0000 
 20
 94.4388 
 30
 0.0000 
  0
VERTEX
  8
3
 70
     32
 10
 333.0000 
 20
 94.7134 
 30
 0.0000 
  0
VERTEX
  8
3
 70
     32
 10
 333.0000 
 20
 95.0065 
 30
 0.0000 
  0
VERTEX
  8
3
 70
     32
 10
 333.0000 
 20
 95.3177 
 30
 0.0000 
  0
VERTEX
  8
3
 70
     32
 10
 333.0000 
 20
 95.6468 
 30
 0.0000 
  0
VERTEX
  8
3
 70
     32
 10
 333.0000 
 20
 95.9933 
 30
 0.0000 
  0
VERTEX
  8
3
 70
     32
 10
 333.0000 
 20
 96.3570 
 30
 0.0000 
  0
VERTEX
  8
3
 70
     32
 10
 333.0000 
 20
 96.7374 
 30
 0.0000 
  0
VERTEX
  8
3
 70
     32
 10
 333.0000 
 20
 97.1339 
 30
 0.0000 
  0
VERTEX
  8
3
 70
     32
 10
 333.0000 
 20
 97.5461 
 30
 0.0000 
  0
VERTEX
  8
3
 70
     32
 10
 333.0000 
 20
 97.9734 
 30
 0.0000 
  0
VERTEX
  8
3
 70
     32
 10
 333.0000 
 20
 98.4152 
 30
 0.0000 
  0
VERTEX
  8
3
 70
     32
 10
 333.0000 
 20
 98.8708 
 30
 0.0000 
  0
VERTEX
  8
3
 70
     32
 10
 333.0000 
 20
 99.3395 
 30
 0.0000 
  0
VERTEX
  8
3
 70
     32
 10
 333.0000 
 20
 99.8207 
 30
 0.0000 
  0
VERTEX
  8
3
 70
     32
 10
 333.0000 
 20
 100.3136 
 30
 0.0000 
  0
VERTEX
  8
3
 70
     32
 10
 333.0000 
 20
 100.8174 
 30
 0.0000 
  0
VERTEX
  8
3
 70
     32
 10
 333.0000 
 20
 101.3313 
 30
 0.0000 
  0
VERTEX
  8
3
 70
     32
 10
 333.0000 
 20
 101.8544 
 30
 0.0000 
  0
VERTEX
  8
3
 70
     32
 10
 333.0000 
 20
 102.3859 
 30
 0.0000 
  0
VERTEX
  8
3
 70
     32
 10
 333.0000 
 20
 102.9248 
 30
 0.0000 
  0
VERTEX
  8
3
 70
     32
 10
 333.0000 
 20
 103.4702 
 30
 0.0000 
  0
VERTEX
  8
3
 70
     32
 10
 333.0000 
 20
 104.0211 
 30
 0.0000 
  0
VERTEX
  8
3
 70
     32
 10
 333.0000 
 20
 104.5765 
 30
 0.0000 
  0
VERTEX
  8
3
 70
     32
 10
 333.0000 
 20
 105.1354 
 30
 0.0000 
  0
VERTEX
  8
3
 70
     32
 10
 333.0000 
 20
 105.6967 
 30
 0.0000 
  0
VERTEX
  8
3
 70
     32
 10
 333.0000 
 20
 106.2593 
 30
 0.0000 
  0
VERTEX
  8
3
 70
     32
 10
 333.0000 
 20
 106.8222 
 30
 0.0000 
  0
VERTEX
  8
3
 70
     32
 10
 333.0000 
 20
 107.3842 
 30
 0.0000 
  0
VERTEX
  8
3
 70
     32
 10
 333.0000 
 20
 107.9440 
 30
 0.0000 
  0
VERTEX
  8
3
 70
     32
 10
 333.0000 
 20
 108.5006 
 30
 0.0000 
  0
VERTEX
  8
3
 70
     32
 10
 333.0000 
 20
 108.5006 
 30
 0.0000 
 0 
SEQEND
  0
POLYLINE
  8
3
 62
     7
 66
      1
  6
CONTINUOUS
 70
      8
  0
VERTEX
  8
3
 70
     32
 10
 369.0000 
 20
 110.0000 
 30
 0.0000 
  0
VERTEX
  8
3
 70
     32
 10
 369.0000 
 20
 110.0000 
 30
 0.0000 
  0
VERTEX
  8
3
 70
     32
 10
 369.5632 
 20
 109.5900 
 30
 0.0000 
  0
VERTEX
  8
3
 70
     32
 10
 370.1074 
 20
 109.1613 
 30
 0.0000 
  0
VERTEX
  8
3
 70
     32
 10
 370.6325 
 20
 108.7163 
 30
 0.0000 
  0
VERTEX
  8
3
 70
     32
 10
 371.1388 
 20
 108.2571 
 30
 0.0000 
  0
VERTEX
  8
3
 70
     32
 10
 371.6262 
 20
 107.7860 
 30
 0.0000 
  0
VERTEX
  8
3
 70
     32
 10
 372.0949 
 20
 107.3050 
 30
 0.0000 
  0
VERTEX
  8
3
 70
     32
 10
 372.5448 
 20
 106.8164 
 30
 0.0000 
  0
VERTEX
  8
3
 70
     32
 10
 372.9761 
 20
 106.3223 
 30
 0.0000 
  0
VERTEX
  8
3
 70
     32
 10
 373.3889 
 20
 105.8249 
 30
 0.0000 
  0
VERTEX
  8
3
 70
     32
 10
 373.7831 
 20
 105.3263 
 30
 0.0000 
  0
VERTEX
  8
3
 70
     32
 10
 374.1589 
 20
 104.8285 
 30
 0.0000 
  0
VERTEX
  8
3
 70
     32
 10
 374.5164 
 20
 104.3338 
 30
 0.0000 
  0
VERTEX
  8
3
 70
     32
 10
 374.8557 
 20
 103.8440 
 30
 0.0000 
  0
VERTEX
  8
3
 70
     32
 10
 375.1768 
 20
 103.3613 
 30
 0.0000 
  0
VERTEX
  8
3
 70
     32
 10
 375.4798 
 20
 102.8877 
 30
 0.0000 
  0
VERTEX
  8
3
 70
     32
 10
 375.7649 
 20
 102.4251 
 30
 0.0000 
  0
VERTEX
  8
3
 70
     32
 10
 376.0320 
 20
 101.9757 
 30
 0.0000 
  0
VERTEX
  8
3
 70
     32
 10
 376.2815 
 20
 101.5412 
 30
 0.0000 
  0
VERTEX
  8
3
 70
     32
 10
 376.5133 
 20
 101.1236 
 30
 0.0000 
  0
VERTEX
  8
3
 70
     32
 10
 376.7275 
 20
 100.7249 
 30
 0.0000 
  0
VERTEX
  8
3
 70
     32
 10
 376.9244 
 20
 100.3467 
 30
 0.0000 
  0
VERTEX
  8
3
 70
     32
 10
 377.1040 
 20
 99.9910 
 30
 0.0000 
  0
VERTEX
  8
3
 70
     32
 10
 377.2666 
 20
 99.6595 
 30
 0.0000 
  0
VERTEX
  8
3
 70
     32
 10
 377.4121 
 20
 99.3539 
 30
 0.0000 
  0
VERTEX
  8
3
 70
     32
 10
 377.5410 
 20
 99.0757 
 30
 0.0000 
  0
VERTEX
  8
3
 70
     32
 10
 377.6532 
 20
 98.8267 
 30
 0.0000 
  0
VERTEX
  8
3
 70
     32
 10
 377.7491 
 20
 98.6082 
 30
 0.0000 
  0
VERTEX
  8
3
 70
     32
 10
 377.8289 
 20
 98.4217 
 30
 0.0000 
  0
VERTEX
  8
3
 70
     32
 10
 377.8929 
 20
 98.2682 
 30
 0.0000 
  0
VERTEX
  8
3
 70
     32
 10
 377.9415 
 20
 98.1490 
 30
 0.0000 
  0
VERTEX
  8
3
 70
     32
 10
 377.9750 
 20
 98.0646 
 30
 0.0000 
  0
VERTEX
  8
3
 70
     32
 10
 377.9942 
 20
 98.0153 
 30
 0.0000 
  0
VERTEX
  8
3
 70
     32
 10
 378.0000 
 20
 98.0000 
 30
 0.0000 
  0
VERTEX
  8
3
 70
     32
 10
 377.9989 
 20
 98.0018 
 30
 0.0000 
  0
VERTEX
  8
3
 70
     32
 10
 377.9938 
 20
 98.0102 
 30
 0.0000 
  0
VERTEX
  8
3
 70
     32
 10
 377.9830 
 20
 98.0279 
 30
 0.0000 
  0
VERTEX
  8
3
 70
     32
 10
 377.9651 
 20
 98.0566 
 30
 0.0000 
  0
VERTEX
  8
3
 70
     32
 10
 377.9391 
 20
 98.0979 
 30
 0.0000 
  0
VERTEX
  8
3
 70
     32
 10
 377.9039 
 20
 98.1526 
 30
 0.0000 
  0
VERTEX
  8
3
 70
     32
 10
 377.8588 
 20
 98.2218 
 30
 0.0000 
  0
VERTEX
  8
3
 70
     32
 10
 377.8028 
 20
 98.3062 
 30
 0.0000 
  0
VERTEX
  8
3
 70
     32
 10
 377.7352 
 20
 98.4063 
 30
 0.0000 
  0
VERTEX
  8
3
 70
     32
 10
 377.6555 
 20
 98.5225 
 30
 0.0000 
  0
VERTEX
  8
3
 70
     32
 10
 377.5628 
 20
 98.6552 
 30
 0.0000 
  0
VERTEX
  8
3
 70
     32
 10
 377.4565 
 20
 98.8045 
 30
 0.0000 
  0
VERTEX
  8
3
 70
     32
 10
 377.3361 
 20
 98.9708 
 30
 0.0000 
  0
VERTEX
  8
3
 70
     32
 10
 377.2010 
 20
 99.1540 
 30
 0.0000 
  0
VERTEX
  8
3
 70
     32
 10
 377.0506 
 20
 99.3541 
 30
 0.0000 
  0
VERTEX
  8
3
 70
     32
 10
 376.8843 
 20
 99.5710 
 30
 0.0000 
  0
VERTEX
  8
3
 70
     32
 10
 376.7017 
 20
 99.8047 
 30
 0.0000 
  0
VERTEX
  8
3
 70
     32
 10
 376.5023 
 20
 100.0549 
 30
 0.0000 
  0
VERTEX
  8
3
 70
     32
 10
 376.2856 
 20
 100.3213 
 30
 0.0000 
  0
VERTEX
  8
3
 70
     32
 10
 376.0510 
 20
 100.6037 
 30
 0.0000 
  0
VERTEX
  8
3
 70
     32
 10
 375.7982 
 20
 100.9017 
 30
 0.0000 
  0
VERTEX
  8
3
 70
     32
 10
 375.5266 
 20
 101.2150 
 30
 0.0000 
  0
VERTEX
  8
3
 70
     32
 10
 375.2359 
 20
 101.5429 
 30
 0.0000 
  0
VERTEX
  8
3
 70
     32
 10
 374.9256 
 20
 101.8852 
 30
 0.0000 
  0
VERTEX
  8
3
 70
     32
 10
 374.5952 
 20
 102.2412 
 30
 0.0000 
  0
VERTEX
  8
3
 70
     32
 10
 374.2445 
 20
 102.6103 
 30
 0.0000 
  0
VERTEX
  8
3
 70
     32
 10
 373.8729 
 20
 102.9919 
 30
 0.0000 
  0
VERTEX
  8
3
 70
     32
 10
 373.4800 
 20
 103.3855 
 30
 0.0000 
  0
VERTEX
  8
3
 70
     32
 10
 373.0656 
 20
 103.7902 
 30
 0.0000 
  0
VERTEX
  8
3
 70
     32
 10
 372.6292 
 20
 104.2054 
 30
 0.0000 
  0
VERTEX
  8
3
 70
     32
 10
 372.1703 
 20
 104.6303 
 30
 0.0000 
  0
VERTEX
  8
3
 70
     32
 10
 371.6888 
 20
 105.0640 
 30
 0.0000 
  0
VERTEX
  8
3
 70
     32
 10
 371.1841 
 20
 105.5059 
 30
 0.0000 
  0
VERTEX
  8
3
 70
     32
 10
 370.6559 
 20
 105.9549 
 30
 0.0000 
  0
VERTEX
  8
3
 70
     32
 10
 370.1040 
 20
 106.4102 
 30
 0.0000 
  0
VERTEX
  8
3
 70
     32
 10
 369.5278 
 20
 106.8709 
 30
 0.0000 
  0
VERTEX
  8
3
 70
     32
 10
 368.9272 
 20
 107.3361 
 30
 0.0000 
  0
VERTEX
  8
3
 70
     32
 10
 368.3016 
 20
 107.8047 
 30
 0.0000 
  0
VERTEX
  8
3
 70
     32
 10
 367.6509 
 20
 108.2757 
 30
 0.0000 
  0
VERTEX
  8
3
 70
     32
 10
 366.9747 
 20
 108.7480 
 30
 0.0000 
  0
VERTEX
  8
3
 70
     32
 10
 366.2727 
 20
 109.2207 
 30
 0.0000 
  0
VERTEX
  8
3
 70
     32
 10
 365.5445 
 20
 109.6926 
 30
 0.0000 
  0
VERTEX
  8
3
 70
     32
 10
 364.7898 
 20
 110.1626 
 30
 0.0000 
  0
VERTEX
  8
3
 70
     32
 10
 364.0083 
 20
 110.6295 
 30
 0.0000 
  0
VERTEX
  8
3
 70
     32
 10
 363.1997 
 20
 111.0922 
 30
 0.0000 
  0
VERTEX
  8
3
 70
     32
 10
 362.3637 
 20
 111.5494 
 30
 0.0000 
  0
VERTEX
  8
3
 70
     32
 10
 361.5000 
 20
 112.0000 
 30
 0.0000 
  0
VERTEX
  8
3
 70
     32
 10
 361.5000 
 20
 112.0000 
 30
 0.0000 
 0 
SEQEND
  0
POLYLINE
  8
3
 62
     7
 66
      1
  6
CONTINUOUS
 70
      8
  0
VERTEX
  8
3
 70
     32
 10
 369.0000 
 20
 120.0000 
 30
 0.0000 
  0
VERTEX
  8
3
 70
     32
 10
 369.0000 
 20
 120.0000 
 30
 0.0000 
  0
VERTEX
  8
3
 70
     32
 10
 369.5632 
 20
 119.9692 
 30
 0.0000 
  0
VERTEX
  8
3
 70
     32
 10
 370.1074 
 20
 119.9389 
 30
 0.0000 
  0
VERTEX
  8
3
 70
     32
 10
 370.6325 
 20
 119.9091 
 30
 0.0000 
  0
VERTEX
  8
3
 70
     32
 10
 371.1388 
 20
 119.8798 
 30
 0.0000 
  0
VERTEX
  8
3
 70
     32
 10
 371.6262 
 20
 119.8511 
 30
 0.0000 
  0
VERTEX
  8
3
 70
     32
 10
 372.0949 
 20
 119.8229 
 30
 0.0000 
  0
VERTEX
  8
3
 70
     32
 10
 372.5448 
 20
 119.7953 
 30
 0.0000 
  0
VERTEX
  8
3
 70
     32
 10
 372.9761 
 20
 119.7681 
 30
 0.0000 
  0
VERTEX
  8
3
 70
     32
 10
 373.3889 
 20
 119.7415 
 30
 0.0000 
  0
VERTEX
  8
3
 70
     32
 10
 373.7831 
 20
 119.7154 
 30
 0.0000 
  0
VERTEX
  8
3
 70
     32
 10
 374.1589 
 20
 119.6898 
 30
 0.0000 
  0
VERTEX
  8
3
 70
     32
 10
 374.5164 
 20
 119.6647 
 30
 0.0000 
  0
VERTEX
  8
3
 70
     32
 10
 374.8557 
 20
 119.6401 
 30
 0.0000 
  0
VERTEX
  8
3
 70
     32
 10
 375.1768 
 20
 119.6160 
 30
 0.0000 
  0
VERTEX
  8
3
 70
     32
 10
 375.4798 
 20
 119.5924 
 30
 0.0000 
  0
VERTEX
  8
3
 70
     32
 10
 375.7649 
 20
 119.5694 
 30
 0.0000 
  0
VERTEX
  8
3
 70
     32
 10
 376.0320 
 20
 119.5468 
 30
 0.0000 
  0
VERTEX
  8
3
 70
     32
 10
 376.2815 
 20
 119.5247 
 30
 0.0000 
  0
VERTEX
  8
3
 70
     32
 10
 376.5133 
 20
 119.5031 
 30
 0.0000 
  0
VERTEX
  8
3
 70
     32
 10
 376.7275 
 20
 119.4820 
 30
 0.0000 
  0
VERTEX
  8
3
 70
     32
 10
 376.9244 
 20
 119.4614 
 30
 0.0000 
  0
VERTEX
  8
3
 70
     32
 10
 377.1040 
 20
 119.4413 
 30
 0.0000 
  0
VERTEX
  8
3
 70
     32
 10
 377.2666 
 20
 119.4216 
 30
 0.0000 
  0
VERTEX
  8
3
 70
     32
 10
 377.4121 
 20
 119.4025 
 30
 0.0000 
  0
VERTEX
  8
3
 70
     32
 10
 377.5410 
 20
 119.3837 
 30
 0.0000 
  0
VERTEX
  8
3
 70
     32
 10
 377.6532 
 20
 119.3655 
 30
 0.0000 
  0
VERTEX
  8
3
 70
     32
 10
 377.7491 
 20
 119.3477 
 30
 0.0000 
  0
VERTEX
  8
3
 70
     32
 10
 377.8289 
 20
 119.3304 
 30
 0.0000 
  0
VERTEX
  8
3
 70
     32
 10
 377.8929 
 20
 119.3135 
 30
 0.0000 
  0
VERTEX
  8
3
 70
     32
 10
 377.9415 
 20
 119.2970 
 30
 0.0000 
  0
VERTEX
  8
3
 70
     32
 10
 377.9750 
 20
 119.2809 
 30
 0.0000 
  0
VERTEX
  8
3
 70
     32
 10
 377.9942 
 20
 119.2653 
 30
 0.0000 
  0
VERTEX
  8
3
 70
     32
 10
 378.0000 
 20
 119.2500 
 30
 0.0000 
  0
VERTEX
  8
3
 70
     32
 10
 377.9989 
 20
 119.2349 
 30
 0.0000 
  0
VERTEX
  8
3
 70
     32
 10
 377.9938 
 20
 119.2199 
 30
 0.0000 
  0
VERTEX
  8
3
 70
     32
 10
 377.9830 
 20
 119.2051 
 30
 0.0000 
  0
VERTEX
  8
3
 70
     32
 10
 377.9651 
 20
 119.1905 
 30
 0.0000 
  0
VERTEX
  8
3
 70
     32
 10
 377.9391 
 20
 119.1761 
 30
 0.0000 
  0
VERTEX
  8
3
 70
     32
 10
 377.9039 
 20
 119.1620 
 30
 0.0000 
  0
VERTEX
  8
3
 70
     32
 10
 377.8588 
 20
 119.1481 
 30
 0.0000 
  0
VERTEX
  8
3
 70
     32
 10
 377.8028 
 20
 119.1346 
 30
 0.0000 
  0
VERTEX
  8
3
 70
     32
 10
 377.7352 
 20
 119.1213 
 30
 0.0000 
  0
VERTEX
  8
3
 70
     32
 10
 377.6555 
 20
 119.1085 
 30
 0.0000 
  0
VERTEX
  8
3
 70
     32
 10
 377.5628 
 20
 119.0959 
 30
 0.0000 
  0
VERTEX
  8
3
 70
     32
 10
 377.4565 
 20
 119.0838 
 30
 0.0000 
  0
VERTEX
  8
3
 70
     32
 10
 377.3361 
 20
 119.0720 
 30
 0.0000 
  0
VERTEX
  8
3
 70
     32
 10
 377.2010 
 20
 119.0607 
 30
 0.0000 
  0
VERTEX
  8
3
 70
     32
 10
 377.0506 
 20
 119.0498 
 30
 0.0000 
  0
VERTEX
  8
3
 70
     32
 10
 376.8843 
 20
 119.0393 
 30
 0.0000 
  0
VERTEX
  8
3
 70
     32
 10
 376.7017 
 20
 119.0293 
 30
 0.0000 
  0
VERTEX
  8
3
 70
     32
 10
 376.5023 
 20
 119.0197 
 30
 0.0000 
  0
VERTEX
  8
3
 70
     32
 10
 376.2856 
 20
 119.0106 
 30
 0.0000 
  0
VERTEX
  8
3
 70
     32
 10
 376.0510 
 20
 119.0021 
 30
 0.0000 
  0
VERTEX
  8
3
 70
     32
 10
 375.7982 
 20
 118.9940 
 30
 0.0000 
  0
VERTEX
  8
3
 70
     32
 10
 375.5266 
 20
 118.9865 
 30
 0.0000 
  0
VERTEX
  8
3
 70
     32
 10
 375.2359 
 20
 118.9795 
 30
 0.0000 
  0
VERTEX
  8
3
 70
     32
 10
 374.9256 
 20
 118.9730 
 30
 0.0000 
  0
VERTEX
  8
3
 70
     32
 10
 374.5952 
 20
 118.9671 
 30
 0.0000 
  0
VERTEX
  8
3
 70
     32
 10
 374.2445 
 20
 118.9618 
 30
 0.0000 
  0
VERTEX
  8
3
 70
     32
 10
 373.8729 
 20
 118.9570 
 30
 0.0000 
  0
VERTEX
  8
3
 70
     32
 10
 373.4800 
 20
 118.9529 
 30
 0.0000 
  0
VERTEX
  8
3
 70
     32
 10
 373.0656 
 20
 118.9493 
 30
 0.0000 
  0
VERTEX
  8
3
 70
     32
 10
 372.6292 
 20
 118.9464 
 30
 0.0000 
  0
VERTEX
  8
3
 70
     32
 10
 372.1703 
 20
 118.9441 
 30
 0.0000 
  0
VERTEX
  8
3
 70
     32
 10
 371.6888 
 20
 118.9424 
 30
 0.0000 
  0
VERTEX
  8
3
 70
     32
 10
 371.1841 
 20
 118.9414 
 30
 0.0000 
  0
VERTEX
  8
3
 70
     32
 10
 370.6559 
 20
 118.9410 
 30
 0.0000 
  0
VERTEX
  8
3
 70
     32
 10
 370.1040 
 20
 118.9413 
 30
 0.0000 
  0
VERTEX
  8
3
 70
     32
 10
 369.5278 
 20
 118.9422 
 30
 0.0000 
  0
VERTEX
  8
3
 70
     32
 10
 368.9272 
 20
 118.9439 
 30
 0.0000 
  0
VERTEX
  8
3
 70
     32
 10
 368.3016 
 20
 118.9462 
 30
 0.0000 
  0
VERTEX
  8
3
 70
     32
 10
 367.6509 
 20
 118.9493 
 30
 0.0000 
  0
VERTEX
  8
3
 70
     32
 10
 366.9747 
 20
 118.9530 
 30
 0.0000 
  0
VERTEX
  8
3
 70
     32
 10
 366.2727 
 20
 118.9575 
 30
 0.0000 
  0
VERTEX
  8
3
 70
     32
 10
 365.5445 
 20
 118.9627 
 30
 0.0000 
  0
VERTEX
  8
3
 70
     32
 10
 364.7898 
 20
 118.9687 
 30
 0.0000 
  0
VERTEX
  8
3
 70
     32
 10
 364.0083 
 20
 118.9754 
 30
 0.0000 
  0
VERTEX
  8
3
 70
     32
 10
 363.1997 
 20
 118.9828 
 30
 0.0000 
  0
VERTEX
  8
3
 70
     32
 10
 362.3637 
 20
 118.9910 
 30
 0.0000 
  0
VERTEX
  8
3
 70
     32
 10
 361.5000 
 20
 119.0000 
 30
 0.0000 
  0
VERTEX
  8
3
 70
     32
 10
 361.5000 
 20
 119.0000 
 30
 0.0000 
 0 
SEQEND
  0
POLYLINE
  8
3
 62
     7
 66
      1
  6
CONTINUOUS
 70
      8
  0
VERTEX
  8
3
 70
     32
 10
 333.0000 
 20
 105.5798 
 30
 0.0000 
  0
VERTEX
  8
3
 70
     32
 10
 333.0000 
 20
 105.5798 
 30
 0.0000 
  0
VERTEX
  8
3
 70
     32
 10
 333.0000 
 20
 105.1006 
 30
 0.0000 
  0
VERTEX
  8
3
 70
     32
 10
 333.0000 
 20
 104.6051 
 30
 0.0000 
  0
VERTEX
  8
3
 70
     32
 10
 333.0000 
 20
 104.0956 
 30
 0.0000 
  0
VERTEX
  8
3
 70
     32
 10
 333.0000 
 20
 103.5743 
 30
 0.0000 
  0
VERTEX
  8
3
 70
     32
 10
 333.0000 
 20
 103.0433 
 30
 0.0000 
  0
VERTEX
  8
3
 70
     32
 10
 333.0000 
 20
 102.5048 
 30
 0.0000 
  0
VERTEX
  8
3
 70
     32
 10
 333.0000 
 20
 101.9609 
 30
 0.0000 
  0
VERTEX
  8
3
 70
     32
 10
 333.0000 
 20
 101.4139 
 30
 0.0000 
  0
VERTEX
  8
3
 70
     32
 10
 333.0000 
 20
 100.8658 
 30
 0.0000 
  0
VERTEX
  8
3
 70
     32
 10
 333.0000 
 20
 100.3188 
 30
 0.0000 
  0
VERTEX
  8
3
 70
     32
 10
 333.0000 
 20
 99.7749 
 30
 0.0000 
  0
VERTEX
  8
3
 70
     32
 10
 333.0000 
 20
 99.2362 
 30
 0.0000 
  0
VERTEX
  8
3
 70
     32
 10
 333.0000 
 20
 98.7048 
 30
 0.0000 
  0
VERTEX
  8
3
 70
     32
 10
 333.0000 
 20
 98.1826 
 30
 0.0000 
  0
VERTEX
  8
3
 70
     32
 10
 333.0000 
 20
 97.6718 
 30
 0.0000 
  0
VERTEX
  8
3
 70
     32
 10
 333.0000 
 20
 97.1743 
 30
 0.0000 
  0
VERTEX
  8
3
 70
     32
 10
 333.0000 
 20
 96.6920 
 30
 0.0000 
  0
VERTEX
  8
3
 70
     32
 10
 333.0000 
 20
 96.2269 
 30
 0.0000 
  0
VERTEX
  8
3
 70
     32
 10
 333.0000 
 20
 95.7809 
 30
 0.0000 
  0
VERTEX
  8
3
 70
     32
 10
 333.0000 
 20
 95.3558 
 30
 0.0000 
  0
VERTEX
  8
3
 70
     32
 10
 333.0000 
 20
 94.9535 
 30
 0.0000 
  0
VERTEX
  8
3
 70
     32
 10
 333.0000 
 20
 94.5757 
 30
 0.0000 
  0
VERTEX
  8
3
 70
     32
 10
 333.0000 
 20
 94.2242 
 30
 0.0000 
  0
VERTEX
  8
3
 70
     32
 10
 333.0000 
 20
 93.9007 
 30
 0.0000 
  0
VERTEX
  8
3
 70
     32
 10
 333.0000 
 20
 93.6068 
 30
 0.0000 
  0
VERTEX
  8
3
 70
     32
 10
 333.0000 
 20
 93.3440 
 30
 0.0000 
  0
VERTEX
  8
3
 70
     32
 10
 333.0000 
 20
 93.1137 
 30
 0.0000 
  0
VERTEX
  8
3
 70
     32
 10
 333.0000 
 20
 92.9174 
 30
 0.0000 
  0
VERTEX
  8
3
 70
     32
 10
 333.0000 
 20
 92.7561 
 30
 0.0000 
  0
VERTEX
  8
3
 70
     32
 10
 333.0000 
 20
 92.6308 
 30
 0.0000 
  0
VERTEX
  8
3
 70
     32
 10
 333.0000 
 20
 92.5423 
 30
 0.0000 
  0
VERTEX
  8
3
 70
     32
 10
 333.0000 
 20
 92.4907 
 30
 0.0000 
  0
VERTEX
  8
3
 70
     32
 10
 333.0000 
 20
 92.4747 
 30
 0.0000 
  0
VERTEX
  8
3
 70
     32
 10
 333.0000 
 20
 92.4767 
 30
 0.0000 
  0
VERTEX
  8
3
 70
     32
 10
 333.0000 
 20
 92.4857 
 30
 0.0000 
  0
VERTEX
  8
3
 70
     32
 10
 333.0000 
 20
 92.5047 
 30
 0.0000 
  0
VERTEX
  8
3
 70
     32
 10
 333.0000 
 20
 92.5356 
 30
 0.0000 
  0
VERTEX
  8
3
 70
     32
 10
 333.0000 
 20
 92.5800 
 30
 0.0000 
  0
VERTEX
  8
3
 70
     32
 10
 333.0000 
 20
 92.6391 
 30
 0.0000 
  0
VERTEX
  8
3
 70
     32
 10
 333.0000 
 20
 92.7139 
 30
 0.0000 
  0
VERTEX
  8
3
 70
     32
 10
 333.0000 
 20
 92.8051 
 30
 0.0000 
  0
VERTEX
  8
3
 70
     32
 10
 333.0000 
 20
 92.9135 
 30
 0.0000 
  0
VERTEX
  8
3
 70
     32
 10
 333.0000 
 20
 93.0395 
 30
 0.0000 
  0
VERTEX
  8
3
 70
     32
 10
 333.0000 
 20
 93.1835 
 30
 0.0000 
  0
VERTEX
  8
3
 70
     32
 10
 333.0000 
 20
 93.3460 
 30
 0.0000 
  0
VERTEX
  8
3
 70
     32
 10
 333.0000 
 20
 93.5270 
 30
 0.0000 
  0
VERTEX
  8
3
 70
     32
 10
 333.0000 
 20
 93.7268 
 30
 0.0000 
  0
VERTEX
  8
3
 70
     32
 10
 333.0000 
 20
 93.9453 
 30
 0.0000 
  0
VERTEX
  8
3
 70
     32
 10
 333.0000 
 20
 94.1827 
 30
 0.0000 
  0
VERTEX
  8
3
 70
     32
 10
 333.0000 
 20
 94.4388 
 30
 0.0000 
  0
VERTEX
  8
3
 70
     32
 10
 333.0000 
 20
 94.7134 
 30
 0.0000 
  0
VERTEX
  8
3
 70
     32
 10
 333.0000 
 20
 95.0065 
 30
 0.0000 
  0
VERTEX
  8
3
 70
     32
 10
 333.0000 
 20
 95.3177 
 30
 0.0000 
  0
VERTEX
  8
3
 70
     32
 10
 333.0000 
 20
 95.6468 
 30
 0.0000 
  0
VERTEX
  8
3
 70
     32
 10
 333.0000 
 20
 95.9933 
 30
 0.0000 
  0
VERTEX
  8
3
 70
     32
 10
 333.0000 
 20
 96.3570 
 30
 0.0000 
  0
VERTEX
  8
3
 70
     32
 10
 333.0000 
 20
 96.7374 
 30
 0.0000 
  0
VERTEX
  8
3
 70
     32
 10
 333.0000 
 20
 97.1339 
 30
 0.0000 
  0
VERTEX
  8
3
 70
     32
 10
 333.0000 
 20
 97.5461 
 30
 0.0000 
  0
VERTEX
  8
3
 70
     32
 10
 333.0000 
 20
 97.9734 
 30
 0.0000 
  0
VERTEX
  8
3
 70
     32
 10
 333.0000 
 20
 98.4152 
 30
 0.0000 
  0
VERTEX
  8
3
 70
     32
 10
 333.0000 
 20
 98.8708 
 30
 0.0000 
  0
VERTEX
  8
3
 70
     32
 10
 333.0000 
 20
 99.3395 
 30
 0.0000 
  0
VERTEX
  8
3
 70
     32
 10
 333.0000 
 20
 99.8207 
 30
 0.0000 
  0
VERTEX
  8
3
 70
     32
 10
 333.0000 
 20
 100.3136 
 30
 0.0000 
  0
VERTEX
  8
3
 70
     32
 10
 333.0000 
 20
 100.8174 
 30
 0.0000 
  0
VERTEX
  8
3
 70
     32
 10
 333.0000 
 20
 101.3313 
 30
 0.0000 
  0
VERTEX
  8
3
 70
     32
 10
 333.0000 
 20
 101.8544 
 30
 0.0000 
  0
VERTEX
  8
3
 70
     32
 10
 333.0000 
 20
 102.3859 
 30
 0.0000 
  0
VERTEX
  8
3
 70
     32
 10
 333.0000 
 20
 102.9248 
 30
 0.0000 
  0
VERTEX
  8
3
 70
     32
 10
 333.0000 
 20
 103.4702 
 30
 0.0000 
  0
VERTEX
  8
3
 70
     32
 10
 333.0000 
 20
 104.0211 
 30
 0.0000 
  0
VERTEX
  8
3
 70
     32
 10
 333.0000 
 20
 104.5765 
 30
 0.0000 
  0
VERTEX
  8
3
 70
     32
 10
 333.0000 
 20
 105.1354 
 30
 0.0000 
  0
VERTEX
  8
3
 70
     32
 10
 333.0000 
 20
 105.6967 
 30
 0.0000 
  0
VERTEX
  8
3
 70
     32
 10
 333.0000 
 20
 106.2593 
 30
 0.0000 
  0
VERTEX
  8
3
 70
     32
 10
 333.0000 
 20
 106.8222 
 30
 0.0000 
  0
VERTEX
  8
3
 70
     32
 10
 333.0000 
 20
 107.3842 
 30
 0.0000 
  0
VERTEX
  8
3
 70
     32
 10
 333.0000 
 20
 107.9440 
 30
 0.0000 
  0
VERTEX
  8
3
 70
     32
 10
 333.0000 
 20
 108.5006 
 30
 0.0000 
  0
VERTEX
  8
3
 70
     32
 10
 333.0000 
 20
 108.5006 
 30
 0.0000 
 0 
SEQEND
  0
POLYLINE
  8
3
 62
     7
 66
      1
  6
CONTINUOUS
 70
      8
  0
VERTEX
  8
3
 70
     32
 10
 297.0000 
 20
 110.0000 
 30
 0.0000 
  0
VERTEX
  8
3
 70
     32
 10
 297.0000 
 20
 110.0000 
 30
 0.0000 
  0
VERTEX
  8
3
 70
     32
 10
 296.4368 
 20
 109.5900 
 30
 0.0000 
  0
VERTEX
  8
3
 70
     32
 10
 295.8926 
 20
 109.1613 
 30
 0.0000 
  0
VERTEX
  8
3
 70
     32
 10
 295.3675 
 20
 108.7163 
 30
 0.0000 
  0
VERTEX
  8
3
 70
     32
 10
 294.8612 
 20
 108.2571 
 30
 0.0000 
  0
VERTEX
  8
3
 70
     32
 10
 294.3738 
 20
 107.7860 
 30
 0.0000 
  0
VERTEX
  8
3
 70
     32
 10
 293.9051 
 20
 107.3050 
 30
 0.0000 
  0
VERTEX
  8
3
 70
     32
 10
 293.4552 
 20
 106.8164 
 30
 0.0000 
  0
VERTEX
  8
3
 70
     32
 10
 293.0239 
 20
 106.3223 
 30
 0.0000 
  0
VERTEX
  8
3
 70
     32
 10
 292.6111 
 20
 105.8249 
 30
 0.0000 
  0
VERTEX
  8
3
 70
     32
 10
 292.2169 
 20
 105.3263 
 30
 0.0000 
  0
VERTEX
  8
3
 70
     32
 10
 291.8411 
 20
 104.8285 
 30
 0.0000 
  0
VERTEX
  8
3
 70
     32
 10
 291.4836 
 20
 104.3338 
 30
 0.0000 
  0
VERTEX
  8
3
 70
     32
 10
 291.1443 
 20
 103.8440 
 30
 0.0000 
  0
VERTEX
  8
3
 70
     32
 10
 290.8232 
 20
 103.3613 
 30
 0.0000 
  0
VERTEX
  8
3
 70
     32
 10
 290.5202 
 20
 102.8877 
 30
 0.0000 
  0
VERTEX
  8
3
 70
     32
 10
 290.2351 
 20
 102.4251 
 30
 0.0000 
  0
VERTEX
  8
3
 70
     32
 10
 289.9680 
 20
 101.9757 
 30
 0.0000 
  0
VERTEX
  8
3
 70
     32
 10
 289.7185 
 20
 101.5412 
 30
 0.0000 
  0
VERTEX
  8
3
 70
     32
 10
 289.4867 
 20
 101.1236 
 30
 0.0000 
  0
VERTEX
  8
3
 70
     32
 10
 289.2725 
 20
 100.7249 
 30
 0.0000 
  0
VERTEX
  8
3
 70
     32
 10
 289.0756 
 20
 100.3467 
 30
 0.0000 
  0
VERTEX
  8
3
 70
     32
 10
 288.8960 
 20
 99.9910 
 30
 0.0000 
  0
VERTEX
  8
3
 70
     32
 10
 288.7334 
 20
 99.6595 
 30
 0.0000 
  0
VERTEX
  8
3
 70
     32
 10
 288.5879 
 20
 99.3539 
 30
 0.0000 
  0
VERTEX
  8
3
 70
     32
 10
 288.4590 
 20
 99.0757 
 30
 0.0000 
  0
VERTEX
  8
3
 70
     32
 10
 288.3468 
 20
 98.8267 
 30
 0.0000 
  0
VERTEX
  8
3
 70
     32
 10
 288.2509 
 20
 98.6082 
 30
 0.0000 
  0
VERTEX
  8
3
 70
     32
 10
 288.1711 
 20
 98.4217 
 30
 0.0000 
  0
VERTEX
  8
3
 70
     32
 10
 288.1071 
 20
 98.2682 
 30
 0.0000 
  0
VERTEX
  8
3
 70
     32
 10
 288.0585 
 20
 98.1490 
 30
 0.0000 
  0
VERTEX
  8
3
 70
     32
 10
 288.0250 
 20
 98.0646 
 30
 0.0000 
  0
VERTEX
  8
3
 70
     32
 10
 288.0058 
 20
 98.0153 
 30
 0.0000 
  0
VERTEX
  8
3
 70
     32
 10
 288.0000 
 20
 98.0000 
 30
 0.0000 
  0
VERTEX
  8
3
 70
     32
 10
 288.0011 
 20
 98.0018 
 30
 0.0000 
  0
VERTEX
  8
3
 70
     32
 10
 288.0062 
 20
 98.0102 
 30
 0.0000 
  0
VERTEX
  8
3
 70
     32
 10
 288.0170 
 20
 98.0279 
 30
 0.0000 
  0
VERTEX
  8
3
 70
     32
 10
 288.0349 
 20
 98.0566 
 30
 0.0000 
  0
VERTEX
  8
3
 70
     32
 10
 288.0609 
 20
 98.0979 
 30
 0.0000 
  0
VERTEX
  8
3
 70
     32
 10
 288.0961 
 20
 98.1526 
 30
 0.0000 
  0
VERTEX
  8
3
 70
     32
 10
 288.1412 
 20
 98.2218 
 30
 0.0000 
  0
VERTEX
  8
3
 70
     32
 10
 288.1972 
 20
 98.3062 
 30
 0.0000 
  0
VERTEX
  8
3
 70
     32
 10
 288.2648 
 20
 98.4063 
 30
 0.0000 
  0
VERTEX
  8
3
 70
     32
 10
 288.3445 
 20
 98.5225 
 30
 0.0000 
  0
VERTEX
  8
3
 70
     32
 10
 288.4372 
 20
 98.6552 
 30
 0.0000 
  0
VERTEX
  8
3
 70
     32
 10
 288.5435 
 20
 98.8045 
 30
 0.0000 
  0
VERTEX
  8
3
 70
     32
 10
 288.6639 
 20
 98.9708 
 30
 0.0000 
  0
VERTEX
  8
3
 70
     32
 10
 288.7990 
 20
 99.1540 
 30
 0.0000 
  0
VERTEX
  8
3
 70
     32
 10
 288.9494 
 20
 99.3541 
 30
 0.0000 
  0
VERTEX
  8
3
 70
     32
 10
 289.1157 
 20
 99.5710 
 30
 0.0000 
  0
VERTEX
  8
3
 70
     32
 10
 289.2983 
 20
 99.8047 
 30
 0.0000 
  0
VERTEX
  8
3
 70
     32
 10
 289.4977 
 20
 100.0549 
 30
 0.0000 
  0
VERTEX
  8
3
 70
     32
 10
 289.7144 
 20
 100.3213 
 30
 0.0000 
  0
VERTEX
  8
3
 70
     32
 10
 289.9490 
 20
 100.6037 
 30
 0.0000 
  0
VERTEX
  8
3
 70
     32
 10
 290.2018 
 20
 100.9017 
 30
 0.0000 
  0
VERTEX
  8
3
 70
     32
 10
 290.4734 
 20
 101.2150 
 30
 0.0000 
  0
VERTEX
  8
3
 70
     32
 10
 290.7641 
 20
 101.5429 
 30
 0.0000 
  0
VERTEX
  8
3
 70
     32
 10
 291.0744 
 20
 101.8852 
 30
 0.0000 
  0
VERTEX
  8
3
 70
     32
 10
 291.4048 
 20
 102.2412 
 30
 0.0000 
  0
VERTEX
  8
3
 70
     32
 10
 291.7555 
 20
 102.6103 
 30
 0.0000 
  0
VERTEX
  8
3
 70
     32
 10
 292.1271 
 20
 102.9919 
 30
 0.0000 
  0
VERTEX
  8
3
 70
     32
 10
 292.5200 
 20
 103.3855 
 30
 0.0000 
  0
VERTEX
  8
3
 70
     32
 10
 292.9344 
 20
 103.7902 
 30
 0.0000 
  0
VERTEX
  8
3
 70
     32
 10
 293.3708 
 20
 104.2054 
 30
 0.0000 
  0
VERTEX
  8
3
 70
     32
 10
 293.8297 
 20
 104.6303 
 30
 0.0000 
  0
VERTEX
  8
3
 70
     32
 10
 294.3112 
 20
 105.0640 
 30
 0.0000 
  0
VERTEX
  8
3
 70
     32
 10
 294.8159 
 20
 105.5059 
 30
 0.0000 
  0
VERTEX
  8
3
 70
     32
 10
 295.3441 
 20
 105.9549 
 30
 0.0000 
  0
VERTEX
  8
3
 70
     32
 10
 295.8960 
 20
 106.4102 
 30
 0.0000 
  0
VERTEX
  8
3
 70
     32
 10
 296.4722 
 20
 106.8709 
 30
 0.0000 
  0
VERTEX
  8
3
 70
     32
 10
 297.0728 
 20
 107.3361 
 30
 0.0000 
  0
VERTEX
  8
3
 70
     32
 10
 297.6984 
 20
 107.8047 
 30
 0.0000 
  0
VERTEX
  8
3
 70
     32
 10
 298.3491 
 20
 108.2757 
 30
 0.0000 
  0
VERTEX
  8
3
 70
     32
 10
 299.0253 
 20
 108.7480 
 30
 0.0000 
  0
VERTEX
  8
3
 70
     32
 10
 299.7273 
 20
 109.2207 
 30
 0.0000 
  0
VERTEX
  8
3
 70
     32
 10
 300.4555 
 20
 109.6926 
 30
 0.0000 
  0
VERTEX
  8
3
 70
     32
 10
 301.2102 
 20
 110.1626 
 30
 0.0000 
  0
VERTEX
  8
3
 70
     32
 10
 301.9917 
 20
 110.6295 
 30
 0.0000 
  0
VERTEX
  8
3
 70
     32
 10
 302.8003 
 20
 111.0922 
 30
 0.0000 
  0
VERTEX
  8
3
 70
     32
 10
 303.6363 
 20
 111.5494 
 30
 0.0000 
  0
VERTEX
  8
3
 70
     32
 10
 304.5000 
 20
 112.0000 
 30
 0.0000 
  0
VERTEX
  8
3
 70
     32
 10
 304.5000 
 20
 112.0000 
 30
 0.0000 
 0 
SEQEND
  0
POLYLINE
  8
3
 62
     7
 66
      1
  6
CONTINUOUS
 70
      8
  0
VERTEX
  8
3
 70
     32
 10
 297.0000 
 20
 120.0000 
 30
 0.0000 
  0
VERTEX
  8
3
 70
     32
 10
 297.0000 
 20
 120.0000 
 30
 0.0000 
  0
VERTEX
  8
3
 70
     32
 10
 296.4368 
 20
 119.9692 
 30
 0.0000 
  0
VERTEX
  8
3
 70
     32
 10
 295.8926 
 20
 119.9389 
 30
 0.0000 
  0
VERTEX
  8
3
 70
     32
 10
 295.3675 
 20
 119.9091 
 30
 0.0000 
  0
VERTEX
  8
3
 70
     32
 10
 294.8612 
 20
 119.8798 
 30
 0.0000 
  0
VERTEX
  8
3
 70
     32
 10
 294.3738 
 20
 119.8511 
 30
 0.0000 
  0
VERTEX
  8
3
 70
     32
 10
 293.9051 
 20
 119.8229 
 30
 0.0000 
  0
VERTEX
  8
3
 70
     32
 10
 293.4552 
 20
 119.7953 
 30
 0.0000 
  0
VERTEX
  8
3
 70
     32
 10
 293.0239 
 20
 119.7681 
 30
 0.0000 
  0
VERTEX
  8
3
 70
     32
 10
 292.6111 
 20
 119.7415 
 30
 0.0000 
  0
VERTEX
  8
3
 70
     32
 10
 292.2169 
 20
 119.7154 
 30
 0.0000 
  0
VERTEX
  8
3
 70
     32
 10
 291.8411 
 20
 119.6898 
 30
 0.0000 
  0
VERTEX
  8
3
 70
     32
 10
 291.4836 
 20
 119.6647 
 30
 0.0000 
  0
VERTEX
  8
3
 70
     32
 10
 291.1443 
 20
 119.6401 
 30
 0.0000 
  0
VERTEX
  8
3
 70
     32
 10
 290.8232 
 20
 119.6160 
 30
 0.0000 
  0
VERTEX
  8
3
 70
     32
 10
 290.5202 
 20
 119.5924 
 30
 0.0000 
  0
VERTEX
  8
3
 70
     32
 10
 290.2351 
 20
 119.5694 
 30
 0.0000 
  0
VERTEX
  8
3
 70
     32
 10
 289.9680 
 20
 119.5468 
 30
 0.0000 
  0
VERTEX
  8
3
 70
     32
 10
 289.7185 
 20
 119.5247 
 30
 0.0000 
  0
VERTEX
  8
3
 70
     32
 10
 289.4867 
 20
 119.5031 
 30
 0.0000 
  0
VERTEX
  8
3
 70
     32
 10
 289.2725 
 20
 119.4820 
 30
 0.0000 
  0
VERTEX
  8
3
 70
     32
 10
 289.0756 
 20
 119.4614 
 30
 0.0000 
  0
VERTEX
  8
3
 70
     32
 10
 288.8960 
 20
 119.4413 
 30
 0.0000 
  0
VERTEX
  8
3
 70
     32
 10
 288.7334 
 20
 119.4216 
 30
 0.0000 
  0
VERTEX
  8
3
 70
     32
 10
 288.5879 
 20
 119.4025 
 30
 0.0000 
  0
VERTEX
  8
3
 70
     32
 10
 288.4590 
 20
 119.3837 
 30
 0.0000 
  0
VERTEX
  8
3
 70
     32
 10
 288.3468 
 20
 119.3655 
 30
 0.0000 
  0
VERTEX
  8
3
 70
     32
 10
 288.2509 
 20
 119.3477 
 30
 0.0000 
  0
VERTEX
  8
3
 70
     32
 10
 288.1711 
 20
 119.3304 
 30
 0.0000 
  0
VERTEX
  8
3
 70
     32
 10
 288.1071 
 20
 119.3135 
 30
 0.0000 
  0
VERTEX
  8
3
 70
     32
 10
 288.0585 
 20
 119.2970 
 30
 0.0000 
  0
VERTEX
  8
3
 70
     32
 10
 288.0250 
 20
 119.2809 
 30
 0.0000 
  0
VERTEX
  8
3
 70
     32
 10
 288.0058 
 20
 119.2653 
 30
 0.0000 
  0
VERTEX
  8
3
 70
     32
 10
 288.0000 
 20
 119.2500 
 30
 0.0000 
  0
VERTEX
  8
3
 70
     32
 10
 288.0011 
 20
 119.2349 
 30
 0.0000 
  0
VERTEX
  8
3
 70
     32
 10
 288.0062 
 20
 119.2199 
 30
 0.0000 
  0
VERTEX
  8
3
 70
     32
 10
 288.0170 
 20
 119.2051 
 30
 0.0000 
  0
VERTEX
  8
3
 70
     32
 10
 288.0349 
 20
 119.1905 
 30
 0.0000 
  0
VERTEX
  8
3
 70
     32
 10
 288.0609 
 20
 119.1761 
 30
 0.0000 
  0
VERTEX
  8
3
 70
     32
 10
 288.0961 
 20
 119.1620 
 30
 0.0000 
  0
VERTEX
  8
3
 70
     32
 10
 288.1412 
 20
 119.1481 
 30
 0.0000 
  0
VERTEX
  8
3
 70
     32
 10
 288.1972 
 20
 119.1346 
 30
 0.0000 
  0
VERTEX
  8
3
 70
     32
 10
 288.2648 
 20
 119.1213 
 30
 0.0000 
  0
VERTEX
  8
3
 70
     32
 10
 288.3445 
 20
 119.1085 
 30
 0.0000 
  0
VERTEX
  8
3
 70
     32
 10
 288.4372 
 20
 119.0959 
 30
 0.0000 
  0
VERTEX
  8
3
 70
     32
 10
 288.5435 
 20
 119.0838 
 30
 0.0000 
  0
VERTEX
  8
3
 70
     32
 10
 288.6639 
 20
 119.0720 
 30
 0.0000 
  0
VERTEX
  8
3
 70
     32
 10
 288.7990 
 20
 119.0607 
 30
 0.0000 
  0
VERTEX
  8
3
 70
     32
 10
 288.9494 
 20
 119.0498 
 30
 0.0000 
  0
VERTEX
  8
3
 70
     32
 10
 289.1157 
 20
 119.0393 
 30
 0.0000 
  0
VERTEX
  8
3
 70
     32
 10
 289.2983 
 20
 119.0293 
 30
 0.0000 
  0
VERTEX
  8
3
 70
     32
 10
 289.4977 
 20
 119.0197 
 30
 0.0000 
  0
VERTEX
  8
3
 70
     32
 10
 289.7144 
 20
 119.0106 
 30
 0.0000 
  0
VERTEX
  8
3
 70
     32
 10
 289.9490 
 20
 119.0021 
 30
 0.0000 
  0
VERTEX
  8
3
 70
     32
 10
 290.2018 
 20
 118.9940 
 30
 0.0000 
  0
VERTEX
  8
3
 70
     32
 10
 290.4734 
 20
 118.9865 
 30
 0.0000 
  0
VERTEX
  8
3
 70
     32
 10
 290.7641 
 20
 118.9795 
 30
 0.0000 
  0
VERTEX
  8
3
 70
     32
 10
 291.0744 
 20
 118.9730 
 30
 0.0000 
  0
VERTEX
  8
3
 70
     32
 10
 291.4048 
 20
 118.9671 
 30
 0.0000 
  0
VERTEX
  8
3
 70
     32
 10
 291.7555 
 20
 118.9618 
 30
 0.0000 
  0
VERTEX
  8
3
 70
     32
 10
 292.1271 
 20
 118.9570 
 30
 0.0000 
  0
VERTEX
  8
3
 70
     32
 10
 292.5200 
 20
 118.9529 
 30
 0.0000 
  0
VERTEX
  8
3
 70
     32
 10
 292.9344 
 20
 118.9493 
 30
 0.0000 
  0
VERTEX
  8
3
 70
     32
 10
 293.3708 
 20
 118.9464 
 30
 0.0000 
  0
VERTEX
  8
3
 70
     32
 10
 293.8297 
 20
 118.9441 
 30
 0.0000 
  0
VERTEX
  8
3
 70
     32
 10
 294.3112 
 20
 118.9424 
 30
 0.0000 
  0
VERTEX
  8
3
 70
     32
 10
 294.8159 
 20
 118.9414 
 30
 0.0000 
  0
VERTEX
  8
3
 70
     32
 10
 295.3441 
 20
 118.9410 
 30
 0.0000 
  0
VERTEX
  8
3
 70
     32
 10
 295.8960 
 20
 118.9413 
 30
 0.0000 
  0
VERTEX
  8
3
 70
     32
 10
 296.4722 
 20
 118.9422 
 30
 0.0000 
  0
VERTEX
  8
3
 70
     32
 10
 297.0728 
 20
 118.9439 
 30
 0.0000 
  0
VERTEX
  8
3
 70
     32
 10
 297.6984 
 20
 118.9462 
 30
 0.0000 
  0
VERTEX
  8
3
 70
     32
 10
 298.3491 
 20
 118.9493 
 30
 0.0000 
  0
VERTEX
  8
3
 70
     32
 10
 299.0253 
 20
 118.9530 
 30
 0.0000 
  0
VERTEX
  8
3
 70
     32
 10
 299.7273 
 20
 118.9575 
 30
 0.0000 
  0
VERTEX
  8
3
 70
     32
 10
 300.4555 
 20
 118.9627 
 30
 0.0000 
  0
VERTEX
  8
3
 70
     32
 10
 301.2102 
 20
 118.9687 
 30
 0.0000 
  0
VERTEX
  8
3
 70
     32
 10
 301.9917 
 20
 118.9754 
 30
 0.0000 
  0
VERTEX
  8
3
 70
     32
 10
 302.8003 
 20
 118.9828 
 30
 0.0000 
  0
VERTEX
  8
3
 70
     32
 10
 303.6363 
 20
 118.9910 
 30
 0.0000 
  0
VERTEX
  8
3
 70
     32
 10
 304.5000 
 20
 119.0000 
 30
 0.0000 
  0
VERTEX
  8
3
 70
     32
 10
 304.5000 
 20
 119.0000 
 30
 0.0000 
 0 
SEQEND
  0
POLYLINE
  8
4
 62
     5
 66
      1
  6
CONTINUOUS
 70
      8
  0
VERTEX
  8
4
 70
     32
 10
 293.0239 
 20
 119.7681 
 30
 0.0000 
  0
VERTEX
  8
4
 70
     32
 10
 293.0239 
 20
 106.3223 
 30
 0.0000 
  0
VERTEX
  8
4
 70
     32
 10
 297.0215 
 20
 105.8315 
 30
 0.0000 
  0
VERTEX
  8
4
 70
     32
 10
 301.0191 
 20
 105.3407 
 30
 0.0000 
  0
VERTEX
  8
4
 70
     32
 10
 305.0167 
 20
 104.8498 
 30
 0.0000 
  0
VERTEX
  8
4
 70
     32
 10
 309.0143 
 20
 104.3590 
 30
 0.0000 
  0
VERTEX
  8
4
 70
     32
 10
 313.0119 
 20
 103.8681 
 30
 0.0000 
  0
VERTEX
  8
4
 70
     32
 10
 317.0095 
 20
 103.3773 
 30
 0.0000 
  0
VERTEX
  8
4
 70
     32
 10
 321.0072 
 20
 102.8864 
 30
 0.0000 
  0
VERTEX
  8
4
 70
     32
 10
 325.0048 
 20
 102.3956 
 30
 0.0000 
  0
VERTEX
  8
4
 70
     32
 10
 329.0024 
 20
 101.9047 
 30
 0.0000 
  0
VERTEX
  8
4
 70
     32
 10
 333.0000 
 20
 101.4139 
 30
 0.0000 
  0
VERTEX
  8
4
 70
     32
 10
 336.9976 
 20
 101.9047 
 30
 0.0000 
  0
VERTEX
  8
4
 70
     32
 10
 340.9952 
 20
 102.3956 
 30
 0.0000 
  0
VERTEX
  8
4
 70
     32
 10
 344.9928 
 20
 102.8864 
 30
 0.0000 
  0
VERTEX
  8
4
 70
     32
 10
 348.9905 
 20
 103.3773 
 30
 0.0000 
  0
VERTEX
  8
4
 70
     32
 10
 352.9881 
 20
 103.8681 
 30
 0.0000 
  0
VERTEX
  8
4
 70
     32
 10
 356.9857 
 20
 104.3590 
 30
 0.0000 
  0
VERTEX
  8
4
 70
     32
 10
 360.9833 
 20
 104.8498 
 30
 0.0000 
  0
VERTEX
  8
4
 70
     32
 10
 364.9809 
 20
 105.3407 
 30
 0.0000 
  0
VERTEX
  8
4
 70
     32
 10
 368.9785 
 20
 105.8315 
 30
 0.0000 
  0
VERTEX
  8
4
 70
     32
 10
 372.9761 
 20
 106.3223 
 30
 0.0000 
  0
VERTEX
  8
4
 70
     32
 10
 372.9761 
 20
 119.7681 
 30
 0.0000 
 0 
SEQEND
  0
POLYLINE
  8
4
 62
     5
 66
      1
  6
CONTINUOUS
 70
      8
  0
VERTEX
  8
4
 70
     32
 10
 290.2351 
 20
 119.5694 
 30
 0.0000 
  0
VERTEX
  8
4
 70
     32
 10
 290.2351 
 20
 102.4251 
 30
 0.0000 
  0
VERTEX
  8
4
 70
     32
 10
 294.5116 
 20
 101.9001 
 30
 0.0000 
  0
VERTEX
  8
4
 70
     32
 10
 298.7881 
 20
 101.3750 
 30
 0.0000 
  0
VERTEX
  8
4
 70
     32
 10
 303.0646 
 20
 100.8499 
 30
 0.0000 
  0
VERTEX
  8
4
 70
     32
 10
 307.3411 
 20
 100.3248 
 30
 0.0000 
  0
VERTEX
  8
4
 70
     32
 10
 311.6176 
 20
 99.7997 
 30
 0.0000 
  0
VERTEX
  8
4
 70
     32
 10
 315.8941 
 20
 99.2746 
 30
 0.0000 
  0
VERTEX
  8
4
 70
     32
 10
 320.1705 
 20
 98.7495 
 30
 0.0000 
  0
VERTEX
  8
4
 70
     32
 10
 324.4470 
 20
 98.2244 
 30
 0.0000 
  0
VERTEX
  8
4
 70
     32
 10
 328.7235 
 20
 97.6994 
 30
 0.0000 
  0
VERTEX
  8
4
 70
     32
 10
 333.0000 
 20
 97.1743 
 30
 0.0000 
  0
VERTEX
  8
4
 70
     32
 10
 337.2765 
 20
 97.6994 
 30
 0.0000 
  0
VERTEX
  8
4
 70
     32
 10
 341.5530 
 20
 98.2244 
 30
 0.0000 
  0
VERTEX
  8
4
 70
     32
 10
 345.8295 
 20
 98.7495 
 30
 0.0000 
  0
VERTEX
  8
4
 70
     32
 10
 350.1059 
 20
 99.2746 
 30
 0.0000 
  0
VERTEX
  8
4
 70
     32
 10
 354.3824 
 20
 99.7997 
 30
 0.0000 
  0
VERTEX
  8
4
 70
     32
 10
 358.6589 
 20
 100.3248 
 30
 0.0000 
  0
VERTEX
  8
4
 70
     32
 10
 362.9354 
 20
 100.8499 
 30
 0.0000 
  0
VERTEX
  8
4
 70
     32
 10
 367.2119 
 20
 101.3750 
 30
 0.0000 
  0
VERTEX
  8
4
 70
     32
 10
 371.4884 
 20
 101.9001 
 30
 0.0000 
  0
VERTEX
  8
4
 70
     32
 10
 375.7649 
 20
 102.4251 
 30
 0.0000 
  0
VERTEX
  8
4
 70
     32
 10
 375.7649 
 20
 119.5694 
 30
 0.0000 
 0 
SEQEND
  0
POLYLINE
  8
4
 62
     5
 66
      1
  6
CONTINUOUS
 70
      8
  0
VERTEX
  8
4
 70
     32
 10
 288.5879 
 20
 119.4025 
 30
 0.0000 
  0
VERTEX
  8
4
 70
     32
 10
 288.5879 
 20
 99.3539 
 30
 0.0000 
  0
VERTEX
  8
4
 70
     32
 10
 293.0291 
 20
 98.8085 
 30
 0.0000 
  0
VERTEX
  8
4
 70
     32
 10
 297.4703 
 20
 98.2632 
 30
 0.0000 
  0
VERTEX
  8
4
 70
     32
 10
 301.9115 
 20
 97.7179 
 30
 0.0000 
  0
VERTEX
  8
4
 70
     32
 10
 306.3527 
 20
 97.1726 
 30
 0.0000 
  0
VERTEX
  8
4
 70
     32
 10
 310.7939 
 20
 96.6273 
 30
 0.0000 
  0
VERTEX
  8
4
 70
     32
 10
 315.2351 
 20
 96.0820 
 30
 0.0000 
  0
VERTEX
  8
4
 70
     32
 10
 319.6764 
 20
 95.5367 
 30
 0.0000 
  0
VERTEX
  8
4
 70
     32
 10
 324.1176 
 20
 94.9914 
 30
 0.0000 
  0
VERTEX
  8
4
 70
     32
 10
 328.5588 
 20
 94.4460 
 30
 0.0000 
  0
VERTEX
  8
4
 70
     32
 10
 333.0000 
 20
 93.9007 
 30
 0.0000 
  0
VERTEX
  8
4
 70
     32
 10
 337.4412 
 20
 94.4460 
 30
 0.0000 
  0
VERTEX
  8
4
 70
     32
 10
 341.8824 
 20
 94.9914 
 30
 0.0000 
  0
VERTEX
  8
4
 70
     32
 10
 346.3236 
 20
 95.5367 
 30
 0.0000 
  0
VERTEX
  8
4
 70
     32
 10
 350.7649 
 20
 96.0820 
 30
 0.0000 
  0
VERTEX
  8
4
 70
     32
 10
 355.2061 
 20
 96.6273 
 30
 0.0000 
  0
VERTEX
  8
4
 70
     32
 10
 359.6473 
 20
 97.1726 
 30
 0.0000 
  0
VERTEX
  8
4
 70
     32
 10
 364.0885 
 20
 97.7179 
 30
 0.0000 
  0
VERTEX
  8
4
 70
     32
 10
 368.5297 
 20
 98.2632 
 30
 0.0000 
  0
VERTEX
  8
4
 70
     32
 10
 372.9709 
 20
 98.8085 
 30
 0.0000 
  0
VERTEX
  8
4
 70
     32
 10
 377.4121 
 20
 99.3539 
 30
 0.0000 
  0
VERTEX
  8
4
 70
     32
 10
 377.4121 
 20
 119.4025 
 30
 0.0000 
 0 
SEQEND
  0
POLYLINE
  8
4
 62
     5
 66
      1
  6
CONTINUOUS
 70
      8
  0
VERTEX
  8
4
 70
     32
 10
 288.0058 
 20
 119.2653 
 30
 0.0000 
  0
VERTEX
  8
4
 70
     32
 10
 288.0058 
 20
 98.0153 
 30
 0.0000 
  0
VERTEX
  8
4
 70
     32
 10
 292.5052 
 20
 97.4628 
 30
 0.0000 
  0
VERTEX
  8
4
 70
     32
 10
 297.0047 
 20
 96.9104 
 30
 0.0000 
  0
VERTEX
  8
4
 70
     32
 10
 301.5041 
 20
 96.3579 
 30
 0.0000 
  0
VERTEX
  8
4
 70
     32
 10
 306.0035 
 20
 95.8055 
 30
 0.0000 
  0
VERTEX
  8
4
 70
     32
 10
 310.5029 
 20
 95.2530 
 30
 0.0000 
  0
VERTEX
  8
4
 70
     32
 10
 315.0023 
 20
 94.7005 
 30
 0.0000 
  0
VERTEX
  8
4
 70
     32
 10
 319.5017 
 20
 94.1481 
 30
 0.0000 
  0
VERTEX
  8
4
 70
     32
 10
 324.0012 
 20
 93.5956 
 30
 0.0000 
  0
VERTEX
  8
4
 70
     32
 10
 328.5006 
 20
 93.0432 
 30
 0.0000 
  0
VERTEX
  8
4
 70
     32
 10
 333.0000 
 20
 92.4907 
 30
 0.0000 
  0
VERTEX
  8
4
 70
     32
 10
 337.4994 
 20
 93.0432 
 30
 0.0000 
  0
VERTEX
  8
4
 70
     32
 10
 341.9988 
 20
 93.5956 
 30
 0.0000 
  0
VERTEX
  8
4
 70
     32
 10
 346.4983 
 20
 94.1481 
 30
 0.0000 
  0
VERTEX
  8
4
 70
     32
 10
 350.9977 
 20
 94.7005 
 30
 0.0000 
  0
VERTEX
  8
4
 70
     32
 10
 355.4971 
 20
 95.2530 
 30
 0.0000 
  0
VERTEX
  8
4
 70
     32
 10
 359.9965 
 20
 95.8055 
 30
 0.0000 
  0
VERTEX
  8
4
 70
     32
 10
 364.4959 
 20
 96.3579 
 30
 0.0000 
  0
VERTEX
  8
4
 70
     32
 10
 368.9953 
 20
 96.9104 
 30
 0.0000 
  0
VERTEX
  8
4
 70
     32
 10
 373.4948 
 20
 97.4628 
 30
 0.0000 
  0
VERTEX
  8
4
 70
     32
 10
 377.9942 
 20
 98.0153 
 30
 0.0000 
  0
VERTEX
  8
4
 70
     32
 10
 377.9942 
 20
 119.2653 
 30
 0.0000 
 0 
SEQEND
  0
POLYLINE
  8
4
 62
     5
 66
      1
  6
CONTINUOUS
 70
      8
  0
VERTEX
  8
4
 70
     32
 10
 288.1412 
 20
 119.1481 
 30
 0.0000 
  0
VERTEX
  8
4
 70
     32
 10
 288.1412 
 20
 98.2218 
 30
 0.0000 
  0
VERTEX
  8
4
 70
     32
 10
 292.6271 
 20
 97.6710 
 30
 0.0000 
  0
VERTEX
  8
4
 70
     32
 10
 297.1130 
 20
 97.1203 
 30
 0.0000 
  0
VERTEX
  8
4
 70
     32
 10
 301.5989 
 20
 96.5695 
 30
 0.0000 
  0
VERTEX
  8
4
 70
     32
 10
 306.0847 
 20
 96.0187 
 30
 0.0000 
  0
VERTEX
  8
4
 70
     32
 10
 310.5706 
 20
 95.4679 
 30
 0.0000 
  0
VERTEX
  8
4
 70
     32
 10
 315.0565 
 20
 94.9171 
 30
 0.0000 
  0
VERTEX
  8
4
 70
     32
 10
 319.5424 
 20
 94.3663 
 30
 0.0000 
  0
VERTEX
  8
4
 70
     32
 10
 324.0282 
 20
 93.8155 
 30
 0.0000 
  0
VERTEX
  8
4
 70
     32
 10
 328.5141 
 20
 93.2647 
 30
 0.0000 
  0
VERTEX
  8
4
 70
     32
 10
 333.0000 
 20
 92.7139 
 30
 0.0000 
  0
VERTEX
  8
4
 70
     32
 10
 337.4859 
 20
 93.2647 
 30
 0.0000 
  0
VERTEX
  8
4
 70
     32
 10
 341.9718 
 20
 93.8155 
 30
 0.0000 
  0
VERTEX
  8
4
 70
     32
 10
 346.4576 
 20
 94.3663 
 30
 0.0000 
  0
VERTEX
  8
4
 70
     32
 10
 350.9435 
 20
 94.9171 
 30
 0.0000 
  0
VERTEX
  8
4
 70
     32
 10
 355.4294 
 20
 95.4679 
 30
 0.0000 
  0
VERTEX
  8
4
 70
     32
 10
 359.9153 
 20
 96.0187 
 30
 0.0000 
  0
VERTEX
  8
4
 70
     32
 10
 364.4011 
 20
 96.5695 
 30
 0.0000 
  0
VERTEX
  8
4
 70
     32
 10
 368.8870 
 20
 97.1203 
 30
 0.0000 
  0
VERTEX
  8
4
 70
     32
 10
 373.3729 
 20
 97.6710 
 30
 0.0000 
  0
VERTEX
  8
4
 70
     32
 10
 377.8588 
 20
 98.2218 
 30
 0.0000 
  0
VERTEX
  8
4
 70
     32
 10
 377.8588 
 20
 119.1481 
 30
 0.0000 
 0 
SEQEND
  0
POLYLINE
  8
4
 62
     5
 66
      1
  6
CONTINUOUS
 70
      8
  0
VERTEX
  8
4
 70
     32
 10
 288.9494 
 20
 119.0498 
 30
 0.0000 
  0
VERTEX
  8
4
 70
     32
 10
 288.9494 
 20
 99.3541 
 30
 0.0000 
  0
VERTEX
  8
4
 70
     32
 10
 293.3545 
 20
 98.8132 
 30
 0.0000 
  0
VERTEX
  8
4
 70
     32
 10
 297.7596 
 20
 98.2723 
 30
 0.0000 
  0
VERTEX
  8
4
 70
     32
 10
 302.1646 
 20
 97.7315 
 30
 0.0000 
  0
VERTEX
  8
4
 70
     32
 10
 306.5697 
 20
 97.1906 
 30
 0.0000 
  0
VERTEX
  8
4
 70
     32
 10
 310.9747 
 20
 96.6497 
 30
 0.0000 
  0
VERTEX
  8
4
 70
     32
 10
 315.3798 
 20
 96.1088 
 30
 0.0000 
  0
VERTEX
  8
4
 70
     32
 10
 319.7848 
 20
 95.5680 
 30
 0.0000 
  0
VERTEX
  8
4
 70
     32
 10
 324.1899 
 20
 95.0271 
 30
 0.0000 
  0
VERTEX
  8
4
 70
     32
 10
 328.5949 
 20
 94.4862 
 30
 0.0000 
  0
VERTEX
  8
4
 70
     32
 10
 333.0000 
 20
 93.9453 
 30
 0.0000 
  0
VERTEX
  8
4
 70
     32
 10
 337.4051 
 20
 94.4862 
 30
 0.0000 
  0
VERTEX
  8
4
 70
     32
 10
 341.8101 
 20
 95.0271 
 30
 0.0000 
  0
VERTEX
  8
4
 70
     32
 10
 346.2152 
 20
 95.5680 
 30
 0.0000 
  0
VERTEX
  8
4
 70
     32
 10
 350.6202 
 20
 96.1088 
 30
 0.0000 
  0
VERTEX
  8
4
 70
     32
 10
 355.0253 
 20
 96.6497 
 30
 0.0000 
  0
VERTEX
  8
4
 70
     32
 10
 359.4303 
 20
 97.1906 
 30
 0.0000 
  0
VERTEX
  8
4
 70
     32
 10
 363.8354 
 20
 97.7315 
 30
 0.0000 
  0
VERTEX
  8
4
 70
     32
 10
 368.2404 
 20
 98.2723 
 30
 0.0000 
  0
VERTEX
  8
4
 70
     32
 10
 372.6455 
 20
 98.8132 
 30
 0.0000 
  0
VERTEX
  8
4
 70
     32
 10
 377.0506 
 20
 99.3541 
 30
 0.0000 
  0
VERTEX
  8
4
 70
     32
 10
 377.0506 
 20
 119.0498 
 30
 0.0000 
 0 
SEQEND
  0
POLYLINE
  8
4
 62
     5
 66
      1
  6
CONTINUOUS
 70
      8
  0
VERTEX
  8
4
 70
     32
 10
 290.7641 
 20
 118.9795 
 30
 0.0000 
  0
VERTEX
  8
4
 70
     32
 10
 290.7641 
 20
 101.5429 
 30
 0.0000 
  0
VERTEX
  8
4
 70
     32
 10
 294.9877 
 20
 101.0243 
 30
 0.0000 
  0
VERTEX
  8
4
 70
     32
 10
 299.2113 
 20
 100.5058 
 30
 0.0000 
  0
VERTEX
  8
4
 70
     32
 10
 303.4349 
 20
 99.9872 
 30
 0.0000 
  0
VERTEX
  8
4
 70
     32
 10
 307.6585 
 20
 99.4686 
 30
 0.0000 
  0
VERTEX
  8
4
 70
     32
 10
 311.8821 
 20
 98.9500 
 30
 0.0000 
  0
VERTEX
  8
4
 70
     32
 10
 316.1057 
 20
 98.4314 
 30
 0.0000 
  0
VERTEX
  8
4
 70
     32
 10
 320.3292 
 20
 97.9128 
 30
 0.0000 
  0
VERTEX
  8
4
 70
     32
 10
 324.5528 
 20
 97.3942 
 30
 0.0000 
  0
VERTEX
  8
4
 70
     32
 10
 328.7764 
 20
 96.8756 
 30
 0.0000 
  0
VERTEX
  8
4
 70
     32
 10
 333.0000 
 20
 96.3570 
 30
 0.0000 
  0
VERTEX
  8
4
 70
     32
 10
 337.2236 
 20
 96.8756 
 30
 0.0000 
  0
VERTEX
  8
4
 70
     32
 10
 341.4472 
 20
 97.3942 
 30
 0.0000 
  0
VERTEX
  8
4
 70
     32
 10
 345.6708 
 20
 97.9128 
 30
 0.0000 
  0
VERTEX
  8
4
 70
     32
 10
 349.8943 
 20
 98.4314 
 30
 0.0000 
  0
VERTEX
  8
4
 70
     32
 10
 354.1179 
 20
 98.9500 
 30
 0.0000 
  0
VERTEX
  8
4
 70
     32
 10
 358.3415 
 20
 99.4686 
 30
 0.0000 
  0
VERTEX
  8
4
 70
     32
 10
 362.5651 
 20
 99.9872 
 30
 0.0000 
  0
VERTEX
  8
4
 70
     32
 10
 366.7887 
 20
 100.5058 
 30
 0.0000 
  0
VERTEX
  8
4
 70
     32
 10
 371.0123 
 20
 101.0243 
 30
 0.0000 
  0
VERTEX
  8
4
 70
     32
 10
 375.2359 
 20
 101.5429 
 30
 0.0000 
  0
VERTEX
  8
4
 70
     32
 10
 375.2359 
 20
 118.9795 
 30
 0.0000 
 0 
SEQEND
  0
POLYLINE
  8
4
 62
     5
 66
      1
  6
CONTINUOUS
 70
      8
  0
VERTEX
  8
4
 70
     32
 10
 293.8297 
 20
 118.9441 
 30
 0.0000 
  0
VERTEX
  8
4
 70
     32
 10
 293.8297 
 20
 104.6303 
 30
 0.0000 
  0
VERTEX
  8
4
 70
     32
 10
 297.7467 
 20
 104.1493 
 30
 0.0000 
  0
VERTEX
  8
4
 70
     32
 10
 301.6637 
 20
 103.6684 
 30
 0.0000 
  0
VERTEX
  8
4
 70
     32
 10
 305.5808 
 20
 103.1874 
 30
 0.0000 
  0
VERTEX
  8
4
 70
     32
 10
 309.4978 
 20
 102.7065 
 30
 0.0000 
  0
VERTEX
  8
4
 70
     32
 10
 313.4148 
 20
 102.2255 
 30
 0.0000 
  0
VERTEX
  8
4
 70
     32
 10
 317.3319 
 20
 101.7445 
 30
 0.0000 
  0
VERTEX
  8
4
 70
     32
 10
 321.2489 
 20
 101.2636 
 30
 0.0000 
  0
VERTEX
  8
4
 70
     32
 10
 325.1659 
 20
 100.7826 
 30
 0.0000 
  0
VERTEX
  8
4
 70
     32
 10
 329.0830 
 20
 100.3017 
 30
 0.0000 
  0
VERTEX
  8
4
 70
     32
 10
 333.0000 
 20
 99.8207 
 30
 0.0000 
  0
VERTEX
  8
4
 70
     32
 10
 336.9170 
 20
 100.3017 
 30
 0.0000 
  0
VERTEX
  8
4
 70
     32
 10
 340.8341 
 20
 100.7826 
 30
 0.0000 
  0
VERTEX
  8
4
 70
     32
 10
 344.7511 
 20
 101.2636 
 30
 0.0000 
  0
VERTEX
  8
4
 70
     32
 10
 348.6681 
 20
 101.7445 
 30
 0.0000 
  0
VERTEX
  8
4
 70
     32
 10
 352.5852 
 20
 102.2255 
 30
 0.0000 
  0
VERTEX
  8
4
 70
     32
 10
 356.5022 
 20
 102.7065 
 30
 0.0000 
  0
VERTEX
  8
4
 70
     32
 10
 360.4192 
 20
 103.1874 
 30
 0.0000 
  0
VERTEX
  8
4
 70
     32
 10
 364.3363 
 20
 103.6684 
 30
 0.0000 
  0
VERTEX
  8
4
 70
     32
 10
 368.2533 
 20
 104.1493 
 30
 0.0000 
  0
VERTEX
  8
4
 70
     32
 10
 372.1703 
 20
 104.6303 
 30
 0.0000 
  0
VERTEX
  8
4
 70
     32
 10
 372.1703 
 20
 118.9441 
 30
 0.0000 
 0 
SEQEND
  0
POLYLINE
  8
4
 62
     5
 66
      1
  6
CONTINUOUS
 70
      8
  0
VERTEX
  8
4
 70
     32
 10
 298.3491 
 20
 118.9493 
 30
 0.0000 
  0
VERTEX
  8
4
 70
     32
 10
 298.3491 
 20
 108.2757 
 30
 0.0000 
  0
VERTEX
  8
4
 70
     32
 10
 301.8142 
 20
 107.8502 
 30
 0.0000 
  0
VERTEX
  8
4
 70
     32
 10
 305.2792 
 20
 107.4247 
 30
 0.0000 
  0
VERTEX
  8
4
 70
     32
 10
 308.7443 
 20
 106.9993 
 30
 0.0000 
  0
VERTEX
  8
4
 70
     32
 10
 312.2094 
 20
 106.5738 
 30
 0.0000 
  0
VERTEX
  8
4
 70
     32
 10
 315.6745 
 20
 106.1484 
 30
 0.0000 
  0
VERTEX
  8
4
 70
     32
 10
 319.1396 
 20
 105.7229 
 30
 0.0000 
  0
VERTEX
  8
4
 70
     32
 10
 322.6047 
 20
 105.2974 
 30
 0.0000 
  0
VERTEX
  8
4
 70
     32
 10
 326.0698 
 20
 104.8720 
 30
 0.0000 
  0
VERTEX
  8
4
 70
     32
 10
 329.5349 
 20
 104.4465 
 30
 0.0000 
  0
VERTEX
  8
4
 70
     32
 10
 333.0000 
 20
 104.0211 
 30
 0.0000 
  0
VERTEX
  8
4
 70
     32
 10
 336.4651 
 20
 104.4465 
 30
 0.0000 
  0
VERTEX
  8
4
 70
     32
 10
 339.9302 
 20
 104.8720 
 30
 0.0000 
  0
VERTEX
  8
4
 70
     32
 10
 343.3953 
 20
 105.2974 
 30
 0.0000 
  0
VERTEX
  8
4
 70
     32
 10
 346.8604 
 20
 105.7229 
 30
 0.0000 
  0
VERTEX
  8
4
 70
     32
 10
 350.3255 
 20
 106.1484 
 30
 0.0000 
  0
VERTEX
  8
4
 70
     32
 10
 353.7906 
 20
 106.5738 
 30
 0.0000 
  0
VERTEX
  8
4
 70
     32
 10
 357.2557 
 20
 106.9993 
 30
 0.0000 
  0
VERTEX
  8
4
 70
     32
 10
 360.7208 
 20
 107.4247 
 30
 0.0000 
  0
VERTEX
  8
4
 70
     32
 10
 364.1858 
 20
 107.8502 
 30
 0.0000 
  0
VERTEX
  8
4
 70
     32
 10
 367.6509 
 20
 108.2757 
 30
 0.0000 
  0
VERTEX
  8
4
 70
     32
 10
 367.6509 
 20
 118.9493 
 30
 0.0000 
 0 
SEQEND
  0
POLYLINE
  8
4
 62
     5
 66
      1
  6
CONTINUOUS
 70
      8
  0
VERTEX
  8
4
 70
     32
 10
 304.5000 
 20
 119.0000 
 30
 0.0000 
  0
VERTEX
  8
4
 70
     32
 10
 304.5000 
 20
 112.0000 
 30
 0.0000 
  0
VERTEX
  8
4
 70
     32
 10
 307.3500 
 20
 111.6501 
 30
 0.0000 
  0
VERTEX
  8
4
 70
     32
 10
 310.2000 
 20
 111.3001 
 30
 0.0000 
  0
VERTEX
  8
4
 70
     32
 10
 313.0500 
 20
 110.9502 
 30
 0.0000 
  0
VERTEX
  8
4
 70
     32
 10
 315.9000 
 20
 110.6003 
 30
 0.0000 
  0
VERTEX
  8
4
 70
     32
 10
 318.7500 
 20
 110.2503 
 30
 0.0000 
  0
VERTEX
  8
4
 70
     32
 10
 321.6000 
 20
 109.9004 
 30
 0.0000 
  0
VERTEX
  8
4
 70
     32
 10
 324.4500 
 20
 109.5504 
 30
 0.0000 
  0
VERTEX
  8
4
 70
     32
 10
 327.3000 
 20
 109.2005 
 30
 0.0000 
  0
VERTEX
  8
4
 70
     32
 10
 330.1500 
 20
 108.8506 
 30
 0.0000 
  0
VERTEX
  8
4
 70
     32
 10
 333.0000 
 20
 108.5006 
 30
 0.0000 
  0
VERTEX
  8
4
 70
     32
 10
 335.8500 
 20
 108.8506 
 30
 0.0000 
  0
VERTEX
  8
4
 70
     32
 10
 338.7000 
 20
 109.2005 
 30
 0.0000 
  0
VERTEX
  8
4
 70
     32
 10
 341.5500 
 20
 109.5504 
 30
 0.0000 
  0
VERTEX
  8
4
 70
     32
 10
 344.4000 
 20
 109.9004 
 30
 0.0000 
  0
VERTEX
  8
4
 70
     32
 10
 347.2500 
 20
 110.2503 
 30
 0.0000 
  0
VERTEX
  8
4
 70
     32
 10
 350.1000 
 20
 110.6003 
 30
 0.0000 
  0
VERTEX
  8
4
 70
     32
 10
 352.9500 
 20
 110.9502 
 30
 0.0000 
  0
VERTEX
  8
4
 70
     32
 10
 355.8000 
 20
 111.3001 
 30
 0.0000 
  0
VERTEX
  8
4
 70
     32
 10
 358.6500 
 20
 111.6501 
 30
 0.0000 
  0
VERTEX
  8
4
 70
     32
 10
 361.5000 
 20
 112.0000 
 30
 0.0000 
  0
VERTEX
  8
4
 70
     32
 10
 361.5000 
 20
 119.0000 
 30
 0.0000 
 0 
SEQEND
  0
POLYLINE
  8
5
 62
     6
 66
      1
  6
CONTINUOUS
 70
      8
  0
VERTEX
  8
5
 70
     32
 10
-1.0000 
 20
 0.0000 
 30
 0.0000 
  0
VERTEX
  8
5
 70
     32
 10
 241.0000 
 20
 0.0000 
 30
 0.0000 
 0 
SEQEND
  0
POLYLINE
  8
5
 62
     6
 66
      1
  6
CONTINUOUS
 70
      8
  0
VERTEX
  8
5
 70
     32
 10
-1.0000 
 20
 98.0000 
 30
 0.0000 
  0
VERTEX
  8
5
 70
     32
 10
 241.0000 
 20
 98.0000 
 30
 0.0000 
 0 
SEQEND
  0
POLYLINE
  8
5
 62
     6
 66
      1
  6
CONTINUOUS
 70
      8
  0
VERTEX
  8
5
 70
     32
 10
 287.0000 
 20
 46.0000 
 30
 0.0000 
  0
VERTEX
  8
5
 70
     32
 10
 379.0000 
 20
-46.0000 
 30
 0.0000 
 0 
SEQEND
  0
POLYLINE
  8
5
 62
     6
 66
      1
  6
CONTINUOUS
 70
      8
  0
VERTEX
  8
5
 70
     32
 10
 333.0000 
 20
 0.0000 
 30
 0.0000 
  0
VERTEX
  8
5
 70
     32
 10
 333.0000 
 20
 121.0000 
 30
 0.0000 
 0 
SEQEND
  0
POLYLINE
  8
5
 62
     6
 66
      1
  6
CONTINUOUS
 70
      8
  0
VERTEX
  8
5
 70
     32
 10
 296.2000 
 20
 98.0000 
 30
 0.0000 
  0
VERTEX
  8
5
 70
     32
 10
 287.0000 
 20
 98.0000 
 30
 0.0000 
 0 
SEQEND
  0
POLYLINE
  8
5
 62
     6
 66
      1
  6
CONTINUOUS
 70
      8
  0
VERTEX
  8
5
 70
     32
 10
 369.8000 
 20
 98.0000 
 30
 0.0000 
  0
VERTEX
  8
5
 70
     32
 10
 379.0000 
 20
 98.0000 
 30
 0.0000 
 0 
SEQEND
  0
POLYLINE
  8
5
 62
     6
 66
      1
  6
CONTINUOUS
 70
      8
  0
VERTEX
  8
5
 70
     32
 10
 333.0000 
 20
 0.0000 
 30
 0.0000 
  0
VERTEX
  8
5
 70
     32
 10
 287.0000 
 20
 0.0000 
 30
 0.0000 
 0 
SEQEND
  0
ENDSEC
  0
EOF
