999
dxfrw 0.5.10
0
SECTION
2
HEADER
9
$ACADVER
1
AC1021
9
$HANDSEED
5
20000
9
$DWGCODEPAGE
3
ANSI_1252
9
$INSBASE
10
0
20
0
30
0
9
$EXTMIN
10
-37.7467845497
20
-33.0441008796
30
0
9
$EXTMAX
10
37.7488775727
20
33.0414031774
30
0
9
$LIMMIN
10
0
20
0
9
$LIMMAX
10
420
20
297
9
$ORTHOMODE
70
0
9
$LTSCALE
40
1
9
$TEXTSTYLE
7
STANDARD
9
$CLAYER
8
0
9
$DIMASZ
40
2.5
9
$DIMLFAC
40
1
9
$DIMSCALE
40
1
9
$DIMEXO
40
0.625
9
$DIMEXE
40
1.25
9
$DIMTXT
40
2.5
9
$DIMTSZ
40
0
9
$DIMAUNIT
70
-1
9
$DIMADEC
70
-1
9
$DIMLUNIT
70
2
9
$DIMSTYLE
2
STANDARD
9
$DIMGAP
40
2
9
$DIMTIH
70
0
9
$LUNITS
70
0
9
$LUPREC
70
-1
9
$AUNITS
70
-1
9
$AUPREC
70
-1
9
$SPLINESEGS
70
33
9
$GRIDMODE
70
1
9
$SNAPSTYLE
70
0
9
$GRIDUNIT
10
0
20
0
9
$PINSBASE
10
0
20
0
30
0
9
$PLIMMIN
10
0
20
0
9
$PLIMMAX
10
279.4
20
215.9
9
$INSUNITS
70
4
9
$PSVPSCALE
40
1
0
ENDSEC
0
SECTION
2
CLASSES
0
ENDSEC
0
SECTION
2
TABLES
0
TABLE
2
VPORT
5
8
330
0
100
AcDbSymbolTable
70
1
0
VPORT
5
31
330
2
100
AcDbSymbolTableRecord
100
AcDbViewportTableRecord
2
*ACTIVE
70
0
10
0
20
0
11
1
21
1
12
71.1516474541
22
27.9736443663
13
0
23
0
14
10
24
10
15
10
25
10
16
0
26
0
36
1
17
0
27
0
37
0
40
93.6018333787
41
2.27157360406
42
50
43
0
44
0
50
0
51
0
71
0
72
100
73
1
74
3
75
0
76
1
77
0
78
0
281
0
65
1
110
0
120
0
130
0
111
1
121
0
131
0
112
0
122
1
132
0
79
0
146
0
348
10020
60
7
61
5
292
1
282
1
141
0
142
0
63
250
421
3358443
0
ENDTAB
0
TABLE
2
LTYPE
5
5
330
0
100
AcDbSymbolTable
70
4
0
LTYPE
5
14
330
5
100
AcDbSymbolTableRecord
100
AcDbLinetypeTableRecord
2
ByBlock
70
0
3

72
65
73
0
40
0
0
LTYPE
5
15
330
5
100
AcDbSymbolTableRecord
100
AcDbLinetypeTableRecord
2
ByLayer
70
0
3

72
65
73
0
40
0
0
LTYPE
5
16
330
5
100
AcDbSymbolTableRecord
100
AcDbLinetypeTableRecord
2
Continuous
70
0
3
Solid line
72
65
73
0
40
0
0
LTYPE
5
32
330
5
100
AcDbSymbolTableRecord
100
AcDbLinetypeTableRecord
2
DOT
70
0
3
Dot . . . . . . . . . . . . . . . . . . . . . .
72
65
73
2
40
6.35
49
0
74
0
49
-6.35
74
0
0
LTYPE
5
33
330
5
100
AcDbSymbolTableRecord
100
AcDbLinetypeTableRecord
2
DOT2
70
0
3
Dot (.5x) .....................................
72
65
73
2
40
3.175
49
0
74
0
49
-3.175
74
0
0
LTYPE
5
34
330
5
100
AcDbSymbolTableRecord
100
AcDbLinetypeTableRecord
2
DOTX2
70
0
3
Dot (2x) .  .  .  .  .  .  .  .  .  .  .  .  .
72
65
73
2
40
12.7
49
0
74
0
49
-12.7
74
0
0
LTYPE
5
35
330
5
100
AcDbSymbolTableRecord
100
AcDbLinetypeTableRecord
2
DASHED
70
0
3
Dot . . . . . . . . . . . . . . . . . . . . . .
72
65
73
2
40
19.05
49
12.7
74
0
49
-6.35
74
0
0
LTYPE
5
36
330
5
100
AcDbSymbolTableRecord
100
AcDbLinetypeTableRecord
2
DASHED2
70
0
3
Dashed (.5x) _ _ _ _ _ _ _ _ _ _ _ _ _ _ _ _ _
72
65
73
2
40
9.525
49
6.35
74
0
49
-3.175
74
0
0
LTYPE
5
37
330
5
100
AcDbSymbolTableRecord
100
AcDbLinetypeTableRecord
2
DASHEDX2
70
0
3
Dashed (2x) ____  ____  ____  ____  ____  ___
72
65
73
2
40
38.1
49
25.4
74
0
49
-12.7
74
0
0
LTYPE
5
38
330
5
100
AcDbSymbolTableRecord
100
AcDbLinetypeTableRecord
2
DASHDOT
70
0
3
Dash dot __ . __ . __ . __ . __ . __ . __ . __
72
65
73
4
40
25.4
49
12.7
74
0
49
-6.35
74
0
49
0
74
0
49
-6.35
74
0
0
LTYPE
5
39
330
5
100
AcDbSymbolTableRecord
100
AcDbLinetypeTableRecord
2
DASHDOT2
70
0
3
Dash dot (.5x) _._._._._._._._._._._._._._._.
72
65
73
4
40
12.7
49
6.35
74
0
49
-3.175
74
0
49
0
74
0
49
-3.175
74
0
0
LTYPE
5
3A
330
5
100
AcDbSymbolTableRecord
100
AcDbLinetypeTableRecord
2
DASHDOTX2
70
0
3
Dash dot (2x) ____  .  ____  .  ____  .  ___
72
65
73
4
40
50.8
49
25.4
74
0
49
-12.7
74
0
49
0
74
0
49
-12.7
74
0
0
LTYPE
5
3B
330
5
100
AcDbSymbolTableRecord
100
AcDbLinetypeTableRecord
2
DIVIDE
70
0
3
Divide ____ . . ____ . . ____ . . ____ . . ____
72
65
73
6
40
31.75
49
12.7
74
0
49
-6.35
74
0
49
0
74
0
49
-6.35
74
0
49
0
74
0
49
-6.35
74
0
0
LTYPE
5
3C
330
5
100
AcDbSymbolTableRecord
100
AcDbLinetypeTableRecord
2
DIVIDE2
70
0
3
Divide (.5x) __..__..__..__..__..__..__..__.._
72
65
73
6
40
15.875
49
6.35
74
0
49
-3.175
74
0
49
0
74
0
49
-3.175
74
0
49
0
74
0
49
-3.175
74
0
0
LTYPE
5
3D
330
5
100
AcDbSymbolTableRecord
100
AcDbLinetypeTableRecord
2
DIVIDEX2
70
0
3
Divide (2x) ________  .  .  ________  .  .  _
72
65
73
6
40
63.5
49
25.4
74
0
49
-12.7
74
0
49
0
74
0
49
-12.7
74
0
49
0
74
0
49
-12.7
74
0
0
LTYPE
5
3E
330
5
100
AcDbSymbolTableRecord
100
AcDbLinetypeTableRecord
2
BORDER
70
0
3
Border __ __ . __ __ . __ __ . __ __ . __ __ .
72
65
73
6
40
44.45
49
12.7
74
0
49
-6.35
74
0
49
12.7
74
0
49
-6.35
74
0
49
0
74
0
49
-6.35
74
0
0
LTYPE
5
3F
330
5
100
AcDbSymbolTableRecord
100
AcDbLinetypeTableRecord
2
BORDER2
70
0
3
Border (.5x) __.__.__.__.__.__.__.__.__.__.__.
72
65
73
6
40
22.225
49
6.35
74
0
49
-3.175
74
0
49
6.35
74
0
49
-3.175
74
0
49
0
74
0
49
-3.175
74
0
0
LTYPE
5
40
330
5
100
AcDbSymbolTableRecord
100
AcDbLinetypeTableRecord
2
BORDERX2
70
0
3
Border (2x) ____  ____  .  ____  ____  .  ___
72
65
73
6
40
88.9
49
25.4
74
0
49
-12.7
74
0
49
25.4
74
0
49
-12.7
74
0
49
0
74
0
49
-12.7
74
0
0
LTYPE
5
41
330
5
100
AcDbSymbolTableRecord
100
AcDbLinetypeTableRecord
2
CENTER
70
0
3
Center ____ _ ____ _ ____ _ ____ _ ____ _ ____
72
65
73
4
40
50.8
49
31.75
74
0
49
-6.35
74
0
49
6.35
74
0
49
-6.35
74
0
0
LTYPE
5
42
330
5
100
AcDbSymbolTableRecord
100
AcDbLinetypeTableRecord
2
CENTER2
70
0
3
Center (.5x) ___ _ ___ _ ___ _ ___ _ ___ _ ___
72
65
73
4
40
28.575
49
19.05
74
0
49
-3.175
74
0
49
3.175
74
0
49
-3.175
74
0
0
LTYPE
5
43
330
5
100
AcDbSymbolTableRecord
100
AcDbLinetypeTableRecord
2
CENTERX2
70
0
3
Center (2x) ________  __  ________  __  _____
72
65
73
4
40
101.6
49
63.5
74
0
49
-12.7
74
0
49
12.7
74
0
49
-12.7
74
0
0
ENDTAB
0
TABLE
2
LAYER
5
2
330
0
100
AcDbSymbolTable
70
1
0
LAYER
5
10
330
2
100
AcDbSymbolTableRecord
100
AcDbLayerTableRecord
2
0
70
0
62
2
6
CONTINUOUS
370
0
390
F
0
ENDTAB
0
TABLE
2
STYLE
5
3
330
0
100
AcDbSymbolTable
70
3
0
STYLE
5
44
330
2
100
AcDbSymbolTableRecord
100
AcDbTextStyleTableRecord
2
Standard
70
0
40
0
41
1
50
0
71
0
42
1
3
txt
4

0
ENDTAB
0
TABLE
2
VIEW
5
6
330
0
100
AcDbSymbolTable
70
0
0
ENDTAB
0
TABLE
2
UCS
5
7
330
0
100
AcDbSymbolTable
70
0
0
ENDTAB
0
TABLE
2
APPID
5
9
330
0
100
AcDbSymbolTable
70
1
0
APPID
5
12
330
9
100
AcDbSymbolTableRecord
100
AcDbRegAppTableRecord
2
ACAD
70
0
0
ENDTAB
0
TABLE
2
DIMSTYLE
5
A
330
0
100
AcDbSymbolTable
70
1
100
AcDbDimStyleTable
71
1
0
DIMSTYLE
105
45
330
A
100
AcDbSymbolTableRecord
100
AcDbDimStyleTableRecord
2
Standard
70
0
40
1
41
2.5
42
0.625
43
0.38
44
1.25
45
0
46
0
47
0
48
0
140
2.5
141
0.09
142
0
143
25.4
144
1
145
0
146
1
147
2
148
0
71
0
72
0
73
0
74
1
75
0
76
0
77
0
78
0
79
0
170
0
171
2
172
0
173
0
174
0
175
0
176
0
177
0
178
0
179
0
271
4
272
4
273
2
274
2
275
0
276
0
277
2
278
46
279
0
280
0
281
0
282
0
283
1
284
0
285
0
286
0
288
0
289
3
340
Standard
341

371
-2
372
-2
0
ENDTAB
0
TABLE
2
BLOCK_RECORD
5
1
330
0
100
AcDbSymbolTable
70
2
0
BLOCK_RECORD
5
1F
330
1
100
AcDbSymbolTableRecord
100
AcDbBlockTableRecord
2
*Model_Space
70
0
280
1
281
0
0
BLOCK_RECORD
5
1E
330
1
100
AcDbSymbolTableRecord
100
AcDbBlockTableRecord
2
*Paper_Space
70
0
280
1
281
0
0
ENDTAB
0
ENDSEC
0
SECTION
2
BLOCKS
0
BLOCK
5
20
330
1F
100
AcDbEntity
8
0
100
AcDbBlockBegin
2
*Model_Space
70
0
10
0
20
0
30
0
3
*Model_Space
1

0
ENDBLK
5
21
330
1F
100
AcDbEntity
8
0
100
AcDbBlockEnd
0
BLOCK
5
1C
330
1B
100
AcDbEntity
8
0
100
AcDbBlockBegin
2
*Paper_Space
70
0
10
0
20
0
30
0
3
*Paper_Space
1

0
ENDBLK
5
1D
330
1F
100
AcDbEntity
8
0
100
AcDbBlockEnd
0
ENDSEC
0
SECTION
2
ENTITIES
0
LWPOLYLINE
5
46
100
AcDbEntity
8
0
6
ByLayer
62
256
370
-1
100
AcDbPolyline
90
12
70
1
43
0
10
26.1024369289
20
15.0646211412
10
20.903050419
20
24.0703428825
10
26.1024369289
20
15.0646211412
10
31.3018234387
20
6.05889940002
10
26.1024369289
20
15.0646211412
10
20.903050419
20
24.0703428825
10
26.1024369289
20
15.0646211412
10
31.3018234387
20
6.05889940002
10
26.1024369289
20
15.0646211412
10
20.903050419
20
24.0703428825
10
26.1024369289
20
15.0646211412
10
31.3018234387
20
6.05889940002
0
LWPOLYLINE
5
47
100
AcDbEntity
8
0
6
ByLayer
62
256
370
-1
100
AcDbPolyline
90
10
70
1
43
0
10
34.5407772585
20
5.78845830187
42
-0.209910675881
10
34.9443491309
20
5.54997997118
10
37.6770813877
20
0.82417699377
10
34.9443491309
20
5.54997997118
42
0.209910675881
10
34.5407772586
20
5.78845830188
10
34.4742769663
20
5.78244106352
10
31.819857295
20
5.76089693446
42
-0.273081018394
10
31.3017124977
20
6.05883534821
42
0.273081018394
10
31.819857295
20
5.76089693445
10
34.4742769663
20
5.78244106352
0
LWPOLYLINE
5
48
100
AcDbEntity
8
0
6
ByLayer
62
256
370
-1
100
AcDbPolyline
90
18
70
1
43
0
10
29.9165279313
20
-2.6584217403
10
32.6413459416
20
2.07393515085
42
-0.583972665323
10
33.6079951904
20
2.05385085179
10
34.6400886425
20
0.267976874209
42
0.255601190471
10
35.1189787309
20
-0.00520388484779
10
37.1767824412
20
-0.00368516803823
42
0.585604737936
10
37.6761702418
20
0.825765261514
42
-0.585604737936
10
37.1767824412
20
-0.00368516803823
10
35.1189787309
20
-0.00520388484779
42
-0.255601190471
10
34.6400886425
20
0.267976874209
10
33.6079951904
20
2.05385085179
42
0.583972665323
10
32.6413459416
20
2.07393515085
10
29.9165279313
20
-2.6584217403
42
0.209910675884
10
29.9117855749
20
-3.12716439938
10
31.2915242014
20
-5.4777199847
42
-0.273081018394
10
31.2971645646
20
-6.06746529001
42
0.273081018394
10
31.2915242014
20
-5.4777199847
10
29.9117855749
20
-3.12716439938
42
-0.209910675884
0
LWPOLYLINE
5
49
100
AcDbEntity
8
0
6
ByLayer
62
256
370
-1
100
AcDbPolyline
90
4
70
1
43
0
10
26.0975630711
20
-15.0730629105
10
20.8980725187
20
-24.0787245826
10
26.0975630711
20
-15.0730629105
10
31.2970536236
20
-6.06740123819
0
LWPOLYLINE
5
4A
100
AcDbEntity
8
0
6
ByLayer
62
256
370
-1
100
AcDbPolyline
90
10
70
1
43
0
10
19.5522989077
20
-32.2172211253
10
22.278598211
20
-27.4877040805
42
0.209910675884
10
22.2833405675
20
-27.0189614214
10
22.24487934
20
-26.9643790981
10
20.8990117414
20
-24.6763562951
42
-0.273081018394
10
20.8979615777
20
-24.0786605308
42
0.273081018394
10
20.8990117414
20
-24.6763562951
10
22.24487934
20
-26.9643790981
10
22.2833405675
20
-27.0189614214
42
-0.209910675884
10
22.278598211
20
-27.4877040805
0
LWPOLYLINE
5
4B
100
AcDbEntity
8
0
6
ByLayer
62
256
370
-1
100
AcDbPolyline
90
10
70
1
43
0
10
17.5515911379
20
-29.8774525124
42
0.255601190471
10
17.554982669
20
-30.4165296783
10
18.5851997715
20
-32.1978806091
42
0.585604737935
10
19.5532188149
20
-32.215637916
42
-0.585604737935
10
18.5851997715
20
-32.197880609
10
17.554982669
20
-30.4165296783
42
-0.255601190471
10
17.5515911379
20
-29.8774525123
10
18.5915826696
20
-28.0811726625
42
0.585604737936
10
18.1229514268
20
-27.233964926
42
-0.585604737936
10
18.5915826696
20
-28.0811726624
0
LWPOLYLINE
5
4C
100
AcDbEntity
8
0
6
ByLayer
62
256
370
-1
100
AcDbPolyline
90
10
70
1
43
0
10
12.257436691
20
-27.4679483801
10
12.2293976261
20
-27.5285479417
10
10.9208455536
20
-29.8381148739
42
-0.273081018394
10
10.4037509198
20
-30.1378722244
42
0.273081018394
10
10.9208455536
20
-29.8381148739
10
12.2293976261
20
-27.5285479417
10
12.257436691
20
-27.4679483801
42
-0.209910675881
10
12.6657509198
20
-27.2376840517
10
18.1247824799
20
-27.2339699843
10
12.6657509198
20
-27.2376840517
42
0.209910675881
0
LWPOLYLINE
5
4D
100
AcDbEntity
8
0
6
ByLayer
62
256
370
-1
100
AcDbPolyline
90
7
70
0
43
0
10
10.4037509198
20
-30.1377441207
10
0.004873857698
20
-30.1376840517
10
-10.3940032047
20
-30.1376239827
10
0.004873857698
20
-30.1376840517
10
10.4037509198
20
-30.1377441207
10
0.004873857698
20
-30.1376840517
10
-10.3940032047
20
-30.1376239827
0
LWPOLYLINE
5
4E
100
AcDbEntity
8
0
6
ByLayer
62
256
370
-1
100
AcDbPolyline
90
18
70
1
43
0
10
-14.5238297583
20
-29.3119187902
42
-0.585604737936
10
-15.0232175589
20
-30.1413692197
10
-17.0810212692
20
-30.1428879365
42
0.25560119047
10
-17.552119102
20
-30.4101597868
10
-18.5826846085
20
-32.1969159241
42
0.583972665323
10
-18.1167534974
20
-33.0441008796
10
-12.6560032047
20
-33.0376840517
42
0.209910675884
10
-12.2476889759
20
-32.8074197233
10
-10.9019174393
20
-30.4372532295
42
-0.273081018394
10
-10.3940032047
20
-30.137495879
42
0.273081018394
10
-10.9019174392
20
-30.4372532295
10
-12.2476889759
20
-32.8074197233
42
-0.209910675884
10
-12.6560032047
20
-33.0376840517
10
-18.1167534974
20
-33.0441008796
42
-0.583972665323
10
-18.5826846085
20
-32.1969159242
10
-17.552119102
20
-30.4101597868
42
-0.25560119047
10
-17.0810212692
20
-30.1428879365
10
-15.0232175589
20
-30.1413692197
42
0.585604737936
0
LWPOLYLINE
5
4F
100
AcDbEntity
8
0
6
ByLayer
62
256
370
-1
100
AcDbPolyline
90
10
70
1
43
0
10
-17.6592227415
20
-24.3492257498
10
-17.7257230338
20
-24.3552429882
10
-20.3801427051
20
-24.3767871172
42
-0.273081018394
10
-20.8982875024
20
-24.0788487035
42
0.273081018394
10
-20.3801427051
20
-24.3767871173
10
-17.7257230338
20
-24.3552429882
10
-17.6592227416
20
-24.3492257498
42
-0.209910675881
10
-17.2556508692
20
-24.5877040805
10
-14.5229186124
20
-29.3135070579
10
-17.2556508692
20
-24.5877040805
42
0.209910675881
0
LWPOLYLINE
5
50
100
AcDbEntity
8
0
6
ByLayer
62
256
370
-1
100
AcDbPolyline
90
4
70
1
43
0
10
-26.0975630712
20
-15.0730629105
10
-31.2969495811
20
-6.06734116915
10
-26.0975630712
20
-15.0730629105
10
-20.8981765614
20
-24.0787846517
0
LWPOLYLINE
5
51
100
AcDbEntity
8
0
6
ByLayer
62
256
370
-1
100
AcDbPolyline
90
26
70
1
43
0
10
-33.6079951903
20
-2.05385085179
42
0.583972665323
10
-32.6413459417
20
-2.07393515085
10
-29.9165279313
20
2.65842174031
42
0.209910675884
10
-29.9117855749
20
3.12716439938
10
-31.2915242014
20
5.47771998468
42
-0.273081018394
10
-31.2971645646
20
6.06746529001
42
0.273081018394
10
-31.2915242014
20
5.4777199847
10
-29.9117855749
20
3.12716439938
42
-0.209910675884
10
-29.9165279313
20
2.6584217403
10
-32.6413459416
20
-2.07393515085
42
-0.583972665323
10
-33.6079951904
20
-2.0538508518
10
-34.6434801736
20
-0.271100291786
42
0.255601190471
10
-35.1120304596
20
-0.00449886087322
10
-37.1746894182
20
-0.00538102066877
42
0.583972665323
10
-37.6754075557
20
-0.832481677072
10
-34.9394752734
20
-5.5584217403
42
0.209910675884
10
-34.535903401
20
-5.796900071
10
-31.8103932379
20
-5.77728916249
42
-0.273081018394
10
-31.2968386401
20
-6.06727711733
42
0.273081018394
10
-31.8103932378
20
-5.77728916251
10
-34.535903401
20
-5.796900071
42
-0.209910675884
10
-34.9394752734
20
-5.5584217403
10
-37.6754075557
20
-0.832481677071
42
-0.583972665323
10
-37.1746894181
20
-0.00538102066918
10
-35.1120304595
20
-0.00449886087337
42
-0.255601190471
10
-34.6434801737
20
-0.271100291786
0
LWPOLYLINE
5
52
100
AcDbEntity
8
0
6
ByLayer
62
256
370
-1
100
AcDbPolyline
90
7
70
0
43
0
10
-20.8980725187
20
24.0787245826
10
-26.0975630711
20
15.0730629105
10
-31.2970536236
20
6.06740123819
10
-26.0975630711
20
15.0730629105
10
-20.8980725187
20
24.0787245826
10
-26.0975630711
20
15.0730629105
10
-31.2970536236
20
6.06740123819
0
LWPOLYLINE
5
53
100
AcDbEntity
8
0
6
ByLayer
62
256
370
-1
100
AcDbPolyline
90
8
70
1
43
0
10
-19.5522989077
20
32.2172211253
10
-22.278598211
20
27.4877040805
42
0.209910675884
10
-22.2833405674
20
27.0189614214
10
-20.8990117414
20
24.6763562951
42
-0.273081018394
10
-20.8979615777
20
24.0786605308
42
0.273081018394
10
-20.8990117414
20
24.6763562951
10
-22.2833405674
20
27.0189614214
42
-0.209910675884
10
-22.278598211
20
27.4877040805
0
LWPOLYLINE
5
54
100
AcDbEntity
8
0
6
ByLayer
62
256
370
-1
100
AcDbPolyline
90
12
70
1
43
0
10
-10.3940032046
20
30.1377441207
10
0.004873857798
20
30.1376840517
10
10.4037509199
20
30.1376239827
10
0.004873857798
20
30.1376840517
10
-10.3940032046
20
30.1377441207
10
0.004873857798
20
30.1376840517
10
10.4037509199
20
30.1376239827
10
0.004873857798
20
30.1376840517
10
-10.3940032046
20
30.1377441207
10
0.004873857798
20
30.1376840517
10
10.4037509199
20
30.1376239827
10
0.004873857798
20
30.1376840517
0
LWPOLYLINE
5
55
100
AcDbEntity
8
0
6
ByLayer
62
256
370
-1
100
AcDbPolyline
90
64
70
0
43
0
10
20.90316136
20
24.0704069343
42
0.273081018394
10
20.3896067623
20
24.3603948892
10
17.6640965991
20
24.3407839807
42
-0.209910675884
10
17.2605247267
20
24.5792623114
10
14.5245924444
20
29.3052023746
42
-0.583972665323
10
15.025310582
20
30.132303031
10
17.0988373071
20
30.1388500584
42
0.255601190471
10
17.5639960619
20
30.4113257935
10
18.5915826697
20
32.1941954409
42
0.585604737936
10
18.1229514269
20
33.0414031774
42
-0.585604737936
10
18.5915826697
20
32.1941954409
10
17.5639960619
20
30.4113257935
42
-0.255601190471
10
17.0988373071
20
30.1388500584
10
15.025310582
20
30.132303031
42
0.583972665323
10
14.5245924444
20
29.3052023746
10
17.2605247267
20
24.5792623114
42
0.209910675884
10
17.6640965991
20
24.3407839807
10
20.3896067623
20
24.3603948892
42
-0.273081018394
10
20.90316136
20
24.0704069343
42
0.273081018394
10
20.3896067623
20
24.3603948892
10
17.6640965991
20
24.3407839807
42
-0.209910675884
10
17.2605247267
20
24.5792623114
10
14.5245924444
20
29.3052023746
42
-0.583972665323
10
15.025310582
20
30.132303031
10
17.0988373071
20
30.1388500584
42
0.255601190471
10
17.5639960619
20
30.4113257935
10
18.5915826697
20
32.1941954409
42
0.585604737936
10
18.1229514269
20
33.0414031774
42
-0.585604737936
10
18.5915826697
20
32.1941954409
10
17.5639960619
20
30.4113257935
42
-0.255601190471
10
17.0988373071
20
30.1388500584
10
15.025310582
20
30.132303031
42
0.583972665323
10
14.5245924444
20
29.3052023746
10
17.2605247267
20
24.5792623114
42
0.209910675884
10
17.6640965991
20
24.3407839807
10
20.3896067623
20
24.3603948892
42
-0.273081018394
10
20.90316136
20
24.0704069343
42
0.273081018394
10
20.3896067623
20
24.3603948892
10
17.6640965991
20
24.3407839807
42
-0.209910675884
10
17.2605247267
20
24.5792623114
10
14.5245924444
20
29.3052023746
42
-0.583972665323
10
15.025310582
20
30.132303031
10
17.0988373071
20
30.1388500584
42
0.255601190471
10
17.5639960619
20
30.4113257935
10
18.5915826697
20
32.1941954409
42
0.585604737936
10
18.1229514269
20
33.0414031774
42
-0.585604737936
10
18.5915826697
20
32.1941954409
10
17.5639960619
20
30.4113257935
42
-0.255601190471
10
17.0988373071
20
30.1388500584
10
15.025310582
20
30.132303031
42
0.583972665323
10
14.5245924444
20
29.3052023746
10
17.2605247267
20
24.5792623114
42
0.209910675884
10
17.6640965991
20
24.3407839807
10
20.3896067623
20
24.3603948892
42
-0.273081018394
10
20.90316136
20
24.0704069343
42
0.273081018394
10
20.3896067623
20
24.3603948892
10
17.6640965991
20
24.3407839807
42
-0.209910675884
10
17.2605247267
20
24.5792623114
10
14.5245924444
20
29.3052023746
42
-0.583972665323
10
15.025310582
20
30.132303031
10
17.0988373071
20
30.1388500584
42
0.255601190471
10
17.5639960619
20
30.4113257935
10
18.5915826697
20
32.1941954409
42
0.585604737936
10
18.1229514269
20
33.0414031774
42
0.585604737936
0
LWPOLYLINE
5
56
100
AcDbEntity
8
0
6
ByLayer
62
256
370
-1
100
AcDbPolyline
90
82
70
0
43
0
10
-19.5532188149
20
32.215637916
42
-0.585604737935
10
-18.5851997715
20
32.197880609
10
-17.554982669
20
30.4165296783
42
-0.255601190472
10
-17.5521191019
20
29.8652083166
10
-18.5826846084
20
28.0784521793
42
0.583972665323
10
-18.1167534973
20
27.2312672238
10
-12.6560032046
20
27.2376840517
42
0.209910675884
10
-12.2476889758
20
27.4679483801
10
-10.9019174392
20
29.8381148739
42
-0.273081018394
10
-10.3940032046
20
30.1378722244
42
0.273081018394
10
-10.9019174392
20
29.8381148739
10
-12.2476889758
20
27.4679483801
42
-0.209910675884
10
-12.6560032046
20
27.2376840517
10
-18.1167534973
20
27.2312672238
42
-0.583972665323
10
-18.5826846084
20
28.0784521793
10
-17.5521191019
20
29.8652083166
42
0.255601190472
10
-17.554982669
20
30.4165296783
10
-18.5851997715
20
32.197880609
42
0.585604737935
10
-19.5532188149
20
32.215637916
42
-0.585604737935
10
-18.5851997715
20
32.197880609
10
-17.554982669
20
30.4165296783
42
-0.255601190472
10
-17.5521191019
20
29.8652083166
10
-18.5826846084
20
28.0784521793
42
0.583972665323
10
-18.1167534973
20
27.2312672238
10
-12.6560032046
20
27.2376840517
42
0.209910675884
10
-12.2476889758
20
27.4679483801
10
-10.9019174392
20
29.8381148739
42
-0.273081018394
10
-10.3940032046
20
30.1378722244
42
0.273081018394
10
-10.9019174392
20
29.8381148739
10
-12.2476889758
20
27.4679483801
42
-0.209910675884
10
-12.6560032046
20
27.2376840517
10
-18.1167534973
20
27.2312672238
42
-0.583972665323
10
-18.5826846084
20
28.0784521793
10
-17.5521191019
20
29.8652083166
42
0.255601190472
10
-17.554982669
20
30.4165296783
10
-18.5851997715
20
32.197880609
42
0.585604737935
10
-19.5532188149
20
32.215637916
42
-0.585604737935
10
-18.5851997715
20
32.197880609
10
-17.554982669
20
30.4165296783
42
-0.255601190472
10
-17.5521191019
20
29.8652083166
10
-18.5826846084
20
28.0784521793
42
0.583972665323
10
-18.1167534973
20
27.2312672238
10
-12.6560032046
20
27.2376840517
42
0.209910675884
10
-12.2476889758
20
27.4679483801
10
-10.9019174392
20
29.8381148739
42
-0.273081018394
10
-10.3940032046
20
30.1378722244
42
0.273081018394
10
-10.9019174392
20
29.8381148739
10
-12.2476889758
20
27.4679483801
42
-0.209910675884
10
-12.6560032046
20
27.2376840517
10
-18.1167534973
20
27.2312672238
42
-0.583972665323
10
-18.5826846084
20
28.0784521793
10
-17.5521191019
20
29.8652083166
42
0.255601190472
10
-17.554982669
20
30.4165296783
10
-18.5851997715
20
32.197880609
42
0.585604737935
10
-19.5532188149
20
32.215637916
42
-0.585604737935
10
-18.5851997715
20
32.197880609
10
-17.554982669
20
30.4165296783
42
-0.255601190472
10
-17.5521191019
20
29.8652083166
10
-18.5826846084
20
28.0784521793
42
0.583972665323
10
-18.1167534973
20
27.2312672238
10
-12.6560032046
20
27.2376840517
42
0.209910675884
10
-12.2476889758
20
27.4679483801
10
-10.9019174392
20
29.8381148739
42
-0.273081018394
10
-10.3940032046
20
30.1378722244
42
0.273081018394
10
-10.9019174392
20
29.8381148739
10
-12.2476889758
20
27.4679483801
42
-0.209910675884
10
-12.6560032046
20
27.2376840517
10
-18.1167534973
20
27.2312672238
42
-0.583972665323
10
-18.5826846084
20
28.0784521793
10
-17.5521191019
20
29.8652083166
42
0.255601190472
10
-17.554982669
20
30.4165296783
10
-18.5851997715
20
32.197880609
42
0.585604737935
10
-19.5532188149
20
32.215637916
42
-0.585604737935
10
-18.5851997715
20
32.197880609
10
-17.554982669
20
30.4165296783
42
-0.255601190472
10
-17.5521191019
20
29.8652083166
10
-18.5826846084
20
28.0784521793
42
0.583972665323
10
-18.1167534973
20
27.2312672238
10
-12.6560032046
20
27.2376840517
42
0.209910675884
10
-12.2476889758
20
27.4679483801
10
-10.9019174392
20
29.8381148739
42
-0.273081018394
10
-10.3940032046
20
30.1378722244
42
-0.273081018394
0
LWPOLYLINE
5
57
100
AcDbEntity
8
0
6
ByLayer
62
256
370
-1
100
AcDbPolyline
90
36
70
0
43
0
10
18.1229514269
20
33.0414031774
10
12.6657509199
20
33.0376840517
42
0.209910675881
10
12.2574366911
20
32.8074197233
10
12.2293976262
20
32.7468201617
10
10.9208455537
20
30.4372532295
42
-0.273081018394
10
10.4037509199
20
30.137495879
42
0.273081018394
10
10.9208455537
20
30.4372532295
10
12.2293976262
20
32.7468201617
10
12.2574366911
20
32.8074197233
42
-0.209910675881
10
12.6657509199
20
33.0376840517
10
18.1229514269
20
33.0414031774
10
12.6657509199
20
33.0376840517
42
0.209910675881
10
12.2574366911
20
32.8074197233
10
12.2293976262
20
32.7468201617
10
10.9208455537
20
30.4372532295
42
-0.273081018394
10
10.4037509199
20
30.137495879
42
0.273081018394
10
10.9208455537
20
30.4372532295
10
12.2293976262
20
32.7468201617
10
12.2574366911
20
32.8074197233
42
-0.209910675881
10
12.6657509199
20
33.0376840517
10
18.1229514269
20
33.0414031774
10
12.6657509199
20
33.0376840517
42
0.209910675881
10
12.2574366911
20
32.8074197233
10
12.2293976262
20
32.7468201617
10
10.9208455537
20
30.4372532295
42
-0.273081018394
10
10.4037509199
20
30.137495879
42
0.273081018394
10
10.9208455537
20
30.4372532295
10
12.2293976262
20
32.7468201617
10
12.2574366911
20
32.8074197233
42
-0.209910675881
10
12.6657509199
20
33.0376840517
10
18.1229514269
20
33.0414031774
10
12.6657509199
20
33.0376840517
42
0.209910675881
10
12.2574366911
20
32.8074197233
10
12.2293976262
20
32.7468201617
10
10.9208455537
20
30.4372532295
42
-0.273081018394
10
10.4037509199
20
30.137495879
42
-0.273081018394
0
ENDSEC
0
SECTION
2
OBJECTS
0
DICTIONARY
5
C
330
0
100
AcDbDictionary
281
1
3
ACAD_GROUP
350
D
0
DICTIONARY
5
D
330
C
100
AcDbDictionary
281
1
0
ENDSEC
0
EOF
