999
dxfrw 0.5.4
0
SECTION
2
HEADER
9
$ACADVER
1
AC1021
9
$HANDSEED
5
20000
9
$DWGCODEPAGE
3
ANSI_1252
9
$INSBASE
10
0
20
0
30
0
9
$EXTMIN
10
-6.722612
20
-22.26753
30
0
9
$EXTMAX
10
6.722612
20
22.26753
30
0
9
$LIMMIN
10
0
20
0
9
$LIMMAX
10
420
20
297
9
$ORTHOMODE
70
0
9
$LTSCALE
40
1
9
$TEXTSTYLE
7
STANDARD
9
$DIMASZ
40
0.1
9
$DIMEXO
40
0.025
9
$DIMEXE
40
0.05
9
$DIMTXT
40
0.1
9
$DIMTSZ
40
0
9
$DIMAUNIT
70
0
9
$DIMADEC
70
0
9
$DIMSTYLE
2
Standard
9
$DIMGAP
40
0.025
9
$DIMTIH
70
0
9
$LUNITS
70
2
9
$LUPREC
70
4
9
$AUNITS
70
0
9
$AUPREC
70
2
9
$SPLINESEGS
70
8
9
$GRIDMODE
70
0
9
$SNAPSTYLE
70
0
9
$PINSBASE
10
0
20
0
30
0
9
$PLIMMIN
10
0
20
0
9
$PLIMMAX
10
0.000504527018106
20
0.000713545354179
9
$INSUNITS
70
1
9
$PSVPSCALE
40
0
0
ENDSEC
0
SECTION
2
CLASSES
0
ENDSEC
0
SECTION
2
TABLES
0
TABLE
2
VPORT
5
8
330
0
100
AcDbSymbolTable
70
1
0
VPORT
5
31
330
2
100
AcDbSymbolTableRecord
100
AcDbViewportTableRecord
2
*ACTIVE
70
0
10
0
20
0
11
1
21
1
12
15.6237824
22
12.713984
13
0
23
0
14
10
24
10
15
10
25
10
16
0
26
0
36
1
17
0
27
0
37
0
40
50.5413632
41
1.29771784232
42
50
43
0
44
0
50
0
51
0
71
0
72
100
73
1
74
3
75
0
76
0
77
0
78
0
281
0
65
1
110
0
120
0
130
0
111
1
121
0
131
0
112
0
122
1
132
0
79
0
146
0
348
10020
60
7
61
5
292
1
282
1
141
0
142
0
63
250
421
3358443
0
ENDTAB
0
TABLE
2
LTYPE
5
5
330
0
100
AcDbSymbolTable
70
4
0
LTYPE
5
14
330
5
100
AcDbSymbolTableRecord
100
AcDbLinetypeTableRecord
2
ByBlock
70
0
3

72
65
73
0
40
0
0
LTYPE
5
15
330
5
100
AcDbSymbolTableRecord
100
AcDbLinetypeTableRecord
2
ByLayer
70
0
3

72
65
73
0
40
0
0
LTYPE
5
16
330
5
100
AcDbSymbolTableRecord
100
AcDbLinetypeTableRecord
2
Continuous
70
0
3
Solid line
72
65
73
0
40
0
0
LTYPE
5
32
330
5
100
AcDbSymbolTableRecord
100
AcDbLinetypeTableRecord
2
DOT
70
0
3
Dot . . . . . . . . . . . . . . . . . . . . . .
72
65
73
2
40
6.35
49
0
74
0
49
-6.35
74
0
0
LTYPE
5
33
330
5
100
AcDbSymbolTableRecord
100
AcDbLinetypeTableRecord
2
DOT2
70
0
3
Dot (.5x) .....................................
72
65
73
2
40
3.175
49
0
74
0
49
-3.175
74
0
0
LTYPE
5
34
330
5
100
AcDbSymbolTableRecord
100
AcDbLinetypeTableRecord
2
DOTX2
70
0
3
Dot (2x) .  .  .  .  .  .  .  .  .  .  .  .  .
72
65
73
2
40
12.7
49
0
74
0
49
-12.7
74
0
0
LTYPE
5
35
330
5
100
AcDbSymbolTableRecord
100
AcDbLinetypeTableRecord
2
DASHED
70
0
3
Dot . . . . . . . . . . . . . . . . . . . . . .
72
65
73
2
40
19.05
49
12.7
74
0
49
-6.35
74
0
0
LTYPE
5
36
330
5
100
AcDbSymbolTableRecord
100
AcDbLinetypeTableRecord
2
DASHED2
70
0
3
Dashed (.5x) _ _ _ _ _ _ _ _ _ _ _ _ _ _ _ _ _
72
65
73
2
40
9.525
49
6.35
74
0
49
-3.175
74
0
0
LTYPE
5
37
330
5
100
AcDbSymbolTableRecord
100
AcDbLinetypeTableRecord
2
DASHEDX2
70
0
3
Dashed (2x) ____  ____  ____  ____  ____  ___
72
65
73
2
40
38.1
49
25.4
74
0
49
-12.7
74
0
0
LTYPE
5
38
330
5
100
AcDbSymbolTableRecord
100
AcDbLinetypeTableRecord
2
DASHDOT
70
0
3
Dash dot __ . __ . __ . __ . __ . __ . __ . __
72
65
73
4
40
25.4
49
12.7
74
0
49
-6.35
74
0
49
0
74
0
49
-6.35
74
0
0
LTYPE
5
39
330
5
100
AcDbSymbolTableRecord
100
AcDbLinetypeTableRecord
2
DASHDOT2
70
0
3
Dash dot (.5x) _._._._._._._._._._._._._._._.
72
65
73
4
40
12.7
49
6.35
74
0
49
-3.175
74
0
49
0
74
0
49
-3.175
74
0
0
LTYPE
5
3A
330
5
100
AcDbSymbolTableRecord
100
AcDbLinetypeTableRecord
2
DASHDOTX2
70
0
3
Dash dot (2x) ____  .  ____  .  ____  .  ___
72
65
73
4
40
50.8
49
25.4
74
0
49
-12.7
74
0
49
0
74
0
49
-12.7
74
0
0
LTYPE
5
3B
330
5
100
AcDbSymbolTableRecord
100
AcDbLinetypeTableRecord
2
DIVIDE
70
0
3
Divide ____ . . ____ . . ____ . . ____ . . ____
72
65
73
6
40
31.75
49
12.7
74
0
49
-6.35
74
0
49
0
74
0
49
-6.35
74
0
49
0
74
0
49
-6.35
74
0
0
LTYPE
5
3C
330
5
100
AcDbSymbolTableRecord
100
AcDbLinetypeTableRecord
2
DIVIDE2
70
0
3
Divide (.5x) __..__..__..__..__..__..__..__.._
72
65
73
6
40
15.875
49
6.35
74
0
49
-3.175
74
0
49
0
74
0
49
-3.175
74
0
49
0
74
0
49
-3.175
74
0
0
LTYPE
5
3D
330
5
100
AcDbSymbolTableRecord
100
AcDbLinetypeTableRecord
2
DIVIDEX2
70
0
3
Divide (2x) ________  .  .  ________  .  .  _
72
65
73
6
40
63.5
49
25.4
74
0
49
-12.7
74
0
49
0
74
0
49
-12.7
74
0
49
0
74
0
49
-12.7
74
0
0
LTYPE
5
3E
330
5
100
AcDbSymbolTableRecord
100
AcDbLinetypeTableRecord
2
BORDER
70
0
3
Border __ __ . __ __ . __ __ . __ __ . __ __ .
72
65
73
6
40
44.45
49
12.7
74
0
49
-6.35
74
0
49
12.7
74
0
49
-6.35
74
0
49
0
74
0
49
-6.35
74
0
0
LTYPE
5
3F
330
5
100
AcDbSymbolTableRecord
100
AcDbLinetypeTableRecord
2
BORDER2
70
0
3
Border (.5x) __.__.__.__.__.__.__.__.__.__.__.
72
65
73
6
40
22.225
49
6.35
74
0
49
-3.175
74
0
49
6.35
74
0
49
-3.175
74
0
49
0
74
0
49
-3.175
74
0
0
LTYPE
5
40
330
5
100
AcDbSymbolTableRecord
100
AcDbLinetypeTableRecord
2
BORDERX2
70
0
3
Border (2x) ____  ____  .  ____  ____  .  ___
72
65
73
6
40
88.9
49
25.4
74
0
49
-12.7
74
0
49
25.4
74
0
49
-12.7
74
0
49
0
74
0
49
-12.7
74
0
0
LTYPE
5
41
330
5
100
AcDbSymbolTableRecord
100
AcDbLinetypeTableRecord
2
CENTER
70
0
3
Center ____ _ ____ _ ____ _ ____ _ ____ _ ____
72
65
73
4
40
50.8
49
31.75
74
0
49
-6.35
74
0
49
6.35
74
0
49
-6.35
74
0
0
LTYPE
5
42
330
5
100
AcDbSymbolTableRecord
100
AcDbLinetypeTableRecord
2
CENTER2
70
0
3
Center (.5x) ___ _ ___ _ ___ _ ___ _ ___ _ ___
72
65
73
4
40
28.575
49
19.05
74
0
49
-3.175
74
0
49
3.175
74
0
49
-3.175
74
0
0
LTYPE
5
43
330
5
100
AcDbSymbolTableRecord
100
AcDbLinetypeTableRecord
2
CENTERX2
70
0
3
Center (2x) ________  __  ________  __  _____
72
65
73
4
40
101.6
49
63.5
74
0
49
-12.7
74
0
49
12.7
74
0
49
-12.7
74
0
0
ENDTAB
0
TABLE
2
LAYER
5
2
330
0
100
AcDbSymbolTable
70
1
0
LAYER
5
10
330
2
100
AcDbSymbolTableRecord
100
AcDbLayerTableRecord
2
0
70
0
62
7
6
CONTINUOUS
370
0
390
F
0
LAYER
5
44
330
2
100
AcDbSymbolTableRecord
100
AcDbLayerTableRecord
2
noname
70
0
62
7
6
CONTINUOUS
370
0
390
F
0
LAYER
5
45
330
2
100
AcDbSymbolTableRecord
100
AcDbLayerTableRecord
2
noname2
70
0
62
7
6
CONTINUOUS
370
0
390
F
0
ENDTAB
0
TABLE
2
STYLE
5
3
330
0
100
AcDbSymbolTable
70
3
0
STYLE
5
46
330
2
100
AcDbSymbolTableRecord
100
AcDbTextStyleTableRecord
2
Standard
70
0
40
0
41
1
50
0
71
0
42
1
3
txt
4

0
ENDTAB
0
TABLE
2
VIEW
5
6
330
0
100
AcDbSymbolTable
70
0
0
ENDTAB
0
TABLE
2
UCS
5
7
330
0
100
AcDbSymbolTable
70
0
0
ENDTAB
0
TABLE
2
APPID
5
9
330
0
100
AcDbSymbolTable
70
1
0
APPID
5
12
330
9
100
AcDbSymbolTableRecord
100
AcDbRegAppTableRecord
2
ACAD
70
0
0
ENDTAB
0
TABLE
2
DIMSTYLE
5
A
330
0
100
AcDbSymbolTable
70
1
100
AcDbDimStyleTable
71
1
0
DIMSTYLE
105
47
330
A
100
AcDbSymbolTableRecord
100
AcDbDimStyleTableRecord
2
Standard
70
0
40
1
41
0.1
42
0.025
43
0.38
44
0.05
45
0
46
0
47
0
48
0
140
0.1
141
0.09
142
0
143
25.4
144
1
145
0
146
1
147
0.025
148
0
71
0
72
0
73
0
74
1
75
0
76
0
77
0
78
0
79
0
170
0
171
2
172
0
173
0
174
0
175
0
176
0
177
0
178
0
179
0
271
4
272
4
273
2
274
2
275
0
276
0
277
2
278
46
279
0
280
0
281
0
282
0
283
1
284
0
285
0
286
0
288
0
289
3
340
Standard
341

371
-2
372
-2
0
ENDTAB
0
TABLE
2
BLOCK_RECORD
5
1
330
0
100
AcDbSymbolTable
70
2
0
BLOCK_RECORD
5
1F
330
1
100
AcDbSymbolTableRecord
100
AcDbBlockTableRecord
2
*Model_Space
70
0
280
1
281
0
0
BLOCK_RECORD
5
1E
330
1
100
AcDbSymbolTableRecord
100
AcDbBlockTableRecord
2
*Paper_Space
70
0
280
1
281
0
0
ENDTAB
0
ENDSEC
0
SECTION
2
BLOCKS
0
BLOCK
5
20
330
1F
100
AcDbEntity
8
0
100
AcDbBlockBegin
2
*Model_Space
70
0
10
0
20
0
30
0
3
*Model_Space
1

0
ENDBLK
5
21
330
1F
100
AcDbEntity
8
0
100
AcDbBlockEnd
0
BLOCK
5
1C
330
1B
100
AcDbEntity
8
0
100
AcDbBlockBegin
2
*Paper_Space
70
0
10
0
20
0
30
0
3
*Paper_Space
1

0
ENDBLK
5
1D
330
1F
100
AcDbEntity
8
0
100
AcDbBlockEnd
0
ENDSEC
0
SECTION
2
ENTITIES
0
LWPOLYLINE
5
48
100
AcDbEntity
8
0
6
ByLayer
62
256
370
-1
100
AcDbPolyline
90
512
70
0
43
0
10
6.722612
20
-17.81402
10
6.682316
20
-17.75222
10
6.64216
20
-17.69033
10
6.602144
20
-17.62835
10
6.562269
20
-17.56628
10
6.522534
20
-17.50412
10
6.48294
20
-17.44187
10
6.443488
20
-17.37953
10
6.404177
20
-17.3171
10
6.365007
20
-17.25459
10
6.32598
20
-17.19198
10
6.287094
20
-17.12928
10
6.24835
20
-17.0665
10
6.209749
20
-17.00363
10
6.17129
20
-16.94067
10
6.132974
20
-16.87763
10
6.094801
20
-16.8145
10
6.056772
20
-16.75128
10
6.018885
20
-16.68797
10
5.981142
20
-16.62458
10
5.943543
20
-16.56111
10
5.906088
20
-16.49755
10
5.868777
20
-16.4339
10
5.83161
20
-16.37017
10
5.794588
20
-16.30636
10
5.75771
20
-16.24246
10
5.720977
20
-16.17848
10
5.68439
20
-16.11442
10
5.647947
20
-16.05028
10
5.61165
20
-15.98605
10
5.575499
20
-15.92174
10
5.539493
20
-15.85734
10
5.503634
20
-15.79287
10
5.467921
20
-15.72831
10
5.432354
20
-15.66368
10
5.396933
20
-15.59896
10
5.36166
20
-15.53417
10
5.326533
20
-15.46929
10
5.291553
20
-15.40434
10
5.256721
20
-15.3393
10
5.222036
20
-15.27419
10
5.187499
20
-15.209
10
5.153109
20
-15.14373
10
5.118868
20
-15.07838
10
5.084775
20
-15.01295
10
5.05083
20
-14.94745
10
5.017033
20
-14.88187
10
4.983386
20
-14.81622
10
4.949887
20
-14.75049
10
4.916537
20
-14.68468
10
4.883336
20
-14.6188
10
4.850285
20
-14.55284
10
4.817383
20
-14.48681
10
4.784631
20
-14.4207
10
4.752029
20
-14.35452
10
4.719577
20
-14.28827
10
4.687275
20
-14.22194
10
4.655124
20
-14.15554
10
4.623123
20
-14.08906
10
4.591272
20
-14.02252
10
4.559573
20
-13.9559
10
4.528025
20
-13.88921
10
4.496627
20
-13.82245
10
4.465382
20
-13.75562
10
4.434287
20
-13.68872
10
4.403345
20
-13.62174
10
4.372554
20
-13.5547
10
4.341915
20
-13.48759
10
4.311429
20
-13.42041
10
4.281095
20
-13.35316
10
4.250913
20
-13.28584
10
4.220883
20
-13.21845
10
4.191007
20
-13.151
10
4.161284
20
-13.08347
10
4.131713
20
-13.01588
10
4.102296
20
-12.94823
10
4.073032
20
-12.88051
10
4.043922
20
-12.81272
10
4.014965
20
-12.74486
10
3.986163
20
-12.67694
10
3.957514
20
-12.60896
10
3.929019
20
-12.54091
10
3.900679
20
-12.47279
10
3.872493
20
-12.40461
10
3.844462
20
-12.33637
10
3.816585
20
-12.26806
10
3.788863
20
-12.1997
10
3.761296
20
-12.13126
10
3.733885
20
-12.06277
10
3.706628
20
-11.99421
10
3.679527
20
-11.9256
10
3.652582
20
-11.85692
10
3.625792
20
-11.78818
10
3.599158
20
-11.71938
10
3.57268
20
-11.65052
10
3.546358
20
-11.5816
10
3.520193
20
-11.51262
10
3.494183
20
-11.44358
10
3.468331
20
-11.37449
10
3.442635
20
-11.30533
10
3.417095
20
-11.23612
10
3.391713
20
-11.16685
10
3.366487
20
-11.09752
10
3.341419
20
-11.02813
10
3.316508
20
-10.95869
10
3.291755
20
-10.88919
10
3.267159
20
-10.81964
10
3.242721
20
-10.75003
10
3.21844
20
-10.68036
10
3.194318
20
-10.61064
10
3.170353
20
-10.54087
10
3.146547
20
-10.47104
10
3.122899
20
-10.40116
10
3.099409
20
-10.33122
10
3.076078
20
-10.26123
10
3.052905
20
-10.19119
10
3.029892
20
-10.1211
10
3.007037
20
-10.05095
10
2.984341
20
-9.980753
10
2.961804
20
-9.910504
10
2.939427
20
-9.840205
10
2.917209
20
-9.769855
10
2.89515
20
-9.699455
10
2.873251
20
-9.629005
10
2.851512
20
-9.558505
10
2.829932
20
-9.487957
10
2.808513
20
-9.417359
10
2.787253
20
-9.346714
10
2.766154
20
-9.27602
10
2.745215
20
-9.205279
10
2.724436
20
-9.13449
10
2.703817
20
-9.063655
10
2.68336
20
-8.992773
10
2.663062
20
-8.921845
10
2.642926
20
-8.850871
10
2.622951
20
-8.779852
10
2.603136
20
-8.708787
10
2.583483
20
-8.637678
10
2.56399
20
-8.566524
10
2.544659
20
-8.495327
10
2.52549
20
-8.424086
10
2.506482
20
-8.352801
10
2.487635
20
-8.281474
10
2.46895
20
-8.210104
10
2.450427
20
-8.138692
10
2.432066
20
-8.067238
10
2.413867
20
-7.995743
10
2.39583
20
-7.924207
10
2.377954
20
-7.85263
10
2.360242
20
-7.781013
10
2.342691
20
-7.709356
10
2.325303
20
-7.637659
10
2.308078
20
-7.565923
10
2.291015
20
-7.494148
10
2.274114
20
-7.422335
10
2.257377
20
-7.350483
10
2.240802
20
-7.278594
10
2.22439
20
-7.206668
10
2.208142
20
-7.134704
10
2.192056
20
-7.062704
10
2.176134
20
-6.990667
10
2.160375
20
-6.918595
10
2.144779
20
-6.846487
10
2.129347
20
-6.774344
10
2.114078
20
-6.702166
10
2.098973
20
-6.629954
10
2.084031
20
-6.557708
10
2.069253
20
-6.485428
10
2.054639
20
-6.413115
10
2.040189
20
-6.340768
10
2.025903
20
-6.26839
10
2.011781
20
-6.195979
10
1.997823
20
-6.123536
10
1.984029
20
-6.051062
10
1.9704
20
-5.978557
10
1.956935
20
-5.906021
10
1.943634
20
-5.833454
10
1.930498
20
-5.760858
10
1.917526
20
-5.688232
10
1.904719
20
-5.615577
10
1.892076
20
-5.542894
10
1.879599
20
-5.470181
10
1.867286
20
-5.397441
10
1.855138
20
-5.324673
10
1.843154
20
-5.251877
10
1.831336
20
-5.179055
10
1.819683
20
-5.106206
10
1.808195
20
-5.033331
10
1.796872
20
-4.96043
10
1.785715
20
-4.887503
10
1.774722
20
-4.814551
10
1.763895
20
-4.741575
10
1.753234
20
-4.668574
10
1.742737
20
-4.59555
10
1.732407
20
-4.522501
10
1.722242
20
-4.44943
10
1.712242
20
-4.376336
10
1.702408
20
-4.303219
10
1.69274
20
-4.23008
10
1.683238
20
-4.156919
10
1.673901
20
-4.083737
10
1.66473
20
-4.010534
10
1.655725
20
-3.937311
10
1.646886
20
-3.864067
10
1.638213
20
-3.790803
10
1.629707
20
-3.71752
10
1.621366
20
-3.644218
10
1.613191
20
-3.570897
10
1.605183
20
-3.497558
10
1.59734
20
-3.424201
10
1.589664
20
-3.350826
10
1.582154
20
-3.277434
10
1.574811
20
-3.204026
10
1.567634
20
-3.1306
10
1.560623
20
-3.057159
10
1.553779
20
-2.983702
10
1.547101
20
-2.91023
10
1.54059
20
-2.836742
10
1.534245
20
-2.763241
10
1.528067
20
-2.689725
10
1.522055
20
-2.616195
10
1.51621
20
-2.542652
10
1.510532
20
-2.469095
10
1.505021
20
-2.395526
10
1.499676
20
-2.321945
10
1.494498
20
-2.248352
10
1.489486
20
-2.174747
10
1.484642
20
-2.101131
10
1.479964
20
-2.027504
10
1.475453
20
-1.953867
10
1.471109
20
-1.88022
10
1.466932
20
-1.806563
10
1.462922
20
-1.732897
10
1.459079
20
-1.659222
10
1.455402
20
-1.585539
10
1.451893
20
-1.511847
10
1.448551
20
-1.438148
10
1.445375
20
-1.364441
10
1.442367
20
-1.290727
10
1.439526
20
-1.217007
10
1.436852
20
-1.14328
10
1.434344
20
-1.069547
10
1.432004
20
-0.9958095
10
1.429832
20
-0.9220663
10
1.427826
20
-0.8483184
10
1.425987
20
-0.7745662
10
1.424315
20
-0.70081
10
1.422811
20
-0.6270502
10
1.421474
20
-0.5532871
10
1.420303
20
-0.4795213
10
1.4193
20
-0.4057529
10
1.418465
20
-0.3319825
10
1.417796
20
-0.2582104
10
1.417294
20
-0.1844369
10
1.41696
20
-0.1106625
10
1.416793
20
-0.03688758
10
1.416793
20
0.03688758
10
1.41696
20
0.1106625
10
1.417294
20
0.1844369
10
1.417796
20
0.2582104
10
1.418465
20
0.3319825
10
1.4193
20
0.4057529
10
1.420303
20
0.4795213
10
1.421474
20
0.5532871
10
1.422811
20
0.6270502
10
1.424315
20
0.70081
10
1.425987
20
0.7745662
10
1.427826
20
0.8483184
10
1.429832
20
0.9220663
10
1.432004
20
0.9958095
10
1.434344
20
1.069547
10
1.436852
20
1.14328
10
1.439526
20
1.217007
10
1.442367
20
1.290727
10
1.445375
20
1.364441
10
1.448551
20
1.438148
10
1.451893
20
1.511847
10
1.455402
20
1.585539
10
1.459079
20
1.659222
10
1.462922
20
1.732897
10
1.466932
20
1.806563
10
1.471109
20
1.88022
10
1.475453
20
1.953867
10
1.479964
20
2.027504
10
1.484642
20
2.101131
10
1.489486
20
2.174747
10
1.494498
20
2.248352
10
1.499676
20
2.321945
10
1.505021
20
2.395526
10
1.510532
20
2.469095
10
1.51621
20
2.542652
10
1.522055
20
2.616195
10
1.528067
20
2.689725
10
1.534245
20
2.763241
10
1.54059
20
2.836742
10
1.547101
20
2.91023
10
1.553779
20
2.983702
10
1.560623
20
3.057159
10
1.567634
20
3.1306
10
1.574811
20
3.204026
10
1.582154
20
3.277434
10
1.589664
20
3.350826
10
1.59734
20
3.424201
10
1.605183
20
3.497558
10
1.613191
20
3.570897
10
1.621366
20
3.644218
10
1.629707
20
3.71752
10
1.638213
20
3.790803
10
1.646886
20
3.864067
10
1.655725
20
3.937311
10
1.66473
20
4.010534
10
1.673901
20
4.083737
10
1.683238
20
4.156919
10
1.69274
20
4.23008
10
1.702408
20
4.303219
10
1.712242
20
4.376336
10
1.722242
20
4.44943
10
1.732407
20
4.522501
10
1.742737
20
4.59555
10
1.753234
20
4.668574
10
1.763895
20
4.741575
10
1.774722
20
4.814551
10
1.785715
20
4.887503
10
1.796872
20
4.96043
10
1.808195
20
5.033331
10
1.819683
20
5.106206
10
1.831336
20
5.179055
10
1.843154
20
5.251877
10
1.855138
20
5.324673
10
1.867286
20
5.397441
10
1.879599
20
5.470181
10
1.892076
20
5.542894
10
1.904719
20
5.615577
10
1.917526
20
5.688232
10
1.930498
20
5.760858
10
1.943634
20
5.833454
10
1.956935
20
5.906021
10
1.9704
20
5.978557
10
1.984029
20
6.051062
10
1.997823
20
6.123536
10
2.011781
20
6.195979
10
2.025903
20
6.26839
10
2.040189
20
6.340768
10
2.054639
20
6.413115
10
2.069253
20
6.485428
10
2.084031
20
6.557708
10
2.098973
20
6.629954
10
2.114078
20
6.702166
10
2.129347
20
6.774344
10
2.144779
20
6.846487
10
2.160375
20
6.918595
10
2.176134
20
6.990667
10
2.192056
20
7.062704
10
2.208142
20
7.134704
10
2.22439
20
7.206668
10
2.240802
20
7.278594
10
2.257377
20
7.350483
10
2.274114
20
7.422335
10
2.291015
20
7.494148
10
2.308078
20
7.565923
10
2.325303
20
7.637659
10
2.342691
20
7.709356
10
2.360242
20
7.781013
10
2.377954
20
7.85263
10
2.39583
20
7.924207
10
2.413867
20
7.995743
10
2.432066
20
8.067238
10
2.450427
20
8.138692
10
2.46895
20
8.210104
10
2.487635
20
8.281474
10
2.506482
20
8.352801
10
2.52549
20
8.424086
10
2.544659
20
8.495327
10
2.56399
20
8.566524
10
2.583483
20
8.637678
10
2.603136
20
8.708787
10
2.622951
20
8.779852
10
2.642926
20
8.850871
10
2.663062
20
8.921845
10
2.68336
20
8.992773
10
2.703817
20
9.063655
10
2.724436
20
9.13449
10
2.745215
20
9.205279
10
2.766154
20
9.27602
10
2.787253
20
9.346714
10
2.808513
20
9.417359
10
2.829932
20
9.487957
10
2.851512
20
9.558505
10
2.873251
20
9.629005
10
2.89515
20
9.699455
10
2.917209
20
9.769855
10
2.939427
20
9.840205
10
2.961804
20
9.910504
10
2.984341
20
9.980753
10
3.007037
20
10.05095
10
3.029892
20
10.1211
10
3.052905
20
10.19119
10
3.076078
20
10.26123
10
3.099409
20
10.33122
10
3.122899
20
10.40116
10
3.146547
20
10.47104
10
3.170353
20
10.54087
10
3.194318
20
10.61064
10
3.21844
20
10.68036
10
3.242721
20
10.75003
10
3.267159
20
10.81964
10
3.291755
20
10.88919
10
3.316508
20
10.95869
10
3.341419
20
11.02813
10
3.366487
20
11.09752
10
3.391713
20
11.16685
10
3.417095
20
11.23612
10
3.442635
20
11.30533
10
3.468331
20
11.37449
10
3.494183
20
11.44358
10
3.520193
20
11.51262
10
3.546358
20
11.5816
10
3.57268
20
11.65052
10
3.599158
20
11.71938
10
3.625792
20
11.78818
10
3.652582
20
11.85692
10
3.679527
20
11.9256
10
3.706628
20
11.99421
10
3.733885
20
12.06277
10
3.761296
20
12.13126
10
3.788863
20
12.1997
10
3.816585
20
12.26806
10
3.844462
20
12.33637
10
3.872493
20
12.40461
10
3.900679
20
12.47279
10
3.929019
20
12.54091
10
3.957514
20
12.60896
10
3.986163
20
12.67694
10
4.014965
20
12.74486
10
4.043922
20
12.81272
10
4.073032
20
12.88051
10
4.102296
20
12.94823
10
4.131713
20
13.01588
10
4.161284
20
13.08347
10
4.191007
20
13.151
10
4.220883
20
13.21845
10
4.250913
20
13.28584
10
4.281095
20
13.35316
10
4.311429
20
13.42041
10
4.341915
20
13.48759
10
4.372554
20
13.5547
10
4.403345
20
13.62174
10
4.434287
20
13.68872
10
4.465382
20
13.75562
10
4.496627
20
13.82245
10
4.528025
20
13.88921
10
4.559573
20
13.9559
10
4.591272
20
14.02252
10
4.623123
20
14.08906
10
4.655124
20
14.15554
10
4.687275
20
14.22194
10
4.719577
20
14.28827
10
4.752029
20
14.35452
10
4.784631
20
14.4207
10
4.817383
20
14.48681
10
4.850285
20
14.55284
10
4.883336
20
14.6188
10
4.916537
20
14.68468
10
4.949887
20
14.75049
10
4.983386
20
14.81622
10
5.017033
20
14.88187
10
5.05083
20
14.94745
10
5.084775
20
15.01295
10
5.118868
20
15.07838
10
5.153109
20
15.14373
10
5.187499
20
15.209
10
5.222036
20
15.27419
10
5.256721
20
15.3393
10
5.291553
20
15.40434
10
5.326533
20
15.46929
10
5.36166
20
15.53417
10
5.396933
20
15.59896
10
5.432354
20
15.66368
10
5.467921
20
15.72831
10
5.503634
20
15.79287
10
5.539493
20
15.85734
10
5.575499
20
15.92174
10
5.61165
20
15.98605
10
5.647947
20
16.05028
10
5.68439
20
16.11442
10
5.720977
20
16.17848
10
5.75771
20
16.24246
10
5.794588
20
16.30636
10
5.83161
20
16.37017
10
5.868777
20
16.4339
10
5.906088
20
16.49755
10
5.943543
20
16.56111
10
5.981142
20
16.62458
10
6.018885
20
16.68797
10
6.056772
20
16.75128
10
6.094801
20
16.8145
10
6.132974
20
16.87763
10
6.17129
20
16.94067
10
6.209749
20
17.00363
10
6.24835
20
17.0665
10
6.287094
20
17.12928
10
6.32598
20
17.19198
10
6.365007
20
17.25459
10
6.404177
20
17.3171
10
6.443488
20
17.37953
10
6.48294
20
17.44187
10
6.522534
20
17.50412
10
6.562269
20
17.56628
10
6.602144
20
17.62835
10
6.64216
20
17.69033
10
6.682316
20
17.75222
10
6.722612
20
17.81402
0
LINE
5
49
100
AcDbEntity
8
0
6
ByLayer
62
256
370
-1
100
AcDbLine
10
6.722612
20
17.81402
11
-0.09033801
21
22.26753
0
LWPOLYLINE
5
4A
100
AcDbEntity
8
0
6
ByLayer
62
256
370
-1
100
AcDbPolyline
90
512
70
0
43
0
10
-0.09033801
20
22.26753
10
-0.1407084
20
22.19028
10
-0.1909037
20
22.11292
10
-0.2409235
20
22.03544
10
-0.2907676
20
21.95785
10
-0.3404358
20
21.88015
10
-0.3899278
20
21.80234
10
-0.4392433
20
21.72442
10
-0.4883821
20
21.64638
10
-0.537344
20
21.56823
10
-0.5861287
20
21.48997
10
-0.6347359
20
21.4116
10
-0.6831654
20
21.33313
10
-0.731417
20
21.25454
10
-0.7794903
20
21.17584
10
-0.8273852
20
21.09703
10
-0.8751014
20
21.01812
10
-0.9226387
20
20.9391
10
-0.9699968
20
20.85997
10
-1.017175
20
20.78073
10
-1.064174
20
20.70139
10
-1.110993
20
20.62194
10
-1.157632
20
20.54238
10
-1.204091
20
20.46272
10
-1.250369
20
20.38295
10
-1.296466
20
20.30308
10
-1.342382
20
20.22311
10
-1.388116
20
20.14303
10
-1.433669
20
20.06284
10
-1.47904
20
19.98256
10
-1.52423
20
19.90217
10
-1.569236
20
19.82168
10
-1.614061
20
19.74109
10
-1.658702
20
19.66039
10
-1.703161
20
19.5796
10
-1.747437
20
19.4987
10
-1.791529
20
19.41771
10
-1.835437
20
19.33661
10
-1.879162
20
19.25542
10
-1.922702
20
19.17413
10
-1.966058
20
19.09273
10
-2.00923
20
19.01125
10
-2.052216
20
18.92966
10
-2.095018
20
18.84797
10
-2.137635
20
18.76619
10
-2.180066
20
18.68432
10
-2.222312
20
18.60234
10
-2.264371
20
18.52027
10
-2.306245
20
18.43811
10
-2.347932
20
18.35585
10
-2.389433
20
18.2735
10
-2.430747
20
18.19105
10
-2.471874
20
18.10851
10
-2.512814
20
18.02588
10
-2.553567
20
17.94315
10
-2.594132
20
17.86033
10
-2.63451
20
17.77742
10
-2.674699
20
17.69442
10
-2.7147
20
17.61133
10
-2.754513
20
17.52815
10
-2.794137
20
17.44488
10
-2.833573
20
17.36151
10
-2.872819
20
17.27806
10
-2.911876
20
17.19452
10
-2.950744
20
17.1109
10
-2.989422
20
17.02718
10
-3.027911
20
16.94338
10
-3.066209
20
16.85949
10
-3.104317
20
16.77551
10
-3.142235
20
16.69145
10
-3.179962
20
16.6073
10
-3.217499
20
16.52306
10
-3.254844
20
16.43875
10
-3.291999
20
16.35434
10
-3.328962
20
16.26986
10
-3.365733
20
16.18529
10
-3.402313
20
16.10063
10
-3.438701
20
16.0159
10
-3.474897
20
15.93108
10
-3.5109
20
15.84618
10
-3.546711
20
15.76119
10
-3.582329
20
15.67613
10
-3.617755
20
15.59099
10
-3.652987
20
15.50577
10
-3.688026
20
15.42046
10
-3.722872
20
15.33508
10
-3.757524
20
15.24962
10
-3.791983
20
15.16408
10
-3.826248
20
15.07846
10
-3.860318
20
14.99277
10
-3.894194
20
14.907
10
-3.927876
20
14.82115
10
-3.961363
20
14.73523
10
-3.994656
20
14.64923
10
-4.027753
20
14.56315
10
-4.060655
20
14.477
10
-4.093362
20
14.39078
10
-4.125874
20
14.30448
10
-4.15819
20
14.21811
10
-4.19031
20
14.13166
10
-4.222234
20
14.04515
10
-4.253962
20
13.95856
10
-4.285494
20
13.8719
10
-4.316829
20
13.78516
10
-4.347968
20
13.69836
10
-4.37891
20
13.61149
10
-4.409655
20
13.52455
10
-4.440203
20
13.43753
10
-4.470553
20
13.35045
10
-4.500706
20
13.2633
10
-4.530662
20
13.17608
10
-4.56042
20
13.0888
10
-4.58998
20
13.00145
10
-4.619342
20
12.91403
10
-4.648506
20
12.82654
10
-4.677472
20
12.73899
10
-4.706239
20
12.65137
10
-4.734807
20
12.56369
10
-4.763177
20
12.47594
10
-4.791348
20
12.38813
10
-4.81932
20
12.30026
10
-4.847092
20
12.21232
10
-4.874665
20
12.12432
10
-4.902039
20
12.03626
10
-4.929213
20
11.94813
10
-4.956188
20
11.85995
10
-4.982962
20
11.7717
10
-5.009537
20
11.68339
10
-5.035911
20
11.59503
10
-5.062085
20
11.5066
10
-5.088059
20
11.41811
10
-5.113832
20
11.32957
10
-5.139404
20
11.24097
10
-5.164775
20
11.15231
10
-5.189946
20
11.06359
10
-5.214915
20
10.97481
10
-5.239683
20
10.88598
10
-5.26425
20
10.7971
10
-5.288615
20
10.70816
10
-5.312779
20
10.61916
10
-5.336741
20
10.53011
10
-5.360501
20
10.441
10
-5.384059
20
10.35184
10
-5.407415
20
10.26263
10
-5.430569
20
10.17337
10
-5.453521
20
10.08405
10
-5.47627
20
9.994679
10
-5.498816
20
9.905259
10
-5.52116
20
9.815788
10
-5.543301
20
9.726266
10
-5.565239
20
9.636695
10
-5.586974
20
9.547074
10
-5.608506
20
9.457404
10
-5.629835
20
9.367685
10
-5.65096
20
9.277918
10
-5.671882
20
9.188104
10
-5.692601
20
9.098243
10
-5.713115
20
9.008334
10
-5.733426
20
8.91838
10
-5.753533
20
8.82838
10
-5.773436
20
8.738334
10
-5.793135
20
8.648244
10
-5.81263
20
8.558109
10
-5.83192
20
8.46793
10
-5.851006
20
8.377708
10
-5.869888
20
8.287443
10
-5.888564
20
8.197135
10
-5.907037
20
8.106785
10
-5.925304
20
8.016393
10
-5.943367
20
7.925961
10
-5.961224
20
7.835487
10
-5.978877
20
7.744973
10
-5.996324
20
7.65442
10
-6.013567
20
7.563827
10
-6.030603
20
7.473196
10
-6.047435
20
7.382526
10
-6.064061
20
7.291818
10
-6.080481
20
7.201073
10
-6.096696
20
7.11029
10
-6.112705
20
7.019472
10
-6.128508
20
6.928617
10
-6.144105
20
6.837727
10
-6.159496
20
6.746801
10
-6.174681
20
6.655841
10
-6.18966
20
6.564847
10
-6.204433
20
6.473819
10
-6.218999
20
6.382757
10
-6.233359
20
6.291663
10
-6.247513
20
6.200537
10
-6.26146
20
6.109379
10
-6.2752
20
6.018189
10
-6.288734
20
5.926969
10
-6.302061
20
5.835718
10
-6.315182
20
5.744437
10
-6.328095
20
5.653127
10
-6.340801
20
5.561787
10
-6.353301
20
5.470419
10
-6.365593
20
5.379023
10
-6.377678
20
5.2876
10
-6.389556
20
5.196149
10
-6.401227
20
5.104672
10
-6.412691
20
5.013168
10
-6.423947
20
4.921638
10
-6.434995
20
4.830084
10
-6.445836
20
4.738504
10
-6.45647
20
4.6469
10
-6.466896
20
4.555273
10
-6.477114
20
4.463622
10
-6.487125
20
4.371948
10
-6.496928
20
4.280251
10
-6.506523
20
4.188533
10
-6.51591
20
4.096793
10
-6.52509
20
4.005032
10
-6.534061
20
3.91325
10
-6.542824
20
3.821449
10
-6.55138
20
3.729628
10
-6.559727
20
3.637787
10
-6.567866
20
3.545928
10
-6.575797
20
3.454051
10
-6.58352
20
3.362156
10
-6.591034
20
3.270244
10
-6.59834
20
3.178314
10
-6.605438
20
3.086369
10
-6.612328
20
2.994408
10
-6.619009
20
2.902431
10
-6.625481
20
2.81044
10
-6.631745
20
2.718434
10
-6.637801
20
2.626414
10
-6.643648
20
2.534381
10
-6.649287
20
2.442334
10
-6.654717
20
2.350275
10
-6.659938
20
2.258204
10
-6.664951
20
2.166122
10
-6.669755
20
2.074028
10
-6.67435
20
1.981923
10
-6.678737
20
1.889809
10
-6.682915
20
1.797685
10
-6.686884
20
1.705551
10
-6.690644
20
1.613409
10
-6.694196
20
1.521258
10
-6.697539
20
1.4291
10
-6.700673
20
1.336934
10
-6.703598
20
1.244762
10
-6.706314
20
1.152583
10
-6.708821
20
1.060398
10
-6.71112
20
0.9682077
10
-6.713209
20
0.8760125
10
-6.71509
20
0.7838127
10
-6.716761
20
0.6916089
10
-6.718224
20
0.5994016
10
-6.719478
20
0.5071912
10
-6.720523
20
0.4149781
10
-6.721358
20
0.322763
10
-6.721985
20
0.2305462
10
-6.722403
20
0.1383282
10
-6.722612
20
0.04610947
10
-6.722612
20
-0.04610947
10
-6.722403
20
-0.1383282
10
-6.721985
20
-0.2305462
10
-6.721358
20
-0.322763
10
-6.720523
20
-0.4149781
10
-6.719478
20
-0.5071912
10
-6.718224
20
-0.5994016
10
-6.716761
20
-0.6916089
10
-6.71509
20
-0.7838127
10
-6.713209
20
-0.8760125
10
-6.71112
20
-0.9682077
10
-6.708821
20
-1.060398
10
-6.706314
20
-1.152583
10
-6.703598
20
-1.244762
10
-6.700673
20
-1.336934
10
-6.697539
20
-1.4291
10
-6.694196
20
-1.521258
10
-6.690644
20
-1.613409
10
-6.686884
20
-1.705551
10
-6.682915
20
-1.797685
10
-6.678737
20
-1.889809
10
-6.67435
20
-1.981923
10
-6.669755
20
-2.074028
10
-6.664951
20
-2.166122
10
-6.659938
20
-2.258204
10
-6.654717
20
-2.350275
10
-6.649287
20
-2.442334
10
-6.643648
20
-2.534381
10
-6.637801
20
-2.626414
10
-6.631745
20
-2.718434
10
-6.625481
20
-2.81044
10
-6.619009
20
-2.902431
10
-6.612328
20
-2.994408
10
-6.605438
20
-3.086369
10
-6.59834
20
-3.178314
10
-6.591034
20
-3.270244
10
-6.58352
20
-3.362156
10
-6.575797
20
-3.454051
10
-6.567866
20
-3.545928
10
-6.559727
20
-3.637787
10
-6.55138
20
-3.729628
10
-6.542824
20
-3.821449
10
-6.534061
20
-3.91325
10
-6.52509
20
-4.005032
10
-6.51591
20
-4.096793
10
-6.506523
20
-4.188533
10
-6.496928
20
-4.280251
10
-6.487125
20
-4.371948
10
-6.477114
20
-4.463622
10
-6.466896
20
-4.555273
10
-6.45647
20
-4.6469
10
-6.445836
20
-4.738504
10
-6.434995
20
-4.830084
10
-6.423947
20
-4.921638
10
-6.412691
20
-5.013168
10
-6.401227
20
-5.104672
10
-6.389556
20
-5.196149
10
-6.377678
20
-5.2876
10
-6.365593
20
-5.379023
10
-6.353301
20
-5.470419
10
-6.340801
20
-5.561787
10
-6.328095
20
-5.653127
10
-6.315182
20
-5.744437
10
-6.302061
20
-5.835718
10
-6.288734
20
-5.926969
10
-6.2752
20
-6.018189
10
-6.26146
20
-6.109379
10
-6.247513
20
-6.200537
10
-6.233359
20
-6.291663
10
-6.218999
20
-6.382757
10
-6.204433
20
-6.473819
10
-6.18966
20
-6.564847
10
-6.174681
20
-6.655841
10
-6.159496
20
-6.746801
10
-6.144105
20
-6.837727
10
-6.128508
20
-6.928617
10
-6.112705
20
-7.019472
10
-6.096696
20
-7.11029
10
-6.080481
20
-7.201073
10
-6.064061
20
-7.291818
10
-6.047435
20
-7.382526
10
-6.030603
20
-7.473196
10
-6.013567
20
-7.563827
10
-5.996324
20
-7.65442
10
-5.978877
20
-7.744973
10
-5.961224
20
-7.835487
10
-5.943367
20
-7.925961
10
-5.925304
20
-8.016393
10
-5.907037
20
-8.106785
10
-5.888564
20
-8.197135
10
-5.869888
20
-8.287443
10
-5.851006
20
-8.377708
10
-5.83192
20
-8.46793
10
-5.81263
20
-8.558109
10
-5.793135
20
-8.648244
10
-5.773436
20
-8.738334
10
-5.753533
20
-8.82838
10
-5.733426
20
-8.91838
10
-5.713115
20
-9.008334
10
-5.692601
20
-9.098243
10
-5.671882
20
-9.188104
10
-5.65096
20
-9.277918
10
-5.629835
20
-9.367685
10
-5.608506
20
-9.457404
10
-5.586974
20
-9.547074
10
-5.565239
20
-9.636695
10
-5.543301
20
-9.726266
10
-5.52116
20
-9.815788
10
-5.498816
20
-9.905259
10
-5.47627
20
-9.994679
10
-5.453521
20
-10.08405
10
-5.430569
20
-10.17337
10
-5.407415
20
-10.26263
10
-5.384059
20
-10.35184
10
-5.360501
20
-10.441
10
-5.336741
20
-10.53011
10
-5.312779
20
-10.61916
10
-5.288615
20
-10.70816
10
-5.26425
20
-10.7971
10
-5.239683
20
-10.88598
10
-5.214915
20
-10.97481
10
-5.189946
20
-11.06359
10
-5.164775
20
-11.15231
10
-5.139404
20
-11.24097
10
-5.113832
20
-11.32957
10
-5.088059
20
-11.41811
10
-5.062085
20
-11.5066
10
-5.035911
20
-11.59503
10
-5.009537
20
-11.68339
10
-4.982962
20
-11.7717
10
-4.956188
20
-11.85995
10
-4.929213
20
-11.94813
10
-4.902039
20
-12.03626
10
-4.874665
20
-12.12432
10
-4.847092
20
-12.21232
10
-4.81932
20
-12.30026
10
-4.791348
20
-12.38813
10
-4.763177
20
-12.47594
10
-4.734807
20
-12.56369
10
-4.706239
20
-12.65137
10
-4.677472
20
-12.73899
10
-4.648506
20
-12.82654
10
-4.619342
20
-12.91403
10
-4.58998
20
-13.00145
10
-4.56042
20
-13.0888
10
-4.530662
20
-13.17608
10
-4.500706
20
-13.2633
10
-4.470553
20
-13.35045
10
-4.440203
20
-13.43753
10
-4.409655
20
-13.52455
10
-4.37891
20
-13.61149
10
-4.347968
20
-13.69836
10
-4.316829
20
-13.78516
10
-4.285494
20
-13.8719
10
-4.253962
20
-13.95856
10
-4.222234
20
-14.04515
10
-4.19031
20
-14.13166
10
-4.15819
20
-14.21811
10
-4.125874
20
-14.30448
10
-4.093362
20
-14.39078
10
-4.060655
20
-14.477
10
-4.027753
20
-14.56315
10
-3.994656
20
-14.64923
10
-3.961363
20
-14.73523
10
-3.927876
20
-14.82115
10
-3.894194
20
-14.907
10
-3.860318
20
-14.99277
10
-3.826248
20
-15.07846
10
-3.791983
20
-15.16408
10
-3.757524
20
-15.24962
10
-3.722872
20
-15.33508
10
-3.688026
20
-15.42046
10
-3.652987
20
-15.50577
10
-3.617755
20
-15.59099
10
-3.582329
20
-15.67613
10
-3.546711
20
-15.76119
10
-3.5109
20
-15.84618
10
-3.474897
20
-15.93108
10
-3.438701
20
-16.0159
10
-3.402313
20
-16.10063
10
-3.365733
20
-16.18529
10
-3.328962
20
-16.26986
10
-3.291999
20
-16.35434
10
-3.254844
20
-16.43875
10
-3.217499
20
-16.52306
10
-3.179962
20
-16.6073
10
-3.142235
20
-16.69145
10
-3.104317
20
-16.77551
10
-3.066209
20
-16.85949
10
-3.027911
20
-16.94338
10
-2.989422
20
-17.02718
10
-2.950744
20
-17.1109
10
-2.911876
20
-17.19452
10
-2.872819
20
-17.27806
10
-2.833573
20
-17.36151
10
-2.794137
20
-17.44488
10
-2.754513
20
-17.52815
10
-2.7147
20
-17.61133
10
-2.674699
20
-17.69442
10
-2.63451
20
-17.77742
10
-2.594132
20
-17.86033
10
-2.553567
20
-17.94315
10
-2.512814
20
-18.02588
10
-2.471874
20
-18.10851
10
-2.430747
20
-18.19105
10
-2.389433
20
-18.2735
10
-2.347932
20
-18.35585
10
-2.306245
20
-18.43811
10
-2.264371
20
-18.52027
10
-2.222312
20
-18.60234
10
-2.180066
20
-18.68432
10
-2.137635
20
-18.76619
10
-2.095018
20
-18.84797
10
-2.052216
20
-18.92966
10
-2.00923
20
-19.01125
10
-1.966058
20
-19.09273
10
-1.922702
20
-19.17413
10
-1.879162
20
-19.25542
10
-1.835437
20
-19.33661
10
-1.791529
20
-19.41771
10
-1.747437
20
-19.4987
10
-1.703161
20
-19.5796
10
-1.658702
20
-19.66039
10
-1.614061
20
-19.74109
10
-1.569236
20
-19.82168
10
-1.52423
20
-19.90217
10
-1.47904
20
-19.98256
10
-1.433669
20
-20.06284
10
-1.388116
20
-20.14303
10
-1.342382
20
-20.22311
10
-1.296466
20
-20.30308
10
-1.250369
20
-20.38295
10
-1.204091
20
-20.46272
10
-1.157632
20
-20.54238
10
-1.110993
20
-20.62194
10
-1.064174
20
-20.70139
10
-1.017175
20
-20.78073
10
-0.9699968
20
-20.85997
10
-0.9226387
20
-20.9391
10
-0.8751014
20
-21.01812
10
-0.8273852
20
-21.09703
10
-0.7794903
20
-21.17584
10
-0.731417
20
-21.25454
10
-0.6831654
20
-21.33313
10
-0.6347359
20
-21.4116
10
-0.5861287
20
-21.48997
10
-0.537344
20
-21.56823
10
-0.4883821
20
-21.64638
10
-0.4392433
20
-21.72442
10
-0.3899278
20
-21.80234
10
-0.3404358
20
-21.88015
10
-0.2907676
20
-21.95785
10
-0.2409235
20
-22.03544
10
-0.1909037
20
-22.11292
10
-0.1407084
20
-22.19028
10
-0.09033801
20
-22.26753
0
LINE
5
4B
100
AcDbEntity
8
0
6
ByLayer
62
256
370
-1
100
AcDbLine
10
-0.09033801
20
-22.26753
11
6.722612
21
-17.81402
0
POINT
5
4C
100
AcDbEntity
8
0
6
ByLayer
62
256
370
-1
100
AcDbPoint
10
0
20
22.2298112
0
POINT
5
4D
100
AcDbEntity
8
0
6
ByLayer
62
256
370
-1
100
AcDbPoint
10
0.54525952
20
23.19450112
0
POINT
5
4E
100
AcDbEntity
8
0
6
ByLayer
62
256
370
-1
100
AcDbPoint
10
7.42391808
20
18.4549376
0
POINT
5
4F
100
AcDbEntity
8
0
6
ByLayer
62
256
370
-1
100
AcDbPoint
10
6.87865856
20
17.74190592
0
POINT
5
50
100
AcDbEntity
8
0
6
ByLayer
62
256
370
-1
100
AcDbPoint
10
0
20
22.2298112
0
LINE
5
51
100
AcDbEntity
8
0
6
ByLayer
62
256
370
-1
100
AcDbLine
10
30
20
70
11
30
21
70
0
LINE
5
52
100
AcDbEntity
8
0
6
ByLayer
62
256
370
-1
100
AcDbLine
10
30
20
70
11
30
21
70
0
LINE
5
53
100
AcDbEntity
8
0
6
ByLayer
62
256
370
-1
100
AcDbLine
10
30
20
70
11
30
21
70
0
LINE
5
54
100
AcDbEntity
8
0
6
ByLayer
62
256
370
-1
100
AcDbLine
10
30
20
70
11
30
21
70
0
LINE
5
55
100
AcDbEntity
8
0
6
ByLayer
62
256
370
-1
100
AcDbLine
10
50
20
50
11
20
21
50
0
LINE
5
56
100
AcDbEntity
8
0
6
ByLayer
62
256
370
-1
100
AcDbLine
10
20
20
50
11
20
21
50
0
LINE
5
57
100
AcDbEntity
8
0
6
ByLayer
62
256
370
-1
100
AcDbLine
10
20
20
50
11
50
21
50
0
LINE
5
58
100
AcDbEntity
8
0
6
ByLayer
62
256
370
-1
100
AcDbLine
10
50
20
50
11
50
21
50
0
LINE
5
59
100
AcDbEntity
8
0
6
ByLayer
62
256
370
-1
100
AcDbLine
10
20
20
70
11
20
21
70
0
LINE
5
5A
100
AcDbEntity
8
0
6
ByLayer
62
256
370
-1
100
AcDbLine
10
20
20
70
11
20
21
70
0
LINE
5
5B
100
AcDbEntity
8
0
6
ByLayer
62
256
370
-1
100
AcDbLine
10
20
20
70
11
20
21
70
0
LINE
5
5C
100
AcDbEntity
8
0
6
ByLayer
62
256
370
-1
100
AcDbLine
10
20
20
70
11
20
21
70
0
LINE
5
5D
100
AcDbEntity
8
noname
6
ByLayer
62
256
370
-1
100
AcDbLine
10
20
20
70
11
50
21
70
0
LINE
5
5E
100
AcDbEntity
8
noname
6
ByLayer
62
256
370
-1
100
AcDbLine
10
50
20
70
11
50
21
50
0
LINE
5
5F
100
AcDbEntity
8
noname
6
ByLayer
62
256
370
-1
100
AcDbLine
10
50
20
50
11
20
21
50
0
LINE
5
60
100
AcDbEntity
8
noname
6
ByLayer
62
256
370
-1
100
AcDbLine
10
20
20
50
11
20
21
70
0
LINE
5
61
100
AcDbEntity
8
noname2
6
ByLayer
62
256
370
-1
100
AcDbLine
10
7.26976572745
20
18.6510521371
11
0.456815717449
21
23.1045621371
0
ENDSEC
0
SECTION
2
OBJECTS
0
DICTIONARY
5
C
330
0
100
AcDbDictionary
281
1
3
ACAD_GROUP
350
D
0
DICTIONARY
5
D
330
C
100
AcDbDictionary
281
1
0
ENDSEC
0
EOF
