999
dxfrw 0.5.10
0
SECTION
2
HEADER
9
$ACADVER
1
AC1021
9
$HANDSEED
5
20000
9
$DWGCODEPAGE
3
ANSI_1252
9
$INSBASE
10
0
20
0
30
0
9
$EXTMIN
10
11.5683907614
20
0
30
0
9
$EXTMAX
10
598.531603625
20
0
30
0
9
$LIMMIN
10
0
20
0
9
$LIMMAX
10
420
20
297
9
$ORTHOMODE
70
0
9
$LTSCALE
40
1
9
$TEXTSTYLE
7
STANDARD
9
$CLAYER
8
0
9
$DIMASZ
40
0.1
9
$DIMLFAC
40
1
9
$DIMSCALE
40
1
9
$DIMEXO
40
0.025
9
$DIMEXE
40
0.05
9
$DIMTXT
40
0.1
9
$DIMTSZ
40
0
9
$DIMAUNIT
70
0
9
$DIMADEC
70
0
9
$DIMLUNIT
70
2
9
$DIMSTYLE
2
STANDARD
9
$DIMGAP
40
0.025
9
$DIMTIH
70
0
9
$LUNITS
70
2
9
$LUPREC
70
4
9
$AUNITS
70
0
9
$AUPREC
70
2
9
$SPLINESEGS
70
8
9
$GRIDMODE
70
1
9
$SNAPSTYLE
70
0
9
$PINSBASE
10
0
20
0
30
0
9
$PLIMMIN
10
0
20
0
9
$PLIMMAX
10
4.77216663095e-11
20
6.74922609688e-11
9
$INSUNITS
70
1
9
$PSVPSCALE
40
1
0
ENDSEC
0
SECTION
2
CLASSES
0
ENDSEC
0
SECTION
2
TABLES
0
TABLE
2
VPORT
5
8
330
0
100
AcDbSymbolTable
70
1
0
VPORT
5
31
330
2
100
AcDbSymbolTableRecord
100
AcDbViewportTableRecord
2
*ACTIVE
70
0
10
0
20
0
11
1
21
1
12
300.898109121
22
70.809942346
13
0
23
0
14
10
24
10
15
10
25
10
16
0
26
0
36
1
17
0
27
0
37
0
40
283.239769384
41
2.09725685786
42
50
43
0
44
0
50
0
51
0
71
0
72
100
73
1
74
3
75
0
76
1
77
0
78
0
281
0
65
1
110
0
120
0
130
0
111
1
121
0
131
0
112
0
122
1
132
0
79
0
146
0
348
10020
60
7
61
5
292
1
282
1
141
0
142
0
63
250
421
3358443
0
ENDTAB
0
TABLE
2
LTYPE
5
5
330
0
100
AcDbSymbolTable
70
4
0
LTYPE
5
14
330
5
100
AcDbSymbolTableRecord
100
AcDbLinetypeTableRecord
2
ByBlock
70
0
3

72
65
73
0
40
0
0
LTYPE
5
15
330
5
100
AcDbSymbolTableRecord
100
AcDbLinetypeTableRecord
2
ByLayer
70
0
3

72
65
73
0
40
0
0
LTYPE
5
16
330
5
100
AcDbSymbolTableRecord
100
AcDbLinetypeTableRecord
2
Continuous
70
0
3
Solid line
72
65
73
0
40
0
0
LTYPE
5
32
330
5
100
AcDbSymbolTableRecord
100
AcDbLinetypeTableRecord
2
DOT
70
0
3
Dot . . . . . . . . . . . . . . . . . . . . . .
72
65
73
2
40
6.35
49
0
74
0
49
-6.35
74
0
0
LTYPE
5
33
330
5
100
AcDbSymbolTableRecord
100
AcDbLinetypeTableRecord
2
DOT2
70
0
3
Dot (.5x) .....................................
72
65
73
2
40
3.175
49
0
74
0
49
-3.175
74
0
0
LTYPE
5
34
330
5
100
AcDbSymbolTableRecord
100
AcDbLinetypeTableRecord
2
DOTX2
70
0
3
Dot (2x) .  .  .  .  .  .  .  .  .  .  .  .  .
72
65
73
2
40
12.7
49
0
74
0
49
-12.7
74
0
0
LTYPE
5
35
330
5
100
AcDbSymbolTableRecord
100
AcDbLinetypeTableRecord
2
DASHED
70
0
3
Dot . . . . . . . . . . . . . . . . . . . . . .
72
65
73
2
40
19.05
49
12.7
74
0
49
-6.35
74
0
0
LTYPE
5
36
330
5
100
AcDbSymbolTableRecord
100
AcDbLinetypeTableRecord
2
DASHED2
70
0
3
Dashed (.5x) _ _ _ _ _ _ _ _ _ _ _ _ _ _ _ _ _
72
65
73
2
40
9.525
49
6.35
74
0
49
-3.175
74
0
0
LTYPE
5
37
330
5
100
AcDbSymbolTableRecord
100
AcDbLinetypeTableRecord
2
DASHEDX2
70
0
3
Dashed (2x) ____  ____  ____  ____  ____  ___
72
65
73
2
40
38.1
49
25.4
74
0
49
-12.7
74
0
0
LTYPE
5
38
330
5
100
AcDbSymbolTableRecord
100
AcDbLinetypeTableRecord
2
DASHDOT
70
0
3
Dash dot __ . __ . __ . __ . __ . __ . __ . __
72
65
73
4
40
25.4
49
12.7
74
0
49
-6.35
74
0
49
0
74
0
49
-6.35
74
0
0
LTYPE
5
39
330
5
100
AcDbSymbolTableRecord
100
AcDbLinetypeTableRecord
2
DASHDOT2
70
0
3
Dash dot (.5x) _._._._._._._._._._._._._._._.
72
65
73
4
40
12.7
49
6.35
74
0
49
-3.175
74
0
49
0
74
0
49
-3.175
74
0
0
LTYPE
5
3A
330
5
100
AcDbSymbolTableRecord
100
AcDbLinetypeTableRecord
2
DASHDOTX2
70
0
3
Dash dot (2x) ____  .  ____  .  ____  .  ___
72
65
73
4
40
50.8
49
25.4
74
0
49
-12.7
74
0
49
0
74
0
49
-12.7
74
0
0
LTYPE
5
3B
330
5
100
AcDbSymbolTableRecord
100
AcDbLinetypeTableRecord
2
DIVIDE
70
0
3
Divide ____ . . ____ . . ____ . . ____ . . ____
72
65
73
6
40
31.75
49
12.7
74
0
49
-6.35
74
0
49
0
74
0
49
-6.35
74
0
49
0
74
0
49
-6.35
74
0
0
LTYPE
5
3C
330
5
100
AcDbSymbolTableRecord
100
AcDbLinetypeTableRecord
2
DIVIDE2
70
0
3
Divide (.5x) __..__..__..__..__..__..__..__.._
72
65
73
6
40
15.875
49
6.35
74
0
49
-3.175
74
0
49
0
74
0
49
-3.175
74
0
49
0
74
0
49
-3.175
74
0
0
LTYPE
5
3D
330
5
100
AcDbSymbolTableRecord
100
AcDbLinetypeTableRecord
2
DIVIDEX2
70
0
3
Divide (2x) ________  .  .  ________  .  .  _
72
65
73
6
40
63.5
49
25.4
74
0
49
-12.7
74
0
49
0
74
0
49
-12.7
74
0
49
0
74
0
49
-12.7
74
0
0
LTYPE
5
3E
330
5
100
AcDbSymbolTableRecord
100
AcDbLinetypeTableRecord
2
BORDER
70
0
3
Border __ __ . __ __ . __ __ . __ __ . __ __ .
72
65
73
6
40
44.45
49
12.7
74
0
49
-6.35
74
0
49
12.7
74
0
49
-6.35
74
0
49
0
74
0
49
-6.35
74
0
0
LTYPE
5
3F
330
5
100
AcDbSymbolTableRecord
100
AcDbLinetypeTableRecord
2
BORDER2
70
0
3
Border (.5x) __.__.__.__.__.__.__.__.__.__.__.
72
65
73
6
40
22.225
49
6.35
74
0
49
-3.175
74
0
49
6.35
74
0
49
-3.175
74
0
49
0
74
0
49
-3.175
74
0
0
LTYPE
5
40
330
5
100
AcDbSymbolTableRecord
100
AcDbLinetypeTableRecord
2
BORDERX2
70
0
3
Border (2x) ____  ____  .  ____  ____  .  ___
72
65
73
6
40
88.9
49
25.4
74
0
49
-12.7
74
0
49
25.4
74
0
49
-12.7
74
0
49
0
74
0
49
-12.7
74
0
0
LTYPE
5
41
330
5
100
AcDbSymbolTableRecord
100
AcDbLinetypeTableRecord
2
CENTER
70
0
3
Center ____ _ ____ _ ____ _ ____ _ ____ _ ____
72
65
73
4
40
50.8
49
31.75
74
0
49
-6.35
74
0
49
6.35
74
0
49
-6.35
74
0
0
LTYPE
5
42
330
5
100
AcDbSymbolTableRecord
100
AcDbLinetypeTableRecord
2
CENTER2
70
0
3
Center (.5x) ___ _ ___ _ ___ _ ___ _ ___ _ ___
72
65
73
4
40
28.575
49
19.05
74
0
49
-3.175
74
0
49
3.175
74
0
49
-3.175
74
0
0
LTYPE
5
43
330
5
100
AcDbSymbolTableRecord
100
AcDbLinetypeTableRecord
2
CENTERX2
70
0
3
Center (2x) ________  __  ________  __  _____
72
65
73
4
40
101.6
49
63.5
74
0
49
-12.7
74
0
49
12.7
74
0
49
-12.7
74
0
0
ENDTAB
0
TABLE
2
LAYER
5
2
330
0
100
AcDbSymbolTable
70
1
0
LAYER
5
10
330
2
100
AcDbSymbolTableRecord
100
AcDbLayerTableRecord
2
0
70
0
62
7
6
CONTINUOUS
370
0
390
F
0
ENDTAB
0
TABLE
2
STYLE
5
3
330
0
100
AcDbSymbolTable
70
3
0
STYLE
5
44
330
2
100
AcDbSymbolTableRecord
100
AcDbTextStyleTableRecord
2
Standard
70
0
40
0
41
1
50
0
71
0
42
1
3
txt
4

0
ENDTAB
0
TABLE
2
VIEW
5
6
330
0
100
AcDbSymbolTable
70
0
0
ENDTAB
0
TABLE
2
UCS
5
7
330
0
100
AcDbSymbolTable
70
0
0
ENDTAB
0
TABLE
2
APPID
5
9
330
0
100
AcDbSymbolTable
70
1
0
APPID
5
12
330
9
100
AcDbSymbolTableRecord
100
AcDbRegAppTableRecord
2
ACAD
70
0
0
ENDTAB
0
TABLE
2
DIMSTYLE
5
A
330
0
100
AcDbSymbolTable
70
1
100
AcDbDimStyleTable
71
1
0
DIMSTYLE
105
45
330
A
100
AcDbSymbolTableRecord
100
AcDbDimStyleTableRecord
2
Standard
70
0
40
1
41
0.1
42
0.025
43
0.38
44
0.05
45
0
46
0
47
0
48
0
140
0.1
141
0.09
142
0
143
25.4
144
1
145
0
146
1
147
0.025
148
0
71
0
72
0
73
0
74
1
75
0
76
0
77
0
78
0
79
0
170
0
171
2
172
0
173
0
174
0
175
0
176
0
177
0
178
0
179
0
271
4
272
4
273
2
274
2
275
0
276
0
277
2
278
46
279
0
280
0
281
0
282
0
283
1
284
0
285
0
286
0
288
0
289
3
340
Standard
341

371
-2
372
-2
0
ENDTAB
0
TABLE
2
BLOCK_RECORD
5
1
330
0
100
AcDbSymbolTable
70
2
0
BLOCK_RECORD
5
1F
330
1
100
AcDbSymbolTableRecord
100
AcDbBlockTableRecord
2
*Model_Space
70
0
280
1
281
0
0
BLOCK_RECORD
5
1E
330
1
100
AcDbSymbolTableRecord
100
AcDbBlockTableRecord
2
*Paper_Space
70
0
280
1
281
0
0
ENDTAB
0
ENDSEC
0
SECTION
2
BLOCKS
0
BLOCK
5
20
330
1F
100
AcDbEntity
8
0
100
AcDbBlockBegin
2
*Model_Space
70
0
10
0
20
0
30
0
3
*Model_Space
1

0
ENDBLK
5
21
330
1F
100
AcDbEntity
8
0
100
AcDbBlockEnd
0
BLOCK
5
1C
330
1B
100
AcDbEntity
8
0
100
AcDbBlockBegin
2
*Paper_Space
70
0
10
0
20
0
30
0
3
*Paper_Space
1

0
ENDBLK
5
1D
330
1F
100
AcDbEntity
8
0
100
AcDbBlockEnd
0
ENDSEC
0
SECTION
2
ENTITIES
0
LINE
5
46
100
AcDbEntity
8
0
6
ByLayer
62
256
370
-1
100
AcDbLine
10
68.9508046724
20
1.83530480908
11
68.9508046724
21
40.6503758612
0
LINE
5
47
100
AcDbEntity
8
0
6
ByLayer
62
256
370
-1
100
AcDbLine
10
78.9508046724
20
1.97604229744
11
78.9508046724
21
40.6503758612
0
ARC
5
48
100
AcDbEntity
8
0
6
ByLayer
62
256
370
-1
100
AcDbCircle
10
141.084964168
20
325.438258761
40
19.5256241898
100
AcDbArc
50
286.938508581
51
180.735
0
ARC
5
49
100
AcDbEntity
8
0
6
ByLayer
62
256
370
-1
100
AcDbCircle
10
141.566007349
20
287.941344255
40
19.5256241898
100
AcDbArc
50
180.735
51
74.5314914194
0
ARC
5
4A
100
AcDbEntity
8
0
6
ByLayer
62
256
370
-1
100
AcDbCircle
10
31.0940149512
20
324.027198763
40
19.5256241898
100
AcDbArc
50
0.735
51
254.531491419
0
ARC
5
4B
100
AcDbEntity
8
0
6
ByLayer
62
256
370
-1
100
AcDbCircle
10
31.5750581325
20
286.530284257
40
19.5256241898
100
AcDbArc
50
106.938508581
51
0.735
0
LINE
5
4C
100
AcDbEntity
8
0
6
ByLayer
62
256
370
-1
100
AcDbLine
10
50.6180325757
20
324.277669919
11
121.560946543
21
325.187787604
0
LINE
5
4D
100
AcDbEntity
8
0
6
ByLayer
62
256
370
-1
100
AcDbLine
10
51.0990757569
20
286.780755413
11
122.041989724
21
287.690873098
0
CIRCLE
5
4E
100
AcDbEntity
8
0
6
ByLayer
62
256
370
-1
100
AcDbCircle
10
50.8585541663
20
305.529212666
40
3
0
CIRCLE
5
4F
100
AcDbEntity
8
0
6
ByLayer
62
256
370
-1
100
AcDbCircle
10
121.801468134
20
306.439330351
40
3
0
ARC
5
50
100
AcDbEntity
8
0
6
ByLayer
62
256
370
-1
100
AcDbCircle
10
123.159035181
20
408.343669589
40
14.6442181423
100
AcDbArc
50
286.938508581
51
180.735
0
ARC
5
51
100
AcDbEntity
8
0
6
ByLayer
62
256
370
-1
100
AcDbCircle
10
123.519817567
20
380.220983709
40
14.6442181423
100
AcDbArc
50
180.735
51
74.5314914194
0
ARC
5
52
100
AcDbEntity
8
0
6
ByLayer
62
256
370
-1
100
AcDbCircle
10
40.6658232687
20
407.28537459
40
14.6442181423
100
AcDbArc
50
0.735
51
254.531491419
0
ARC
5
53
100
AcDbEntity
8
0
6
ByLayer
62
256
370
-1
100
AcDbCircle
10
41.0266056547
20
379.162688711
40
14.6442181423
100
AcDbArc
50
106.938508581
51
0.735
0
LINE
5
54
100
AcDbEntity
8
0
6
ByLayer
62
256
370
-1
100
AcDbLine
10
55.3088364871
20
407.473227957
11
108.516021963
21
408.155816221
0
LINE
5
55
100
AcDbEntity
8
0
6
ByLayer
62
256
370
-1
100
AcDbLine
10
55.6696188734
20
379.350542078
11
108.876804348
21
380.033130341
0
CIRCLE
5
56
100
AcDbEntity
8
0
6
ByLayer
62
256
370
-1
100
AcDbCircle
10
55.4892276804
20
393.411885017
40
2.25
0
CIRCLE
5
57
100
AcDbEntity
8
0
6
ByLayer
62
256
370
-1
100
AcDbCircle
10
108.696413156
20
394.094473281
40
2.25
0
LINE
5
58
100
AcDbEntity
8
0
6
ByLayer
62
256
370
-1
100
AcDbLine
10
56.6503191524
20
51.5670331311
11
56.6423667994
21
51.4595844933
0
LINE
5
59
100
AcDbEntity
8
0
6
ByLayer
62
256
370
-1
100
AcDbLine
10
262.373426437
20
479.931059767
11
267.998426437
21
474.306059767
0
LINE
5
5A
100
AcDbEntity
8
0
6
ByLayer
62
256
370
-1
100
AcDbLine
10
262.373426437
20
479.931059767
11
284.494389297
21
479.931059767
0
LINE
5
5B
100
AcDbEntity
8
0
6
ByLayer
62
256
370
-1
100
AcDbLine
10
267.998426437
20
474.306059767
11
284.146421925
21
474.306059767
0
LINE
5
5C
100
AcDbEntity
8
0
6
ByLayer
62
256
370
-1
100
AcDbLine
10
284.494389297
20
479.931059767
11
284.811456269
21
485.34642382
0
ARC
5
5D
100
AcDbEntity
8
0
6
ByLayer
62
256
370
-1
100
AcDbCircle
10
255.682355291
20
353.492676344
40
33.5027164903
100
AcDbArc
50
18.4329098179
51
63.3136220058
0
ELLIPSE
5
5E
100
AcDbEntity
8
0
6
ByLayer
62
256
370
-1
100
AcDbEllipse
10
287.685926437
20
432.382231642
30
0
11
-75.9375
21
5.361328125
31
0
40
0.667704410857
41
0.728151633582
42
1.39295219348
0
LINE
5
5F
100
AcDbEntity
8
0
6
ByLayer
62
256
370
-1
100
AcDbLine
10
284.301040739
20
474.440170847
11
278.095028332
21
390.587304481
0
ELLIPSE
5
60
100
AcDbEntity
8
0
6
ByLayer
62
256
370
-1
100
AcDbEllipse
10
287.466199874
20
440.468169142
30
0
11
-70.0927734375
21
0.0878906249983
31
0
40
0.719044633532
41
0.575339096129
42
1.43753538316
0
ARC
5
61
100
AcDbEntity
8
0
6
ByLayer
62
256
370
-1
100
AcDbCircle
10
287.623956269
20
496.48954916
40
7.24293837129
100
AcDbArc
50
91.7185015475
51
268.330285059
0
ARC
5
62
100
AcDbEntity
8
0
6
ByLayer
62
256
370
-1
100
AcDbCircle
10
287.623956269
20
496.48954916
40
11.4925801546
100
AcDbArc
50
91.091972868
51
255.834528794
0
LINE
5
63
100
AcDbEntity
8
0
6
ByLayer
62
256
370
-1
100
AcDbLine
10
312.460323704
20
479.952383937
11
306.840115356
21
474.322596363
0
LINE
5
64
100
AcDbEntity
8
0
6
ByLayer
62
256
370
-1
100
AcDbLine
10
312.460323704
20
479.952383937
11
290.339368863
21
479.933548229
0
LINE
5
65
100
AcDbEntity
8
0
6
ByLayer
62
256
370
-1
100
AcDbLine
10
306.840115356
20
474.322596363
11
290.692125722
21
474.308846558
0
LINE
5
66
100
AcDbEntity
8
0
6
ByLayer
62
256
370
-1
100
AcDbLine
10
290.339368863
20
479.933548229
11
290.017690895
21
485.348640341
0
LINE
5
67
100
AcDbEntity
8
0
6
ByLayer
62
256
370
-1
100
AcDbLine
10
346.267201578
20
413.168473183
11
346.276122914
21
402.69111545
0
ARC
5
68
100
AcDbEntity
8
0
6
ByLayer
62
256
370
-1
100
AcDbCircle
10
319.25905304
20
353.519743709
40
33.5027164903
100
AcDbArc
50
116.735164601
51
161.615876789
0
ELLIPSE
5
69
100
AcDbEntity
8
0
6
ByLayer
62
256
370
-1
100
AcDbEllipse
10
287.18832008
20
432.382019789
30
0
11
75.9329073713
21
5.4259859612
31
0
40
0.667704410857
41
4.8902331137
42
5.5550336736
0
LINE
5
6A
100
AcDbEntity
8
0
6
ByLayer
62
256
370
-1
100
AcDbLine
10
290.53739277
20
474.442825934
11
296.814802537
21
390.595274303
0
ELLIPSE
5
6B
100
AcDbEntity
8
0
6
ByLayer
62
256
370
-1
100
AcDbEllipse
10
287.401161494
20
440.468141452
30
0
11
70.0926731901
21
0.147573665313
31
0
40
0.719044633532
41
4.84564992402
42
5.70784621105
0
ARC
5
6C
100
AcDbEntity
8
0
6
ByLayer
62
256
370
-1
100
AcDbCircle
10
287.19570369
20
496.489366835
40
7.24293837129
100
AcDbArc
50
271.718501547
51
88.3302850591
0
ARC
5
6D
100
AcDbEntity
8
0
6
ByLayer
62
256
370
-1
100
AcDbCircle
10
287.19570369
20
496.489366835
40
11.4925801546
100
AcDbArc
50
284.214257813
51
88.9568137385
0
LINE
5
6E
100
AcDbEntity
8
0
6
ByLayer
62
256
370
-1
100
AcDbLine
10
228.623426437
20
413.118387113
11
228.623426437
21
402.641025581
0
LINE
5
6F
100
AcDbEntity
8
0
6
ByLayer
62
256
370
-1
100
AcDbLine
10
160.246894102
20
516.351925763
11
165.871894102
21
510.726925763
0
LINE
5
70
100
AcDbEntity
8
0
6
ByLayer
62
256
370
-1
100
AcDbLine
10
160.246894102
20
516.351925763
11
182.367856962
21
516.351925763
0
LINE
5
71
100
AcDbEntity
8
0
6
ByLayer
62
256
370
-1
100
AcDbLine
10
165.871894102
20
510.726925763
11
182.01988959
21
510.726925763
0
LINE
5
72
100
AcDbEntity
8
0
6
ByLayer
62
256
370
-1
100
AcDbLine
10
182.367856962
20
516.351925763
11
182.684923934
21
521.767289816
0
ARC
5
73
100
AcDbEntity
8
0
6
ByLayer
62
256
370
-1
100
AcDbCircle
10
153.555822955
20
389.91354234
40
33.5027164903
100
AcDbArc
50
18.4329098179
51
63.3136220058
0
ELLIPSE
5
74
100
AcDbEntity
8
0
6
ByLayer
62
256
370
-1
100
AcDbEllipse
10
185.559394101
20
468.803097638
30
0
11
-75.9375
21
5.361328125
31
0
40
0.667704410857
41
0.728151633582
42
1.39295219348
0
LINE
5
75
100
AcDbEntity
8
0
6
ByLayer
62
256
370
-1
100
AcDbLine
10
182.174508404
20
510.861036843
11
175.968495996
21
427.008170477
0
ELLIPSE
5
76
100
AcDbEntity
8
0
6
ByLayer
62
256
370
-1
100
AcDbEllipse
10
185.339667539
20
476.889035138
30
0
11
-70.0927734375
21
0.0878906249983
31
0
40
0.719044633532
41
0.575339096129
42
1.43753538316
0
ARC
5
77
100
AcDbEntity
8
0
6
ByLayer
62
256
370
-1
100
AcDbCircle
10
185.497423934
20
532.910415156
40
7.24293837129
100
AcDbArc
50
91.7185015475
51
268.330285059
0
ARC
5
78
100
AcDbEntity
8
0
6
ByLayer
62
256
370
-1
100
AcDbCircle
10
185.497423934
20
532.910415156
40
11.4925801546
100
AcDbArc
50
91.091972868
51
255.834528794
0
LINE
5
79
100
AcDbEntity
8
0
6
ByLayer
62
256
370
-1
100
AcDbLine
10
210.333791368
20
516.373249933
11
204.713583021
21
510.743462359
0
LINE
5
7A
100
AcDbEntity
8
0
6
ByLayer
62
256
370
-1
100
AcDbLine
10
210.333791368
20
516.373249933
11
188.212836527
21
516.354414225
0
LINE
5
7B
100
AcDbEntity
8
0
6
ByLayer
62
256
370
-1
100
AcDbLine
10
204.713583021
20
510.743462359
11
188.565593386
21
510.729712554
0
LINE
5
7C
100
AcDbEntity
8
0
6
ByLayer
62
256
370
-1
100
AcDbLine
10
188.212836527
20
516.354414225
11
187.891158559
21
521.769506336
0
LINE
5
7D
100
AcDbEntity
8
0
6
ByLayer
62
256
370
-1
100
AcDbLine
10
244.140669243
20
449.589339179
11
244.149590578
21
439.111981446
0
ARC
5
7E
100
AcDbEntity
8
0
6
ByLayer
62
256
370
-1
100
AcDbCircle
10
217.132520705
20
389.940609704
40
33.5027164903
100
AcDbArc
50
116.735164601
51
161.615876789
0
ELLIPSE
5
7F
100
AcDbEntity
8
0
6
ByLayer
62
256
370
-1
100
AcDbEllipse
10
185.061787745
20
468.802885785
30
0
11
75.9329073713
21
5.4259859612
31
0
40
0.667704410857
41
4.8902331137
42
5.5550336736
0
LINE
5
80
100
AcDbEntity
8
0
6
ByLayer
62
256
370
-1
100
AcDbLine
10
188.410860435
20
510.863691929
11
194.688270202
21
427.016140299
0
ELLIPSE
5
81
100
AcDbEntity
8
0
6
ByLayer
62
256
370
-1
100
AcDbEllipse
10
185.274629158
20
476.889007448
30
0
11
70.0926731901
21
0.147573665313
31
0
40
0.719044633532
41
4.84564992402
42
5.70784621105
0
ARC
5
82
100
AcDbEntity
8
0
6
ByLayer
62
256
370
-1
100
AcDbCircle
10
185.069171354
20
532.910232831
40
7.24293837129
100
AcDbArc
50
271.718501547
51
88.3302850591
0
ARC
5
83
100
AcDbEntity
8
0
6
ByLayer
62
256
370
-1
100
AcDbCircle
10
185.069171354
20
532.910232831
40
11.4925801546
100
AcDbArc
50
284.214257813
51
88.9568137385
0
LINE
5
84
100
AcDbEntity
8
0
6
ByLayer
62
256
370
-1
100
AcDbLine
10
126.496894101
20
449.539253109
11
126.496894101
21
439.061891577
0
LINE
5
85
100
AcDbEntity
8
0
6
ByLayer
62
256
370
-1
100
AcDbLine
10
60.9122166816
20
545.388216086
11
66.5372166816
21
539.763216086
0
LINE
5
86
100
AcDbEntity
8
0
6
ByLayer
62
256
370
-1
100
AcDbLine
10
105.463448375
20
559.690833808
11
102.299385875
21
560.792651414
0
LINE
5
87
100
AcDbEntity
8
0
6
ByLayer
62
256
370
-1
100
AcDbLine
10
102.299385875
20
560.792651414
11
105.463448375
21
561.894469021
0
LINE
5
88
100
AcDbEntity
8
0
6
ByLayer
62
256
370
-1
100
AcDbLine
10
105.463448375
20
570.031891703
11
102.299385875
21
571.209564338
0
LINE
5
89
100
AcDbEntity
8
0
6
ByLayer
62
256
370
-1
100
AcDbLine
10
102.299385875
20
571.209564338
11
105.463448375
21
572.387236973
0
ARC
5
8A
100
AcDbEntity
8
0
6
ByLayer
62
256
370
-1
100
AcDbCircle
10
119.836238617
20
565.963180362
40
4.06871134087
100
AcDbArc
50
270
51
89.9999918144
0
LINE
5
8B
100
AcDbEntity
8
0
6
ByLayer
62
256
370
-1
100
AcDbLine
10
105.463448375
20
570.031891703
11
119.836239198
21
570.031891703
0
LINE
5
8C
100
AcDbEntity
8
0
6
ByLayer
62
256
370
-1
100
AcDbLine
10
105.463448375
20
561.894469021
11
119.836238617
21
561.894469021
0
ARC
5
8D
100
AcDbEntity
8
0
6
ByLayer
62
256
370
-1
100
AcDbCircle
10
119.836238617
20
565.963180362
40
6.42405661127
100
AcDbArc
50
282.476666014
51
90
0
LINE
5
8E
100
AcDbEntity
8
0
6
ByLayer
62
256
370
-1
100
AcDbLine
10
105.463448375
20
572.387236973
11
119.836239198
21
572.387236973
0
LINE
5
8F
100
AcDbEntity
8
0
6
ByLayer
62
256
370
-1
100
AcDbLine
10
105.463448375
20
559.690833808
11
121.224104622
21
559.690833808
0
LINE
5
90
100
AcDbEntity
8
0
6
ByLayer
62
256
370
-1
100
AcDbLine
10
60.9122166816
20
545.388216086
11
83.0331795416
21
545.388216086
0
LINE
5
91
100
AcDbEntity
8
0
6
ByLayer
62
256
370
-1
100
AcDbLine
10
66.5372166816
20
539.763216086
11
82.6852121698
21
539.763216086
0
LINE
5
92
100
AcDbEntity
8
0
6
ByLayer
62
256
370
-1
100
AcDbLine
10
83.0331795416
20
545.388216086
11
83.3502465137
21
550.803580139
0
ARC
5
93
100
AcDbEntity
8
0
6
ByLayer
62
256
370
-1
100
AcDbCircle
10
54.2211455354
20
418.949832662
40
33.5027164903
100
AcDbArc
50
18.4329098179
51
63.3136220058
0
ELLIPSE
5
94
100
AcDbEntity
8
0
6
ByLayer
62
256
370
-1
100
AcDbEllipse
10
86.2247166814
20
497.839387961
30
0
11
-75.9375
21
5.361328125
31
0
40
0.667704410857
41
0.728151633582
42
1.39295219348
0
LINE
5
95
100
AcDbEntity
8
0
6
ByLayer
62
256
370
-1
100
AcDbLine
10
82.8398309835
20
539.897327166
11
76.6338185764
21
456.0444608
0
ELLIPSE
5
96
100
AcDbEntity
8
0
6
ByLayer
62
256
370
-1
100
AcDbEllipse
10
86.0049901189
20
505.925325461
30
0
11
-70.0927734375
21
0.0878906249983
31
0
40
0.719044633532
41
0.575339096129
42
1.43753538316
0
ARC
5
97
100
AcDbEntity
8
0
6
ByLayer
62
256
370
-1
100
AcDbCircle
10
86.1627465137
20
561.946705479
40
7.24293837129
100
AcDbArc
50
91.7185015475
51
268.330285059
0
ARC
5
98
100
AcDbEntity
8
0
6
ByLayer
62
256
370
-1
100
AcDbCircle
10
86.1627465137
20
561.946705479
40
11.4925801546
100
AcDbArc
50
91.091972868
51
255.834528794
0
LINE
5
99
100
AcDbEntity
8
0
6
ByLayer
62
256
370
-1
100
AcDbLine
10
110.999113948
20
545.409540256
11
105.378905601
21
539.779752682
0
LINE
5
9A
100
AcDbEntity
8
0
6
ByLayer
62
256
370
-1
100
AcDbLine
10
110.999113948
20
545.409540256
11
88.8781591073
21
545.390704548
0
LINE
5
9B
100
AcDbEntity
8
0
6
ByLayer
62
256
370
-1
100
AcDbLine
10
105.378905601
20
539.779752682
11
89.2309159663
21
539.766002876
0
LINE
5
9C
100
AcDbEntity
8
0
6
ByLayer
62
256
370
-1
100
AcDbLine
10
88.8781591073
20
545.390704548
11
88.5564811391
21
550.805796659
0
LINE
5
9D
100
AcDbEntity
8
0
6
ByLayer
62
256
370
-1
100
AcDbLine
10
144.805991823
20
478.625629502
11
144.814913158
21
468.148271768
0
ARC
5
9E
100
AcDbEntity
8
0
6
ByLayer
62
256
370
-1
100
AcDbCircle
10
117.797843285
20
418.976900027
40
33.5027164903
100
AcDbArc
50
116.735164601
51
161.615876789
0
ELLIPSE
5
9F
100
AcDbEntity
8
0
6
ByLayer
62
256
370
-1
100
AcDbEllipse
10
85.7271103246
20
497.839176108
30
0
11
75.9329073713
21
5.4259859612
31
0
40
0.667704410857
41
4.8902331137
42
5.5550336736
0
LINE
5
A0
100
AcDbEntity
8
0
6
ByLayer
62
256
370
-1
100
AcDbLine
10
89.0761830148
20
539.899982252
11
95.353592782
21
456.052430622
0
ELLIPSE
5
A1
100
AcDbEntity
8
0
6
ByLayer
62
256
370
-1
100
AcDbEllipse
10
85.9399517383
20
505.925297771
30
0
11
70.0926731901
21
0.147573665313
31
0
40
0.719044633532
41
4.84564992402
42
5.70784621105
0
ARC
5
A2
100
AcDbEntity
8
0
6
ByLayer
62
256
370
-1
100
AcDbCircle
10
85.7344939344
20
561.946523153
40
7.24293837129
100
AcDbArc
50
271.718501547
51
88.3302850591
0
ARC
5
A3
100
AcDbEntity
8
0
6
ByLayer
62
256
370
-1
100
AcDbCircle
10
85.7344939344
20
561.946523153
40
11.4925801546
100
AcDbArc
50
284.214257813
51
88.9568137385
0
LINE
5
A4
100
AcDbEntity
8
0
6
ByLayer
62
256
370
-1
100
AcDbLine
10
27.1622166814
20
478.575543431
11
27.1622166814
21
468.0981819
0
ARC
5
A5
100
AcDbEntity
8
0
6
ByLayer
62
256
370
-1
100
AcDbCircle
10
298.248164839
20
98.2274240762
40
9.49657596721
100
AcDbArc
50
219.218858979
51
320.781141021
0
LINE
5
A6
100
AcDbEntity
8
0
6
ByLayer
62
256
370
-1
100
AcDbLine
10
291.0103047
20
92.0793889671
11
206.578947859
21
212.378198531
0
LINE
5
A7
100
AcDbEntity
8
0
6
ByLayer
62
256
370
-1
100
AcDbLine
10
305.62591699
20
92.2100989756
11
384.802718262
21
206.07461152
0
ARC
5
A8
100
AcDbEntity
8
0
6
ByLayer
62
256
370
-1
100
AcDbCircle
10
248.306384664
20
241.683846753
40
50.9901951359
100
AcDbArc
50
11.309932474
51
215.080799407
0
ARC
5
A9
100
AcDbEntity
8
0
6
ByLayer
62
256
370
-1
100
AcDbCircle
10
348.306384664
20
241.683846753
40
50.9901951359
100
AcDbArc
50
315.704861344
51
168.690067526
0
LINE
5
AA
100
AcDbEntity
8
0
6
ByLayer
62
256
370
-1
100
AcDbLine
10
407.610232057
20
359.979760944
11
417.610232057
21
359.979760944
0
LINE
5
AB
100
AcDbEntity
8
0
6
ByLayer
62
256
370
-1
100
AcDbLine
10
407.610232057
20
392.979760944
11
417.610232057
21
392.979760944
0
LINE
5
AC
100
AcDbEntity
8
0
6
ByLayer
62
256
370
-1
100
AcDbLine
10
417.610232057
20
359.979760944
11
417.610232057
21
392.979760944
0
LINE
5
AD
100
AcDbEntity
8
0
6
ByLayer
62
256
370
-1
100
AcDbLine
10
410.610232057
20
389.979760944
11
414.610232057
21
389.979760944
0
LINE
5
AE
100
AcDbEntity
8
0
6
ByLayer
62
256
370
-1
100
AcDbLine
10
414.610232057
20
389.979760944
11
410.610232057
21
389.979760944
0
LINE
5
AF
100
AcDbEntity
8
0
6
ByLayer
62
256
370
-1
100
AcDbLine
10
410.610232057
20
362.979760944
11
414.610232057
21
362.979760944
0
LINE
5
B0
100
AcDbEntity
8
0
6
ByLayer
62
256
370
-1
100
AcDbLine
10
414.610232057
20
362.979760944
11
414.610232057
21
389.979760944
0
LINE
5
B1
100
AcDbEntity
8
0
6
ByLayer
62
256
370
-1
100
AcDbLine
10
410.610232057
20
362.979760944
11
410.610232057
21
389.979760944
0
LINE
5
B2
100
AcDbEntity
8
0
6
ByLayer
62
256
370
-1
100
AcDbLine
10
407.610232057
20
359.979760944
11
391.610232057
21
359.979760944
0
LINE
5
B3
100
AcDbEntity
8
0
6
ByLayer
62
256
370
-1
100
AcDbLine
10
391.610232057
20
359.979760944
11
391.610232057
21
343.979760944
0
LINE
5
B4
100
AcDbEntity
8
0
6
ByLayer
62
256
370
-1
100
AcDbLine
10
391.610232057
20
343.979760944
11
383.610232057
21
343.979760944
0
LINE
5
B5
100
AcDbEntity
8
0
6
ByLayer
62
256
370
-1
100
AcDbLine
10
383.610232057
20
376.479760944
11
383.610232057
21
343.979760944
0
LINE
5
B6
100
AcDbEntity
8
0
6
ByLayer
62
256
370
-1
100
AcDbLine
10
232.027928831
20
320.385264169
11
392.027928831
21
320.385264169
0
LINE
5
B7
100
AcDbEntity
8
0
6
ByLayer
62
256
370
-1
100
AcDbLine
10
232.027928831
20
328.385264169
11
392.027928831
21
328.385264169
0
LINE
5
B8
100
AcDbEntity
8
0
6
ByLayer
62
256
370
-1
100
AcDbLine
10
392.027928831
20
320.385264169
11
392.027928831
21
312.385264169
0
LINE
5
B9
100
AcDbEntity
8
0
6
ByLayer
62
256
370
-1
100
AcDbLine
10
392.027928831
20
328.385264169
11
392.027928831
21
336.385264169
0
LINE
5
BA
100
AcDbEntity
8
0
6
ByLayer
62
256
370
-1
100
AcDbLine
10
392.027928831
20
336.385264169
11
416.027928831
21
324.385264169
0
LINE
5
BB
100
AcDbEntity
8
0
6
ByLayer
62
256
370
-1
100
AcDbLine
10
416.027928831
20
324.385264169
11
392.027928831
21
312.385264169
0
LINE
5
BC
100
AcDbEntity
8
0
6
ByLayer
62
256
370
-1
100
AcDbLine
10
232.027928831
20
328.385264169
11
224.027928831
21
336.385264169
0
LINE
5
BD
100
AcDbEntity
8
0
6
ByLayer
62
256
370
-1
100
AcDbLine
10
232.027928831
20
320.385264169
11
224.027928831
21
312.385264169
0
LINE
5
BE
100
AcDbEntity
8
0
6
ByLayer
62
256
370
-1
100
AcDbLine
10
224.027928831
20
312.385264169
11
218.427928831
21
312.385264169
0
LINE
5
BF
100
AcDbEntity
8
0
6
ByLayer
62
256
370
-1
100
AcDbLine
10
224.027928831
20
336.385264169
11
218.427928831
21
336.385264169
0
LINE
5
C0
100
AcDbEntity
8
0
6
ByLayer
62
256
370
-1
100
AcDbLine
10
218.427928831
20
336.385264169
11
226.427928831
21
328.385264169
0
LINE
5
C1
100
AcDbEntity
8
0
6
ByLayer
62
256
370
-1
100
AcDbLine
10
226.427928831
20
320.385264169
11
218.427928831
21
312.385264169
0
LINE
5
C2
100
AcDbEntity
8
0
6
ByLayer
62
256
370
-1
100
AcDbLine
10
218.427928831
20
336.385264169
11
212.827928831
21
336.385264169
0
LINE
5
C3
100
AcDbEntity
8
0
6
ByLayer
62
256
370
-1
100
AcDbLine
10
218.427928831
20
312.385264169
11
212.827928831
21
312.385264169
0
LINE
5
C4
100
AcDbEntity
8
0
6
ByLayer
62
256
370
-1
100
AcDbLine
10
220.827928831
20
328.385264169
11
212.827928831
21
336.385264169
0
LINE
5
C5
100
AcDbEntity
8
0
6
ByLayer
62
256
370
-1
100
AcDbLine
10
220.827928831
20
320.385264169
11
212.827928831
21
312.385264169
0
LINE
5
C6
100
AcDbEntity
8
0
6
ByLayer
62
256
370
-1
100
AcDbLine
10
212.827928831
20
336.385264169
11
207.227928831
21
336.385264169
0
LINE
5
C7
100
AcDbEntity
8
0
6
ByLayer
62
256
370
-1
100
AcDbLine
10
212.827928831
20
312.385264169
11
207.227928831
21
312.385264169
0
LINE
5
C8
100
AcDbEntity
8
0
6
ByLayer
62
256
370
-1
100
AcDbLine
10
215.227928831
20
320.385264169
11
207.227928831
21
312.385264169
0
LINE
5
C9
100
AcDbEntity
8
0
6
ByLayer
62
256
370
-1
100
AcDbLine
10
215.227928831
20
328.385264169
11
207.227928831
21
336.385264169
0
LINE
5
CA
100
AcDbEntity
8
0
6
ByLayer
62
256
370
-1
100
AcDbLine
10
215.227928831
20
328.385264169
11
219.227928831
21
324.385264169
0
LINE
5
CB
100
AcDbEntity
8
0
6
ByLayer
62
256
370
-1
100
AcDbLine
10
219.227928831
20
324.385264169
11
215.227928831
21
320.385264169
0
LINE
5
CC
100
AcDbEntity
8
0
6
ByLayer
62
256
370
-1
100
AcDbLine
10
259.726764312
20
193.38802707
11
259.726764312
21
229.38802707
0
LINE
5
CD
100
AcDbEntity
8
0
6
ByLayer
62
256
370
-1
100
AcDbLine
10
339.726764312
20
193.38802707
11
339.726764312
21
229.38802707
0
LINE
5
CE
100
AcDbEntity
8
0
6
ByLayer
62
256
370
-1
100
AcDbLine
10
259.726764312
20
229.38802707
11
265.726764312
21
229.38802707
0
LINE
5
CF
100
AcDbEntity
8
0
6
ByLayer
62
256
370
-1
100
AcDbLine
10
259.726764312
20
193.38802707
11
265.726764312
21
193.38802707
0
LINE
5
D0
100
AcDbEntity
8
0
6
ByLayer
62
256
370
-1
100
AcDbLine
10
339.726764312
20
229.38802707
11
333.726764312
21
229.38802707
0
LINE
5
D1
100
AcDbEntity
8
0
6
ByLayer
62
256
370
-1
100
AcDbLine
10
339.726764312
20
193.38802707
11
333.726764312
21
193.38802707
0
LINE
5
D2
100
AcDbEntity
8
0
6
ByLayer
62
256
370
-1
100
AcDbLine
10
265.726764312
20
229.38802707
11
265.726764312
21
193.38802707
0
LINE
5
D3
100
AcDbEntity
8
0
6
ByLayer
62
256
370
-1
100
AcDbLine
10
333.726764312
20
229.38802707
11
333.726764312
21
193.38802707
0
CIRCLE
5
D4
100
AcDbEntity
8
0
6
ByLayer
62
256
370
-1
100
AcDbCircle
10
387.765758405
20
346.351351292
40
1
0
CIRCLE
5
D5
100
AcDbEntity
8
0
6
ByLayer
62
256
370
-1
100
AcDbCircle
10
387.926004495
20
356.046239756
40
1
0
LINE
5
D6
100
AcDbEntity
8
0
6
ByLayer
62
256
370
-1
100
AcDbLine
10
383.610232057
20
376.479760944
11
383.610232057
21
392.979760944
0
LINE
5
D7
100
AcDbEntity
8
0
6
ByLayer
62
256
370
-1
100
AcDbLine
10
407.610232057
20
392.979760944
11
383.610232057
21
392.979760944
0
LINE
5
D8
100
AcDbEntity
8
0
6
ByLayer
62
256
370
-1
100
AcDbLine
10
339.469846722
20
353.720616911
11
342.808244357
21
344.294318526
0
LINE
5
D9
100
AcDbEntity
8
0
6
ByLayer
62
256
370
-1
100
AcDbLine
10
370.576631392
20
364.737329104
11
373.915029026
21
355.31103072
0
LINE
5
DA
100
AcDbEntity
8
0
6
ByLayer
62
256
370
-1
100
AcDbLine
10
342.808244357
20
344.294318526
11
373.915029026
21
355.31103072
0
LINE
5
DB
100
AcDbEntity
8
0
6
ByLayer
62
256
370
-1
100
AcDbLine
10
368.750261167
20
360.907920298
11
370.08562022
21
357.137400945
0
LINE
5
DC
100
AcDbEntity
8
0
6
ByLayer
62
256
370
-1
100
AcDbLine
10
343.299255528
20
351.894246686
11
344.634614582
21
348.123727332
0
LINE
5
DD
100
AcDbEntity
8
0
6
ByLayer
62
256
370
-1
100
AcDbLine
10
344.634614582
20
348.123727332
11
370.08562022
21
357.137400945
0
LINE
5
DE
100
AcDbEntity
8
0
6
ByLayer
62
256
370
-1
100
AcDbLine
10
343.299255528
20
351.894246686
11
368.750261167
21
360.907920298
0
LINE
5
DF
100
AcDbEntity
8
0
6
ByLayer
62
256
370
-1
100
AcDbLine
10
339.469846722
20
353.720616911
11
334.128410508
21
368.802694326
0
LINE
5
E0
100
AcDbEntity
8
0
6
ByLayer
62
256
370
-1
100
AcDbLine
10
334.128410508
20
368.802694326
11
319.046333092
21
363.461258112
0
LINE
5
E1
100
AcDbEntity
8
0
6
ByLayer
62
256
370
-1
100
AcDbLine
10
319.046333092
20
363.461258112
11
316.375614985
21
371.002296819
0
LINE
5
E2
100
AcDbEntity
8
0
6
ByLayer
62
256
370
-1
100
AcDbLine
10
347.011084735
20
381.852089131
11
316.375614985
21
371.002296819
0
CIRCLE
5
E3
100
AcDbEntity
8
0
6
ByLayer
62
256
370
-1
100
AcDbCircle
10
319.998426745
20
367.87690485
40
1
0
CIRCLE
5
E4
100
AcDbEntity
8
0
6
ByLayer
62
256
370
-1
100
AcDbCircle
10
329.190614409
20
370.962391375
40
1
0
LINE
5
E5
100
AcDbEntity
8
0
6
ByLayer
62
256
370
-1
100
AcDbLine
10
347.011084735
20
381.852089131
11
362.564477069
21
387.360445227
0
LINE
5
E6
100
AcDbEntity
8
0
6
ByLayer
62
256
370
-1
100
AcDbLine
10
370.576631392
20
364.737329104
11
362.564477069
21
387.360445227
0
ARC
5
E7
100
AcDbEntity
8
0
6
ByLayer
62
256
370
-1
100
AcDbCircle
10
408.790983039
20
66.874695658
40
1.89931519344
100
AcDbArc
50
312.675758979
51
54.238041021
0
LINE
5
E8
100
AcDbEntity
8
0
6
ByLayer
62
256
370
-1
100
AcDbLine
10
563.904007227
20
450.396109203
11
549.81151138
21
449.212233872
0
LINE
5
E9
100
AcDbEntity
8
0
6
ByLayer
62
256
370
-1
100
AcDbLine
10
563.904007227
20
450.396109203
11
538.521685892
21
420.35806125
0
LINE
5
EA
100
AcDbEntity
8
0
6
ByLayer
62
256
370
-1
100
AcDbLine
10
549.81151138
20
449.212233872
11
531.282769526
21
427.284876285
0
LINE
5
EB
100
AcDbEntity
8
0
6
ByLayer
62
256
370
-1
100
AcDbLine
10
538.521685892
20
420.35806125
11
545.511393814
21
413.713749049
0
LINE
5
EC
100
AcDbEntity
8
0
6
ByLayer
62
256
370
-1
100
AcDbLine
10
511.904963278
20
572.888283801
11
497.677757614
21
584.910353492
0
ARC
5
ED
100
AcDbEntity
8
0
6
ByLayer
62
256
370
-1
100
AcDbCircle
10
399.890924735
20
604.5614778
40
59.5603848716
100
AcDbArc
50
248.234909818
51
293.115622006
0
ELLIPSE
5
EE
100
AcDbEntity
8
0
6
ByLayer
62
256
370
-1
100
AcDbEllipse
10
470.293073509
20
470.583365454
30
0
11
94.4133341251
21
96.9637409857
31
0
40
0.667704410857
41
0.728151633582
42
1.39295219348
0
LINE
5
EF
100
AcDbEntity
8
0
6
ByLayer
62
256
370
-1
100
AcDbLine
10
531.287464197
20
426.92103598
11
424.544668477
21
531.563718664
0
ELLIPSE
5
F0
100
AcDbEntity
8
0
6
ByLayer
62
256
370
-1
100
AcDbEllipse
10
481.525086787
20
461.603661082
30
0
11
80.5461033828
21
95.0781046393
31
0
40
0.719044633532
41
0.575339096129
42
1.43753538316
0
ARC
5
F1
100
AcDbEntity
8
0
6
ByLayer
62
256
370
-1
100
AcDbCircle
10
557.415484798
20
397.108667242
40
12.8763348823
100
AcDbArc
50
321.520501547
51
138.132285059
0
ARC
5
F2
100
AcDbEntity
8
0
6
ByLayer
62
256
370
-1
100
AcDbCircle
10
557.415484798
20
397.108667242
40
20.4312536082
100
AcDbArc
50
320.893972868
51
125.636528794
0
LINE
5
F3
100
AcDbEntity
8
0
6
ByLayer
62
256
370
-1
100
AcDbLine
10
506.461607785
20
382.358660366
11
505.265733309
21
396.45014305
0
LINE
5
F4
100
AcDbEntity
8
0
6
ByLayer
62
256
370
-1
100
AcDbLine
10
506.461607785
20
382.358660366
11
531.818342917
21
412.418310141
0
LINE
5
F5
100
AcDbEntity
8
0
6
ByLayer
62
256
370
-1
100
AcDbLine
10
505.265733309
20
396.45014305
11
523.775797591
21
418.393269668
0
LINE
5
F6
100
AcDbEntity
8
0
6
ByLayer
62
256
370
-1
100
AcDbLine
10
531.818342917
20
412.418310141
11
539.54059855
21
406.641661511
0
LINE
5
F7
100
AcDbEntity
8
0
6
ByLayer
62
256
370
-1
100
AcDbLine
10
376.984632966
20
413.082371099
11
362.747195826
21
425.092322154
0
ARC
5
F8
100
AcDbEntity
8
0
6
ByLayer
62
256
370
-1
100
AcDbCircle
10
326.977682618
20
518.199643541
40
59.5603848716
100
AcDbArc
50
346.537164601
51
31.4178767886
0
ELLIPSE
5
F9
100
AcDbEntity
8
0
6
ByLayer
62
256
370
-1
100
AcDbEllipse
10
470.863755757
20
471.259308044
30
0
11
-79.759974259
21
-109.335224117
31
0
40
0.667704410857
41
4.8902331137
42
5.5550336736
0
LINE
5
FA
100
AcDbEntity
8
0
6
ByLayer
62
256
370
-1
100
AcDbLine
10
524.135273824
20
418.449649142
11
403.07580524
21
506.134998794
0
ELLIPSE
5
FB
100
AcDbEntity
8
0
6
ByLayer
62
256
370
-1
100
AcDbEllipse
10
481.599676368
20
461.692008449
30
0
11
-80.2262514759
21
-95.348147995
31
0
40
0.719044633532
41
4.84564992402
42
5.70784621105
0
ARC
5
FC
100
AcDbEntity
8
0
6
ByLayer
62
256
370
-1
100
AcDbCircle
10
557.906628332
20
397.690400481
40
12.8763348823
100
AcDbArc
50
141.520501547
51
318.132285059
0
ARC
5
FD
100
AcDbEntity
8
0
6
ByLayer
62
256
370
-1
100
AcDbCircle
10
557.906628332
20
397.690400481
40
20.4312536082
100
AcDbArc
50
154.016257813
51
318.758813739
0
ARC
5
FE
100
AcDbEntity
8
0
6
ByLayer
62
256
370
-1
100
AcDbCircle
10
361.957486503
20
95.2619933763
40
1.89931519344
100
AcDbArc
50
197.691758979
51
299.254041021
0
LINE
5
FF
100
AcDbEntity
8
0
6
ByLayer
62
256
370
-1
100
AcDbLine
10
360.159697596
20
94.6493325827
11
353.279862354
21
123.227054169
0
LINE
5
100
100
AcDbEntity
8
0
6
ByLayer
62
256
370
-1
100
AcDbLine
10
362.888507638
20
93.6010367923
11
385.975575824
21
108.974748303
0
ARC
5
101
100
AcDbEntity
8
0
6
ByLayer
62
256
370
-1
100
AcDbCircle
10
363.193893144
20
125.61703189
40
10.1980390272
100
AcDbArc
50
53.2471365434
51
193.553699407
0
ARC
5
102
100
AcDbEntity
8
0
6
ByLayer
62
256
370
-1
100
AcDbCircle
10
381.798775436
20
118.278206719
40
10.1980390272
100
AcDbArc
50
294.177761344
51
81.4408688721
0
LINE
5
103
100
AcDbEntity
8
0
6
ByLayer
62
256
370
-1
100
AcDbLine
10
423.820482071
20
274.601809507
11
427.226434692
21
281.911226908
0
LINE
5
104
100
AcDbEntity
8
0
6
ByLayer
62
256
370
-1
100
AcDbLine
10
455.146556647
20
260.004869703
11
458.552509268
21
267.314287104
0
LINE
5
105
100
AcDbEntity
8
0
6
ByLayer
62
256
370
-1
100
AcDbLine
10
458.552509268
20
267.314287104
11
443.244837808
21
261.737908847
0
LINE
5
106
100
AcDbEntity
8
0
6
ByLayer
62
256
370
-1
100
AcDbLine
10
432.802812949
20
266.603555448
11
427.226434692
21
281.911226908
0
LINE
5
107
100
AcDbEntity
8
0
6
ByLayer
62
256
370
-1
100
AcDbLine
10
458.552509268
20
267.314287104
11
461.958461889
21
274.623704505
0
LINE
5
108
100
AcDbEntity
8
0
6
ByLayer
62
256
370
-1
100
AcDbLine
10
427.226434692
20
281.911226908
11
430.632387313
21
289.22064431
0
LINE
5
109
100
AcDbEntity
8
0
6
ByLayer
62
256
370
-1
100
AcDbLine
10
446.650790429
20
269.047326248
11
461.958461889
21
274.623704505
0
LINE
5
10A
100
AcDbEntity
8
0
6
ByLayer
62
256
370
-1
100
AcDbLine
10
436.20876557
20
273.912972849
11
430.632387313
21
289.22064431
0
LINE
5
10B
100
AcDbEntity
8
0
6
ByLayer
62
256
370
-1
100
AcDbLine
10
461.958461889
20
274.623704505
11
465.36441451
21
281.933121906
0
LINE
5
10C
100
AcDbEntity
8
0
6
ByLayer
62
256
370
-1
100
AcDbLine
10
430.632387313
20
289.22064431
11
434.038339934
21
296.530061711
0
LINE
5
10D
100
AcDbEntity
8
0
6
ByLayer
62
256
370
-1
100
AcDbLine
10
439.614718191
20
281.22239025
11
434.038339934
21
296.530061711
0
LINE
5
10E
100
AcDbEntity
8
0
6
ByLayer
62
256
370
-1
100
AcDbLine
10
450.05674305
20
276.356743649
11
465.36441451
21
281.933121906
0
LINE
5
10F
100
AcDbEntity
8
0
6
ByLayer
62
256
370
-1
100
AcDbLine
10
450.05674305
20
276.356743649
11
442.40290732
21
273.56855452
0
LINE
5
110
100
AcDbEntity
8
0
6
ByLayer
62
256
370
-1
100
AcDbLine
10
442.40290732
20
273.56855452
11
439.614718191
21
281.22239025
0
LINE
5
111
100
AcDbEntity
8
0
6
ByLayer
62
256
370
-1
100
AcDbLine
10
442.513090161
20
255.40266825
11
383.316549881
21
128.36266807
0
LINE
5
112
100
AcDbEntity
8
0
6
ByLayer
62
256
370
-1
100
AcDbLine
10
428.686506201
20
261.244125494
11
369.296039135
21
133.787944588
0
LINE
5
113
100
AcDbEntity
8
0
6
ByLayer
62
256
370
-1
100
AcDbLine
10
442.513090161
20
255.40266825
11
455.146556647
21
260.004869703
0
LINE
5
114
100
AcDbEntity
8
0
6
ByLayer
62
256
370
-1
100
AcDbLine
10
428.686506201
20
261.244125494
11
423.820482071
21
274.601809507
0
CIRCLE
5
115
100
AcDbEntity
8
0
6
ByLayer
62
256
370
-1
100
AcDbCircle
10
424.93258275
20
236.148569494
40
2
0
CIRCLE
5
116
100
AcDbEntity
8
0
6
ByLayer
62
256
370
-1
100
AcDbCircle
10
384.552021357
20
149.489002862
40
2
0
LINE
5
117
100
AcDbEntity
8
0
6
ByLayer
62
256
370
-1
100
AcDbLine
10
70.6524903179
20
338.982493748
11
65.0274903179
21
340.941280604
0
LINE
5
118
100
AcDbEntity
8
0
6
ByLayer
62
256
370
-1
100
AcDbLine
10
65.0274903179
20
340.941280604
11
70.6524903179
21
342.900067461
0
LINE
5
119
100
AcDbEntity
8
0
6
ByLayer
62
256
370
-1
100
AcDbLine
10
70.6524903179
20
357.366596673
11
65.0274903179
21
359.460236913
0
LINE
5
11A
100
AcDbEntity
8
0
6
ByLayer
62
256
370
-1
100
AcDbLine
10
65.0274903179
20
359.460236913
11
70.6524903179
21
361.553877153
0
ARC
5
11B
100
AcDbEntity
8
0
6
ByLayer
62
256
370
-1
100
AcDbCircle
10
96.2041174149
20
350.133332067
40
7.233264606
100
AcDbArc
50
270
51
89.9999918144
0
LINE
5
11C
100
AcDbEntity
8
0
6
ByLayer
62
256
370
-1
100
AcDbLine
10
70.6524903179
20
357.366596673
11
96.2041184479
21
357.366596673
0
LINE
5
11D
100
AcDbEntity
8
0
6
ByLayer
62
256
370
-1
100
AcDbLine
10
70.6524903179
20
342.900067461
11
96.2041174149
21
342.900067461
0
ARC
5
11E
100
AcDbEntity
8
0
6
ByLayer
62
256
370
-1
100
AcDbCircle
10
96.2041174149
20
350.133332067
40
11.4205450867
100
AcDbArc
50
282.476666014
51
90
0
LINE
5
11F
100
AcDbEntity
8
0
6
ByLayer
62
256
370
-1
100
AcDbLine
10
70.6524903179
20
361.553877153
11
96.2041184479
21
361.553877153
0
LINE
5
120
100
AcDbEntity
8
0
6
ByLayer
62
256
370
-1
100
AcDbLine
10
70.6524903179
20
338.982493748
11
98.6714347559
21
338.982493748
0
LINE
5
121
100
AcDbEntity
8
0
6
ByLayer
62
256
370
-1
100
AcDbLine
10
167.009524431
20
353.918521025
11
227.009524431
21
353.918521025
0
LINE
5
122
100
AcDbEntity
8
0
6
ByLayer
62
256
370
-1
100
AcDbLine
10
167.009524431
20
378.918521025
11
227.009524431
21
378.918521025
0
CIRCLE
5
123
100
AcDbEntity
8
0
6
ByLayer
62
256
370
-1
100
AcDbCircle
10
227.009524431
20
366.418521025
40
7
0
CIRCLE
5
124
100
AcDbEntity
8
0
6
ByLayer
62
256
370
-1
100
AcDbCircle
10
167.009524431
20
366.418521025
40
7
0
ARC
5
125
100
AcDbEntity
8
0
6
ByLayer
62
256
370
-1
100
AcDbCircle
10
167.009524431
20
366.418521025
40
12.5
100
AcDbArc
50
90
51
270
0
ARC
5
126
100
AcDbEntity
8
0
6
ByLayer
62
256
370
-1
100
AcDbCircle
10
227.009524431
20
366.418521025
40
12.5
100
AcDbArc
50
270
51
90
0
ARC
5
127
100
AcDbEntity
8
0
6
ByLayer
62
256
370
-1
100
AcDbCircle
10
571.558021287
20
328.614385399
40
19.5256241898
100
AcDbArc
50
264.104508581
51
157.901
0
ARC
5
128
100
AcDbEntity
8
0
6
ByLayer
62
256
370
-1
100
AcDbCircle
10
557.450217832
20
293.869315508
40
19.5256241898
100
AcDbArc
50
157.901
51
51.6974914194
0
ARC
5
129
100
AcDbEntity
8
0
6
ByLayer
62
256
370
-1
100
AcDbCircle
10
469.639149608
20
369.997275531
40
19.5256241898
100
AcDbArc
50
337.901
51
231.697491419
0
ARC
5
12A
100
AcDbEntity
8
0
6
ByLayer
62
256
370
-1
100
AcDbCircle
10
455.531346154
20
335.25220564
40
19.5256241898
100
AcDbArc
50
84.104508581
51
337.901
0
LINE
5
12B
100
AcDbEntity
8
0
6
ByLayer
62
256
370
-1
100
AcDbLine
10
487.730327664
20
362.651577706
11
553.466843229
21
335.960083222
0
LINE
5
12C
100
AcDbEntity
8
0
6
ByLayer
62
256
370
-1
100
AcDbLine
10
473.62252421
20
327.906507816
11
539.359039775
21
301.215013332
0
CIRCLE
5
12D
100
AcDbEntity
8
0
6
ByLayer
62
256
370
-1
100
AcDbCircle
10
480.676425937
20
345.279042761
40
3
0
CIRCLE
5
12E
100
AcDbEntity
8
0
6
ByLayer
62
256
370
-1
100
AcDbCircle
10
546.412941503
20
318.587548277
40
3
0
LINE
5
12F
100
AcDbEntity
8
0
6
ByLayer
62
256
370
-1
100
AcDbLine
10
224.381184014
20
119.081530067
11
210.288688167
21
117.897654737
0
LINE
5
130
100
AcDbEntity
8
0
6
ByLayer
62
256
370
-1
100
AcDbLine
10
224.381184014
20
119.081530067
11
198.998862679
21
89.0434821151
0
LINE
5
131
100
AcDbEntity
8
0
6
ByLayer
62
256
370
-1
100
AcDbLine
10
210.288688167
20
117.897654737
11
191.759946313
21
95.9702971493
0
LINE
5
132
100
AcDbEntity
8
0
6
ByLayer
62
256
370
-1
100
AcDbLine
10
198.998862679
20
89.0434821151
11
205.988570601
21
82.3991699132
0
LINE
5
133
100
AcDbEntity
8
0
6
ByLayer
62
256
370
-1
100
AcDbLine
10
172.382140065
20
241.573704666
11
158.154934401
21
253.595774357
0
ARC
5
134
100
AcDbEntity
8
0
6
ByLayer
62
256
370
-1
100
AcDbCircle
10
60.3681015224
20
273.246898665
40
59.5603848716
100
AcDbArc
50
248.234909818
51
293.115622006
0
ELLIPSE
5
135
100
AcDbEntity
8
0
6
ByLayer
62
256
370
-1
100
AcDbEllipse
10
130.770250296
20
139.268786319
30
0
11
94.4133341251
21
96.9637409857
31
0
40
0.667704410857
41
0.728151633582
42
1.39295219348
0
LINE
5
136
100
AcDbEntity
8
0
6
ByLayer
62
256
370
-1
100
AcDbLine
10
191.764640984
20
95.6064568444
11
85.0218452638
21
200.249139528
0
ELLIPSE
5
137
100
AcDbEntity
8
0
6
ByLayer
62
256
370
-1
100
AcDbEllipse
10
142.002263574
20
130.289081947
30
0
11
80.5461033828
21
95.0781046393
31
0
40
0.719044633532
41
0.575339096129
42
1.43753538316
0
ARC
5
138
100
AcDbEntity
8
0
6
ByLayer
62
256
370
-1
100
AcDbCircle
10
217.892661585
20
65.7940881067
40
12.8763348823
100
AcDbArc
50
321.520501547
51
138.132285059
0
ARC
5
139
100
AcDbEntity
8
0
6
ByLayer
62
256
370
-1
100
AcDbCircle
10
217.892661585
20
65.7940881067
40
20.4312536082
100
AcDbArc
50
320.893972868
51
125.636528794
0
LINE
5
13A
100
AcDbEntity
8
0
6
ByLayer
62
256
370
-1
100
AcDbLine
10
166.938784572
20
51.0440812307
11
165.742910096
21
65.1355639148
0
LINE
5
13B
100
AcDbEntity
8
0
6
ByLayer
62
256
370
-1
100
AcDbLine
10
166.938784572
20
51.0440812307
11
192.295519704
21
81.1037310055
0
LINE
5
13C
100
AcDbEntity
8
0
6
ByLayer
62
256
370
-1
100
AcDbLine
10
165.742910096
20
65.1355639148
11
184.252974378
21
87.0786905325
0
LINE
5
13D
100
AcDbEntity
8
0
6
ByLayer
62
256
370
-1
100
AcDbLine
10
192.295519704
20
81.1037310055
11
200.017775337
21
75.3270823756
0
LINE
5
13E
100
AcDbEntity
8
0
6
ByLayer
62
256
370
-1
100
AcDbLine
10
37.461809753
20
81.7677919635
11
23.2243726125
21
93.7777430185
0
ARC
5
13F
100
AcDbEntity
8
0
6
ByLayer
62
256
370
-1
100
AcDbCircle
10
-12.5451405949
20
186.885064405
40
59.5603848716
100
AcDbArc
50
346.537164601
51
31.4178767886
0
ELLIPSE
5
140
100
AcDbEntity
8
0
6
ByLayer
62
256
370
-1
100
AcDbEllipse
10
131.340932544
20
139.944728908
30
0
11
-79.759974259
21
-109.335224117
31
0
40
0.667704410857
41
4.8902331137
42
5.5550336736
0
LINE
5
141
100
AcDbEntity
8
0
6
ByLayer
62
256
370
-1
100
AcDbLine
10
184.612450611
20
87.1350700065
11
63.5529820268
21
174.820419658
0
ELLIPSE
5
142
100
AcDbEntity
8
0
6
ByLayer
62
256
370
-1
100
AcDbEllipse
10
142.076853155
20
130.377429314
30
0
11
-80.2262514759
21
-95.348147995
31
0
40
0.719044633532
41
4.84564992402
42
5.70784621105
0
ARC
5
143
100
AcDbEntity
8
0
6
ByLayer
62
256
370
-1
100
AcDbCircle
10
218.383805119
20
66.3758213452
40
12.8763348823
100
AcDbArc
50
141.520501547
51
318.132285059
0
ARC
5
144
100
AcDbEntity
8
0
6
ByLayer
62
256
370
-1
100
AcDbCircle
10
218.383805119
20
66.3758213452
40
20.4312536082
100
AcDbArc
50
154.016257813
51
318.758813739
0
LINE
5
145
100
AcDbEntity
8
0
6
ByLayer
62
256
370
-1
100
AcDbLine
10
455.646766996
20
67.9490613273
11
432.648986419
21
49.6427675311
0
LINE
5
146
100
AcDbEntity
8
0
6
ByLayer
62
256
370
-1
100
AcDbLine
10
455.444415034
20
70.8652886834
11
431.75811359
21
85.2986821518
0
ARC
5
147
100
AcDbEntity
8
0
6
ByLayer
62
256
370
-1
100
AcDbCircle
10
426.29530786
20
57.619657199
40
10.1980390272
100
AcDbArc
50
168.231136543
51
308.537699407
0
ARC
5
148
100
AcDbEntity
8
0
6
ByLayer
62
256
370
-1
100
AcDbCircle
10
425.08935409
20
77.5832659786
40
10.1980390272
100
AcDbArc
50
49.161761344
51
196.424868872
0
LINE
5
149
100
AcDbEntity
8
0
6
ByLayer
62
256
370
-1
100
AcDbLine
10
265.645107529
20
49.6471807906
11
257.581107529
21
49.6471807906
0
LINE
5
14A
100
AcDbEntity
8
0
6
ByLayer
62
256
370
-1
100
AcDbLine
10
265.645107529
20
84.2071807906
11
257.581107529
21
84.2071807906
0
LINE
5
14B
100
AcDbEntity
8
0
6
ByLayer
62
256
370
-1
100
AcDbLine
10
257.581107529
20
84.2071807906
11
269.101107529
21
72.6871807906
0
LINE
5
14C
100
AcDbEntity
8
0
6
ByLayer
62
256
370
-1
100
AcDbLine
10
269.101107529
20
61.1671807906
11
257.581107529
21
49.6471807906
0
LINE
5
14D
100
AcDbEntity
8
0
6
ByLayer
62
256
370
-1
100
AcDbLine
10
257.581107529
20
84.2071807906
11
249.517107529
21
84.2071807906
0
LINE
5
14E
100
AcDbEntity
8
0
6
ByLayer
62
256
370
-1
100
AcDbLine
10
257.581107529
20
49.6471807906
11
249.517107529
21
49.6471807906
0
LINE
5
14F
100
AcDbEntity
8
0
6
ByLayer
62
256
370
-1
100
AcDbLine
10
261.037107529
20
72.6871807906
11
249.517107529
21
84.2071807906
0
LINE
5
150
100
AcDbEntity
8
0
6
ByLayer
62
256
370
-1
100
AcDbLine
10
261.037107529
20
61.1671807906
11
249.517107529
21
49.6471807906
0
LINE
5
151
100
AcDbEntity
8
0
6
ByLayer
62
256
370
-1
100
AcDbLine
10
249.517107529
20
84.2071807906
11
241.453107529
21
84.2071807906
0
LINE
5
152
100
AcDbEntity
8
0
6
ByLayer
62
256
370
-1
100
AcDbLine
10
249.517107529
20
49.6471807906
11
241.453107529
21
49.6471807906
0
LINE
5
153
100
AcDbEntity
8
0
6
ByLayer
62
256
370
-1
100
AcDbLine
10
252.973107529
20
61.1671807906
11
241.453107529
21
49.6471807906
0
LINE
5
154
100
AcDbEntity
8
0
6
ByLayer
62
256
370
-1
100
AcDbLine
10
252.973107529
20
72.6871807906
11
241.453107529
21
84.2071807906
0
LINE
5
155
100
AcDbEntity
8
0
6
ByLayer
62
256
370
-1
100
AcDbLine
10
252.973107529
20
72.6871807906
11
258.733107529
21
66.9271807906
0
LINE
5
156
100
AcDbEntity
8
0
6
ByLayer
62
256
370
-1
100
AcDbLine
10
258.733107529
20
66.9271807906
11
252.973107529
21
61.1671807906
0
LINE
5
157
100
AcDbEntity
8
0
6
ByLayer
62
256
370
-1
100
AcDbLine
10
275.152597567
20
74.6996907519
11
415.307483415
21
74.6996907519
0
LINE
5
158
100
AcDbEntity
8
0
6
ByLayer
62
256
370
-1
100
AcDbLine
10
275.69761749
20
59.6996907519
11
416.311648189
21
59.6996907519
0
LINE
5
159
100
AcDbEntity
8
0
6
ByLayer
62
256
370
-1
100
AcDbLine
10
275.152597567
20
74.6996907519
11
265.645107529
21
84.2071807906
0
LINE
5
15A
100
AcDbEntity
8
0
6
ByLayer
62
256
370
-1
100
AcDbLine
10
275.69761749
20
59.6996907519
11
265.645107529
21
49.6471807906
0
CIRCLE
5
15B
100
AcDbEntity
8
0
6
ByLayer
62
256
370
-1
100
AcDbCircle
10
300.0304026
20
66.8965262358
40
2
0
CIRCLE
5
15C
100
AcDbEntity
8
0
6
ByLayer
62
256
370
-1
100
AcDbCircle
10
395.636209052
20
66.8965262358
40
2
0
LINE
5
15D
100
AcDbEntity
8
0
6
ByLayer
62
256
370
-1
100
AcDbLine
10
407.79463343
20
414.390893757
11
467.79463343
21
414.390893757
0
LINE
5
15E
100
AcDbEntity
8
0
6
ByLayer
62
256
370
-1
100
AcDbLine
10
407.79463343
20
439.390893757
11
467.79463343
21
439.390893757
0
CIRCLE
5
15F
100
AcDbEntity
8
0
6
ByLayer
62
256
370
-1
100
AcDbCircle
10
467.79463343
20
426.890893757
40
7
0
CIRCLE
5
160
100
AcDbEntity
8
0
6
ByLayer
62
256
370
-1
100
AcDbCircle
10
407.79463343
20
426.890893757
40
7
0
ARC
5
161
100
AcDbEntity
8
0
6
ByLayer
62
256
370
-1
100
AcDbCircle
10
407.79463343
20
426.890893757
40
12.5
100
AcDbArc
50
90
51
270
0
ARC
5
162
100
AcDbEntity
8
0
6
ByLayer
62
256
370
-1
100
AcDbCircle
10
467.79463343
20
426.890893757
40
12.5
100
AcDbArc
50
270
51
90
0
LINE
5
163
100
AcDbEntity
8
0
6
ByLayer
62
256
370
-1
100
AcDbLine
10
156.46595113
20
175.750367203
11
150.84095113
21
177.709154059
0
LINE
5
164
100
AcDbEntity
8
0
6
ByLayer
62
256
370
-1
100
AcDbLine
10
150.84095113
20
177.709154059
11
156.46595113
21
179.667940916
0
LINE
5
165
100
AcDbEntity
8
0
6
ByLayer
62
256
370
-1
100
AcDbLine
10
156.46595113
20
194.134470128
11
150.84095113
21
196.228110368
0
LINE
5
166
100
AcDbEntity
8
0
6
ByLayer
62
256
370
-1
100
AcDbLine
10
150.84095113
20
196.228110368
11
156.46595113
21
198.321750608
0
ARC
5
167
100
AcDbEntity
8
0
6
ByLayer
62
256
370
-1
100
AcDbCircle
10
182.017578227
20
186.901205522
40
7.233264606
100
AcDbArc
50
270
51
89.9999918144
0
LINE
5
168
100
AcDbEntity
8
0
6
ByLayer
62
256
370
-1
100
AcDbLine
10
156.46595113
20
194.134470128
11
182.01757926
21
194.134470128
0
LINE
5
169
100
AcDbEntity
8
0
6
ByLayer
62
256
370
-1
100
AcDbLine
10
156.46595113
20
179.667940916
11
182.017578227
21
179.667940916
0
ARC
5
16A
100
AcDbEntity
8
0
6
ByLayer
62
256
370
-1
100
AcDbCircle
10
182.017578227
20
186.901205522
40
11.4205450867
100
AcDbArc
50
282.476666014
51
90
0
LINE
5
16B
100
AcDbEntity
8
0
6
ByLayer
62
256
370
-1
100
AcDbLine
10
156.46595113
20
198.321750608
11
182.01757926
21
198.321750608
0
LINE
5
16C
100
AcDbEntity
8
0
6
ByLayer
62
256
370
-1
100
AcDbLine
10
156.46595113
20
175.750367203
11
184.484895568
21
175.750367203
0
ARC
5
16D
100
AcDbEntity
8
0
6
ByLayer
62
256
370
-1
100
AcDbCircle
10
579.005979435
20
36.5513780004
40
19.5256241898
100
AcDbArc
50
196.768508581
51
90.565
0
ARC
5
16E
100
AcDbEntity
8
0
6
ByLayer
62
256
370
-1
100
AcDbCircle
10
541.507802698
20
36.1815923585
40
19.5256241898
100
AcDbArc
50
90.565
51
344.361491419
0
ARC
5
16F
100
AcDbEntity
8
0
6
ByLayer
62
256
370
-1
100
AcDbCircle
10
577.921274885
20
146.546029762
40
19.5256241898
100
AcDbArc
50
270.565
51
164.361491419
0
ARC
5
170
100
AcDbEntity
8
0
6
ByLayer
62
256
370
-1
100
AcDbCircle
10
540.423098149
20
146.176244119
40
19.5256241898
100
AcDbArc
50
16.768508581
51
270.565
0
LINE
5
171
100
AcDbEntity
8
0
6
ByLayer
62
256
370
-1
100
AcDbLine
10
578.113816098
20
127.021354914
11
578.813438222
21
56.0760528479
0
LINE
5
172
100
AcDbEntity
8
0
6
ByLayer
62
256
370
-1
100
AcDbLine
10
540.615639361
20
126.651569272
11
541.315261485
21
55.7062672061
0
CIRCLE
5
173
100
AcDbEntity
8
0
6
ByLayer
62
256
370
-1
100
AcDbCircle
10
559.364727729
20
126.836462093
40
3
0
CIRCLE
5
174
100
AcDbEntity
8
0
6
ByLayer
62
256
370
-1
100
AcDbCircle
10
560.064349854
20
55.8911600265
40
3
0
ARC
5
175
100
AcDbEntity
8
0
6
ByLayer
62
256
370
-1
100
AcDbCircle
10
574.313977851
20
535.049109988
40
14.6442181423
100
AcDbArc
50
286.938508581
51
180.735
0
ARC
5
176
100
AcDbEntity
8
0
6
ByLayer
62
256
370
-1
100
AcDbCircle
10
574.674760237
20
506.926424108
40
14.6442181423
100
AcDbArc
50
180.735
51
74.5314914194
0
ARC
5
177
100
AcDbEntity
8
0
6
ByLayer
62
256
370
-1
100
AcDbCircle
10
491.820765938
20
533.990814989
40
14.6442181423
100
AcDbArc
50
0.735
51
254.531491419
0
ARC
5
178
100
AcDbEntity
8
0
6
ByLayer
62
256
370
-1
100
AcDbCircle
10
492.181548324
20
505.86812911
40
14.6442181423
100
AcDbArc
50
106.938508581
51
0.735
0
LINE
5
179
100
AcDbEntity
8
0
6
ByLayer
62
256
370
-1
100
AcDbLine
10
506.463779157
20
534.178668356
11
559.670964633
21
534.86125662
0
LINE
5
17A
100
AcDbEntity
8
0
6
ByLayer
62
256
370
-1
100
AcDbLine
10
506.824561543
20
506.055982477
11
560.031747018
21
506.73857074
0
CIRCLE
5
17B
100
AcDbEntity
8
0
6
ByLayer
62
256
370
-1
100
AcDbCircle
10
506.64417035
20
520.117325416
40
2.25
0
CIRCLE
5
17C
100
AcDbEntity
8
0
6
ByLayer
62
256
370
-1
100
AcDbCircle
10
559.851355826
20
520.79991368
40
2.25
0
ARC
5
17D
100
AcDbEntity
8
0
6
ByLayer
62
256
370
-1
100
AcDbCircle
10
351.45701213
20
552.597818796
40
19.5256241898
100
AcDbArc
50
280.682108581
51
174.4786
0
ARC
5
17E
100
AcDbEntity
8
0
6
ByLayer
62
256
370
-1
100
AcDbCircle
10
347.848854876
20
515.271806402
40
19.5256241898
100
AcDbArc
50
174.4786
51
68.2750914194
0
ARC
5
17F
100
AcDbEntity
8
0
6
ByLayer
62
256
370
-1
100
AcDbCircle
10
241.967375774
20
563.18174674
40
19.5256241898
100
AcDbArc
50
354.4786
51
248.275091419
0
ARC
5
180
100
AcDbEntity
8
0
6
ByLayer
62
256
370
-1
100
AcDbCircle
10
238.35921852
20
525.855734346
40
19.5256241898
100
AcDbArc
50
100.682108581
51
354.4786
0
LINE
5
181
100
AcDbEntity
8
0
6
ByLayer
62
256
370
-1
100
AcDbLine
10
261.402407521
20
561.303039471
11
332.021980382
21
554.476526063
0
LINE
5
182
100
AcDbEntity
8
0
6
ByLayer
62
256
370
-1
100
AcDbLine
10
257.794250267
20
523.977027077
11
328.413823128
21
517.150513669
0
CIRCLE
5
183
100
AcDbEntity
8
0
6
ByLayer
62
256
370
-1
100
AcDbCircle
10
259.598328894
20
542.640033274
40
3
0
CIRCLE
5
184
100
AcDbEntity
8
0
6
ByLayer
62
256
370
-1
100
AcDbCircle
10
330.217901756
20
535.813519866
40
3
0
LINE
5
185
100
AcDbEntity
8
0
6
ByLayer
62
256
370
-1
100
AcDbLine
10
151.117261456
20
543.017510655
11
147.953198956
21
544.119328261
0
LINE
5
186
100
AcDbEntity
8
0
6
ByLayer
62
256
370
-1
100
AcDbLine
10
147.953198956
20
544.119328261
11
151.117261456
21
545.221145868
0
LINE
5
187
100
AcDbEntity
8
0
6
ByLayer
62
256
370
-1
100
AcDbLine
10
151.117261456
20
553.35856855
11
147.953198956
21
554.536241185
0
LINE
5
188
100
AcDbEntity
8
0
6
ByLayer
62
256
370
-1
100
AcDbLine
10
147.953198956
20
554.536241185
11
151.117261456
21
555.71391382
0
ARC
5
189
100
AcDbEntity
8
0
6
ByLayer
62
256
370
-1
100
AcDbCircle
10
165.490051698
20
549.289857209
40
4.06871134087
100
AcDbArc
50
270
51
89.9999918144
0
LINE
5
18A
100
AcDbEntity
8
0
6
ByLayer
62
256
370
-1
100
AcDbLine
10
151.117261456
20
553.35856855
11
165.490052279
21
553.35856855
0
LINE
5
18B
100
AcDbEntity
8
0
6
ByLayer
62
256
370
-1
100
AcDbLine
10
151.117261456
20
545.221145868
11
165.490051698
21
545.221145868
0
ARC
5
18C
100
AcDbEntity
8
0
6
ByLayer
62
256
370
-1
100
AcDbCircle
10
165.490051698
20
549.289857209
40
6.42405661127
100
AcDbArc
50
282.476666014
51
90
0
LINE
5
18D
100
AcDbEntity
8
0
6
ByLayer
62
256
370
-1
100
AcDbLine
10
151.117261456
20
555.71391382
11
165.490052279
21
555.71391382
0
LINE
5
18E
100
AcDbEntity
8
0
6
ByLayer
62
256
370
-1
100
AcDbLine
10
151.117261456
20
543.017510655
11
166.877917703
21
543.017510655
0
LINE
5
18F
100
AcDbEntity
8
0
6
ByLayer
62
256
370
-1
100
AcDbLine
10
48.9907291208
20
579.43837665
11
45.8266666208
21
580.540194257
0
LINE
5
190
100
AcDbEntity
8
0
6
ByLayer
62
256
370
-1
100
AcDbLine
10
45.8266666208
20
580.540194257
11
48.9907291208
21
581.642011864
0
LINE
5
191
100
AcDbEntity
8
0
6
ByLayer
62
256
370
-1
100
AcDbLine
10
48.9907291208
20
589.779434546
11
45.8266666208
21
590.957107181
0
LINE
5
192
100
AcDbEntity
8
0
6
ByLayer
62
256
370
-1
100
AcDbLine
10
45.8266666208
20
590.957107181
11
48.9907291208
21
592.134779816
0
ARC
5
193
100
AcDbEntity
8
0
6
ByLayer
62
256
370
-1
100
AcDbCircle
10
63.3635193629
20
585.710723205
40
4.06871134087
100
AcDbArc
50
270
51
89.9999918144
0
LINE
5
194
100
AcDbEntity
8
0
6
ByLayer
62
256
370
-1
100
AcDbLine
10
48.9907291208
20
589.779434546
11
63.363519944
21
589.779434546
0
LINE
5
195
100
AcDbEntity
8
0
6
ByLayer
62
256
370
-1
100
AcDbLine
10
48.9907291208
20
581.642011864
11
63.3635193629
21
581.642011864
0
ARC
5
196
100
AcDbEntity
8
0
6
ByLayer
62
256
370
-1
100
AcDbCircle
10
63.3635193629
20
585.710723205
40
6.42405661127
100
AcDbArc
50
282.476666014
51
90
0
LINE
5
197
100
AcDbEntity
8
0
6
ByLayer
62
256
370
-1
100
AcDbLine
10
48.9907291208
20
592.134779816
11
63.363519944
21
592.134779816
0
LINE
5
198
100
AcDbEntity
8
0
6
ByLayer
62
256
370
-1
100
AcDbLine
10
48.9907291208
20
579.43837665
11
64.7513853672
21
579.43837665
0
LINE
5
199
100
AcDbEntity
8
0
6
ByLayer
62
256
370
-1
100
AcDbLine
10
306.995883561
20
451.473579576
11
312.778760247
21
418.222702336
0
LINE
5
19A
100
AcDbEntity
8
0
6
ByLayer
62
256
370
-1
100
AcDbLine
10
320.850415744
20
453.883111529
11
326.633292431
21
420.632234289
0
CIRCLE
5
19B
100
AcDbEntity
8
0
6
ByLayer
62
256
370
-1
100
AcDbCircle
10
319.706026339
20
419.427468312
40
3.9375
0
CIRCLE
5
19C
100
AcDbEntity
8
0
6
ByLayer
62
256
370
-1
100
AcDbCircle
10
313.923149653
20
452.678345552
40
3.9375
0
ARC
5
19D
100
AcDbEntity
8
0
6
ByLayer
62
256
370
-1
100
AcDbCircle
10
313.923149653
20
452.678345552
40
7.03125
100
AcDbArc
50
9.866
51
189.866
0
ARC
5
19E
100
AcDbEntity
8
0
6
ByLayer
62
256
370
-1
100
AcDbCircle
10
319.706026339
20
419.427468312
40
7.03125
100
AcDbArc
50
189.866
51
9.866
0
LINE
5
19F
100
AcDbEntity
8
0
6
ByLayer
62
256
370
-1
100
AcDbLine
10
213.450664893
20
468.703945042
11
247.200664893
21
468.703945042
0
LINE
5
1A0
100
AcDbEntity
8
0
6
ByLayer
62
256
370
-1
100
AcDbLine
10
213.450664893
20
482.766445042
11
247.200664893
21
482.766445042
0
CIRCLE
5
1A1
100
AcDbEntity
8
0
6
ByLayer
62
256
370
-1
100
AcDbCircle
10
247.200664893
20
475.735195042
40
3.9375
0
CIRCLE
5
1A2
100
AcDbEntity
8
0
6
ByLayer
62
256
370
-1
100
AcDbCircle
10
213.450664893
20
475.735195042
40
3.9375
0
ARC
5
1A3
100
AcDbEntity
8
0
6
ByLayer
62
256
370
-1
100
AcDbCircle
10
213.450664893
20
475.735195042
40
7.03125
100
AcDbArc
50
90
51
270
0
ARC
5
1A4
100
AcDbEntity
8
0
6
ByLayer
62
256
370
-1
100
AcDbCircle
10
247.200664893
20
475.735195042
40
7.03125
100
AcDbArc
50
270
51
90
0
LINE
5
1A5
100
AcDbEntity
8
0
6
ByLayer
62
256
370
-1
100
AcDbLine
10
115.548699166
20
499.650517623
11
149.298699166
21
499.650517623
0
LINE
5
1A6
100
AcDbEntity
8
0
6
ByLayer
62
256
370
-1
100
AcDbLine
10
115.548699166
20
513.713017623
11
149.298699166
21
513.713017623
0
CIRCLE
5
1A7
100
AcDbEntity
8
0
6
ByLayer
62
256
370
-1
100
AcDbCircle
10
149.298699166
20
506.681767623
40
3.9375
0
CIRCLE
5
1A8
100
AcDbEntity
8
0
6
ByLayer
62
256
370
-1
100
AcDbCircle
10
115.548699166
20
506.681767623
40
3.9375
0
ARC
5
1A9
100
AcDbEntity
8
0
6
ByLayer
62
256
370
-1
100
AcDbCircle
10
115.548699166
20
506.681767623
40
7.03125
100
AcDbArc
50
90
51
270
0
ARC
5
1AA
100
AcDbEntity
8
0
6
ByLayer
62
256
370
-1
100
AcDbCircle
10
149.298699166
20
506.681767623
40
7.03125
100
AcDbArc
50
270
51
90
0
LINE
5
1AB
100
AcDbEntity
8
0
6
ByLayer
62
256
370
-1
100
AcDbLine
10
505.463713534
20
146.927485203
11
503.088170995
21
154.519457783
0
LINE
5
1AC
100
AcDbEntity
8
0
6
ByLayer
62
256
370
-1
100
AcDbLine
10
505.463713534
20
146.927485203
11
485.864510713
21
157.184592331
0
LINE
5
1AD
100
AcDbEntity
8
0
6
ByLayer
62
256
370
-1
100
AcDbLine
10
503.088170995
20
154.519457783
11
488.781025292
21
162.00700345
0
LINE
5
1AE
100
AcDbEntity
8
0
6
ByLayer
62
256
370
-1
100
AcDbLine
10
485.864510713
20
157.184592331
11
483.072578485
21
152.533590963
0
ARC
5
1AF
100
AcDbEntity
8
0
6
ByLayer
62
256
370
-1
100
AcDbCircle
10
570.019298811
20
255.849529094
40
33.5027164903
100
AcDbArc
50
170.807909818
51
215.688622006
0
ELLIPSE
5
1B0
100
AcDbEntity
8
0
6
ByLayer
62
256
370
-1
100
AcDbEllipse
10
505.084372111
20
200.792778411
30
0
11
64.7947721072
21
-39.9610466966
31
0
40
0.667704410857
41
0.728151633582
42
1.39295219348
0
LINE
5
1B1
100
AcDbEntity
8
0
6
ByLayer
62
256
370
-1
100
AcDbLine
10
488.581847832
20
161.959874917
11
532.96150415
21
233.376006798
0
ELLIPSE
5
1B2
100
AcDbEntity
8
0
6
ByLayer
62
256
370
-1
100
AcDbEllipse
10
501.529741049
20
193.526743521
30
0
11
62.0615380999
21
-32.5786755655
31
0
40
0.719044633532
41
0.575339096129
42
1.43753538316
0
ARC
5
1B3
100
AcDbEntity
8
0
6
ByLayer
62
256
370
-1
100
AcDbCircle
10
475.413825593
20
143.964874447
40
7.24293837129
100
AcDbArc
50
244.093501547
51
60.7052850591
0
ARC
5
1B4
100
AcDbEntity
8
0
6
ByLayer
62
256
370
-1
100
AcDbCircle
10
475.413825593
20
143.964874447
40
11.4925801546
100
AcDbArc
50
243.466972868
51
48.209528794
0
LINE
5
1B5
100
AcDbEntity
8
0
6
ByLayer
62
256
370
-1
100
AcDbLine
10
461.076767599
20
170.13301823
11
468.666714683
21
172.515024372
0
LINE
5
1B6
100
AcDbEntity
8
0
6
ByLayer
62
256
370
-1
100
AcDbLine
10
461.076767599
20
170.13301823
11
480.684697106
21
159.892603283
0
LINE
5
1B7
100
AcDbEntity
8
0
6
ByLayer
62
256
370
-1
100
AcDbLine
10
468.666714683
20
172.515024372
11
482.980230746
21
165.039663765
0
LINE
5
1B8
100
AcDbEntity
8
0
6
ByLayer
62
256
370
-1
100
AcDbLine
10
480.684697106
20
159.892603283
11
478.458819848
21
154.945667896
0
LINE
5
1B9
100
AcDbEntity
8
0
6
ByLayer
62
256
370
-1
100
AcDbLine
10
462.090370439
20
244.979316311
11
466.940635336
21
254.266406012
0
ARC
5
1BA
100
AcDbEntity
8
0
6
ByLayer
62
256
370
-1
100
AcDbCircle
10
513.6777085
20
285.304960352
40
33.5027164903
100
AcDbArc
50
269.110164601
51
313.990876789
0
ELLIPSE
5
1BB
100
AcDbEntity
8
0
6
ByLayer
62
256
370
-1
100
AcDbEllipse
10
505.525350244
20
200.562234669
30
0
11
-69.7925936325
21
30.4013423974
31
0
40
0.667704410857
41
4.8902331137
42
5.5550336736
0
LINE
5
1BC
100
AcDbEntity
8
0
6
ByLayer
62
256
370
-1
100
AcDbLine
10
483.055200434
20
164.84921087
11
516.372063579
21
242.048980416
0
ELLIPSE
5
1BD
100
AcDbEntity
8
0
6
ByLayer
62
256
370
-1
100
AcDbEllipse
10
501.587377981
20
193.496610884
30
0
11
-62.1706299914
21
32.3700074049
31
0
40
0.719044633532
41
4.84564992402
42
5.70784621105
0
ARC
5
1BE
100
AcDbEntity
8
0
6
ByLayer
62
256
370
-1
100
AcDbCircle
10
475.793342495
20
143.766462688
40
7.24293837129
100
AcDbArc
50
64.0935015475
51
240.705285059
0
ARC
5
1BF
100
AcDbEntity
8
0
6
ByLayer
62
256
370
-1
100
AcDbCircle
10
475.793342495
20
143.766462688
40
11.4925801546
100
AcDbArc
50
76.5892578125
51
241.331813739
0
LINE
5
1C0
100
AcDbEntity
8
0
6
ByLayer
62
256
370
-1
100
AcDbLine
10
566.346137353
20
190.47431284
11
571.204308325
21
199.757269237
0
LINE
5
1C1
100
AcDbEntity
8
0
6
ByLayer
62
256
370
-1
100
AcDbLine
10
421.463578244
20
144.634491872
11
427.24645493
21
111.383614632
0
LINE
5
1C2
100
AcDbEntity
8
0
6
ByLayer
62
256
370
-1
100
AcDbLine
10
435.318110428
20
147.044023825
11
441.100987114
21
113.793146585
0
CIRCLE
5
1C3
100
AcDbEntity
8
0
6
ByLayer
62
256
370
-1
100
AcDbCircle
10
434.173721022
20
112.588380609
40
3.9375
0
CIRCLE
5
1C4
100
AcDbEntity
8
0
6
ByLayer
62
256
370
-1
100
AcDbCircle
10
428.390844336
20
145.839257849
40
3.9375
0
ARC
5
1C5
100
AcDbEntity
8
0
6
ByLayer
62
256
370
-1
100
AcDbCircle
10
428.390844336
20
145.839257849
40
7.03125
100
AcDbArc
50
9.866
51
189.866
0
ARC
5
1C6
100
AcDbEntity
8
0
6
ByLayer
62
256
370
-1
100
AcDbCircle
10
434.173721022
20
112.588380609
40
7.03125
100
AcDbArc
50
189.866
51
9.866
0
LINE
5
1C7
100
AcDbEntity
8
0
6
ByLayer
62
256
370
-1
100
AcDbLine
10
174.590809844
20
568.447188074
11
171.426747344
21
569.549005681
0
LINE
5
1C8
100
AcDbEntity
8
0
6
ByLayer
62
256
370
-1
100
AcDbLine
10
171.426747344
20
569.549005681
11
174.590809844
21
570.650823288
0
LINE
5
1C9
100
AcDbEntity
8
0
6
ByLayer
62
256
370
-1
100
AcDbLine
10
174.590809844
20
578.78824597
11
171.426747344
21
579.965918605
0
LINE
5
1CA
100
AcDbEntity
8
0
6
ByLayer
62
256
370
-1
100
AcDbLine
10
171.426747344
20
579.965918605
11
174.590809844
21
581.14359124
0
ARC
5
1CB
100
AcDbEntity
8
0
6
ByLayer
62
256
370
-1
100
AcDbCircle
10
188.963600086
20
574.719534629
40
4.06871134087
100
AcDbArc
50
270
51
89.9999918144
0
LINE
5
1CC
100
AcDbEntity
8
0
6
ByLayer
62
256
370
-1
100
AcDbLine
10
174.590809844
20
578.78824597
11
188.963600667
21
578.78824597
0
LINE
5
1CD
100
AcDbEntity
8
0
6
ByLayer
62
256
370
-1
100
AcDbLine
10
174.590809844
20
570.650823288
11
188.963600086
21
570.650823288
0
ARC
5
1CE
100
AcDbEntity
8
0
6
ByLayer
62
256
370
-1
100
AcDbCircle
10
188.963600086
20
574.719534629
40
6.42405661127
100
AcDbArc
50
282.476666014
51
90
0
LINE
5
1CF
100
AcDbEntity
8
0
6
ByLayer
62
256
370
-1
100
AcDbLine
10
174.590809844
20
568.447188074
11
190.35146609
21
568.447188074
0
LINE
5
1D0
100
AcDbEntity
8
0
6
ByLayer
62
256
370
-1
100
AcDbLine
10
174.590809844
20
581.14359124
11
188.963600086
21
581.14359124
0
ENDSEC
0
SECTION
2
OBJECTS
0
DICTIONARY
5
C
330
0
100
AcDbDictionary
281
1
3
ACAD_GROUP
350
D
0
DICTIONARY
5
D
330
C
100
AcDbDictionary
281
1
0
ENDSEC
0
EOF
