999
dxfrw 0.5.11
0
SECTION
2
HEADER
9
$ACADVER
1
AC1021
9
$HANDSEED
5
20000
9
$DWGCODEPAGE
3
ANSI_1252
9
$INSBASE
10
0
20
0
30
0
9
$EXTMIN
10
-62
20
0
30
0
9
$EXTMAX
10
857
20
780.751603006
30
0
9
$LIMMIN
10
0
20
0
9
$LIMMAX
10
420
20
297
9
$ORTHOMODE
70
0
9
$LTSCALE
40
1
9
$TEXTSTYLE
7
STANDARD
9
$CLAYER
8
0
9
$DIMASZ
40
2.5
9
$DIMLFAC
40
1
9
$DIMSCALE
40
1
9
$DIMEXO
40
0.625
9
$DIMEXE
40
1.25
9
$DIMTXT
40
2.5
9
$DIMTSZ
40
0
9
$DIMAUNIT
70
0
9
$DIMADEC
70
0
9
$DIMLUNIT
70
2
9
$DIMSTYLE
2
Standard
9
$DIMGAP
40
0.625
9
$DIMTIH
70
0
9
$LUNITS
70
2
9
$LUPREC
70
4
9
$AUNITS
70
0
9
$AUPREC
70
2
9
$SPLINESEGS
70
8
9
$GRIDMODE
70
1
9
$SNAPSTYLE
70
0
9
$PINSBASE
10
0
20
0
30
0
9
$PLIMMIN
10
0
20
0
9
$PLIMMAX
10
210
20
297
9
$INSUNITS
70
0
9
$PSVPSCALE
40
1
0
ENDSEC
0
SECTION
2
CLASSES
0
ENDSEC
0
SECTION
2
TABLES
0
TABLE
2
VPORT
5
8
330
0
100
AcDbSymbolTable
70
1
0
VPORT
5
31
330
2
100
AcDbSymbolTableRecord
100
AcDbViewportTableRecord
2
*ACTIVE
70
0
10
0
20
0
11
1
21
1
12
634.942363239
22
395.54634192
13
0
23
0
14
10
24
10
15
10
25
10
16
0
26
0
36
1
17
0
27
0
37
0
40
801.433764675
41
2.17677419355
42
50
43
0
44
0
50
0
51
0
71
0
72
100
73
1
74
3
75
0
76
1
77
0
78
0
281
0
65
1
110
0
120
0
130
0
111
1
121
0
131
0
112
0
122
1
132
0
79
0
146
0
348
10020
60
7
61
5
292
1
282
1
141
0
142
0
63
250
421
3358443
0
ENDTAB
0
TABLE
2
LTYPE
5
5
330
0
100
AcDbSymbolTable
70
4
0
LTYPE
5
14
330
5
100
AcDbSymbolTableRecord
100
AcDbLinetypeTableRecord
2
ByBlock
70
0
3

72
65
73
0
40
0
0
LTYPE
5
15
330
5
100
AcDbSymbolTableRecord
100
AcDbLinetypeTableRecord
2
ByLayer
70
0
3

72
65
73
0
40
0
0
LTYPE
5
16
330
5
100
AcDbSymbolTableRecord
100
AcDbLinetypeTableRecord
2
Continuous
70
0
3
Solid line
72
65
73
0
40
0
0
LTYPE
5
32
330
5
100
AcDbSymbolTableRecord
100
AcDbLinetypeTableRecord
2
DOT
70
0
3
Dot . . . . . . . . . . . . . . . . . . . . . .
72
65
73
2
40
6.35
49
0
74
0
49
-6.35
74
0
0
LTYPE
5
33
330
5
100
AcDbSymbolTableRecord
100
AcDbLinetypeTableRecord
2
DOT2
70
0
3
Dot (.5x) .....................................
72
65
73
2
40
3.175
49
0
74
0
49
-3.175
74
0
0
LTYPE
5
34
330
5
100
AcDbSymbolTableRecord
100
AcDbLinetypeTableRecord
2
DOTX2
70
0
3
Dot (2x) .  .  .  .  .  .  .  .  .  .  .  .  .
72
65
73
2
40
12.7
49
0
74
0
49
-12.7
74
0
0
LTYPE
5
35
330
5
100
AcDbSymbolTableRecord
100
AcDbLinetypeTableRecord
2
DASHED
70
0
3
Dot . . . . . . . . . . . . . . . . . . . . . .
72
65
73
2
40
19.05
49
12.7
74
0
49
-6.35
74
0
0
LTYPE
5
36
330
5
100
AcDbSymbolTableRecord
100
AcDbLinetypeTableRecord
2
DASHED2
70
0
3
Dashed (.5x) _ _ _ _ _ _ _ _ _ _ _ _ _ _ _ _ _
72
65
73
2
40
9.525
49
6.35
74
0
49
-3.175
74
0
0
LTYPE
5
37
330
5
100
AcDbSymbolTableRecord
100
AcDbLinetypeTableRecord
2
DASHEDX2
70
0
3
Dashed (2x) ____  ____  ____  ____  ____  ___
72
65
73
2
40
38.1
49
25.4
74
0
49
-12.7
74
0
0
LTYPE
5
38
330
5
100
AcDbSymbolTableRecord
100
AcDbLinetypeTableRecord
2
DASHDOT
70
0
3
Dash dot __ . __ . __ . __ . __ . __ . __ . __
72
65
73
4
40
25.4
49
12.7
74
0
49
-6.35
74
0
49
0
74
0
49
-6.35
74
0
0
LTYPE
5
39
330
5
100
AcDbSymbolTableRecord
100
AcDbLinetypeTableRecord
2
DASHDOT2
70
0
3
Dash dot (.5x) _._._._._._._._._._._._._._._.
72
65
73
4
40
12.7
49
6.35
74
0
49
-3.175
74
0
49
0
74
0
49
-3.175
74
0
0
LTYPE
5
3A
330
5
100
AcDbSymbolTableRecord
100
AcDbLinetypeTableRecord
2
DASHDOTX2
70
0
3
Dash dot (2x) ____  .  ____  .  ____  .  ___
72
65
73
4
40
50.8
49
25.4
74
0
49
-12.7
74
0
49
0
74
0
49
-12.7
74
0
0
LTYPE
5
3B
330
5
100
AcDbSymbolTableRecord
100
AcDbLinetypeTableRecord
2
DIVIDE
70
0
3
Divide ____ . . ____ . . ____ . . ____ . . ____
72
65
73
6
40
31.75
49
12.7
74
0
49
-6.35
74
0
49
0
74
0
49
-6.35
74
0
49
0
74
0
49
-6.35
74
0
0
LTYPE
5
3C
330
5
100
AcDbSymbolTableRecord
100
AcDbLinetypeTableRecord
2
DIVIDE2
70
0
3
Divide (.5x) __..__..__..__..__..__..__..__.._
72
65
73
6
40
15.875
49
6.35
74
0
49
-3.175
74
0
49
0
74
0
49
-3.175
74
0
49
0
74
0
49
-3.175
74
0
0
LTYPE
5
3D
330
5
100
AcDbSymbolTableRecord
100
AcDbLinetypeTableRecord
2
DIVIDEX2
70
0
3
Divide (2x) ________  .  .  ________  .  .  _
72
65
73
6
40
63.5
49
25.4
74
0
49
-12.7
74
0
49
0
74
0
49
-12.7
74
0
49
0
74
0
49
-12.7
74
0
0
LTYPE
5
3E
330
5
100
AcDbSymbolTableRecord
100
AcDbLinetypeTableRecord
2
BORDER
70
0
3
Border __ __ . __ __ . __ __ . __ __ . __ __ .
72
65
73
6
40
44.45
49
12.7
74
0
49
-6.35
74
0
49
12.7
74
0
49
-6.35
74
0
49
0
74
0
49
-6.35
74
0
0
LTYPE
5
3F
330
5
100
AcDbSymbolTableRecord
100
AcDbLinetypeTableRecord
2
BORDER2
70
0
3
Border (.5x) __.__.__.__.__.__.__.__.__.__.__.
72
65
73
6
40
22.225
49
6.35
74
0
49
-3.175
74
0
49
6.35
74
0
49
-3.175
74
0
49
0
74
0
49
-3.175
74
0
0
LTYPE
5
40
330
5
100
AcDbSymbolTableRecord
100
AcDbLinetypeTableRecord
2
BORDERX2
70
0
3
Border (2x) ____  ____  .  ____  ____  .  ___
72
65
73
6
40
88.9
49
25.4
74
0
49
-12.7
74
0
49
25.4
74
0
49
-12.7
74
0
49
0
74
0
49
-12.7
74
0
0
LTYPE
5
41
330
5
100
AcDbSymbolTableRecord
100
AcDbLinetypeTableRecord
2
CENTER
70
0
3
Center ____ _ ____ _ ____ _ ____ _ ____ _ ____
72
65
73
4
40
50.8
49
31.75
74
0
49
-6.35
74
0
49
6.35
74
0
49
-6.35
74
0
0
LTYPE
5
42
330
5
100
AcDbSymbolTableRecord
100
AcDbLinetypeTableRecord
2
CENTER2
70
0
3
Center (.5x) ___ _ ___ _ ___ _ ___ _ ___ _ ___
72
65
73
4
40
28.575
49
19.05
74
0
49
-3.175
74
0
49
3.175
74
0
49
-3.175
74
0
0
LTYPE
5
43
330
5
100
AcDbSymbolTableRecord
100
AcDbLinetypeTableRecord
2
CENTERX2
70
0
3
Center (2x) ________  __  ________  __  _____
72
65
73
4
40
101.6
49
63.5
74
0
49
-12.7
74
0
49
12.7
74
0
49
-12.7
74
0
0
ENDTAB
0
TABLE
2
LAYER
5
2
330
0
100
AcDbSymbolTable
70
1
0
LAYER
5
10
330
2
100
AcDbSymbolTableRecord
100
AcDbLayerTableRecord
2
0
70
0
62
7
6
CONTINUOUS
370
0
390
F
0
LAYER
5
44
330
2
100
AcDbSymbolTableRecord
100
AcDbLayerTableRecord
2
Dessin
70
0
62
7
6
CONTINUOUS
370
-3
390
F
0
LAYER
5
45
330
2
100
AcDbSymbolTableRecord
100
AcDbLayerTableRecord
2
Traits
70
0
62
7
6
DASHEDX2
370
-3
390
F
0
ENDTAB
0
TABLE
2
STYLE
5
3
330
0
100
AcDbSymbolTable
70
3
0
STYLE
5
46
330
2
100
AcDbSymbolTableRecord
100
AcDbTextStyleTableRecord
2
Standard
70
0
40
0
41
1
50
0
71
0
42
1
3
txt
4

0
ENDTAB
0
TABLE
2
VIEW
5
6
330
0
100
AcDbSymbolTable
70
0
0
ENDTAB
0
TABLE
2
UCS
5
7
330
0
100
AcDbSymbolTable
70
0
0
ENDTAB
0
TABLE
2
APPID
5
9
330
0
100
AcDbSymbolTable
70
1
0
APPID
5
12
330
9
100
AcDbSymbolTableRecord
100
AcDbRegAppTableRecord
2
ACAD
70
0
0
ENDTAB
0
TABLE
2
DIMSTYLE
5
A
330
0
100
AcDbSymbolTable
70
1
100
AcDbDimStyleTable
71
1
0
DIMSTYLE
105
47
330
A
100
AcDbSymbolTableRecord
100
AcDbDimStyleTableRecord
2
Standard
70
0
40
1
41
2.5
42
0.625
43
0.38
44
1.25
45
0
46
0
47
0
48
0
140
2.5
141
0.09
142
0
143
25.4
144
1
145
0
146
1
147
0.625
148
0
71
0
72
0
73
0
74
1
75
0
76
0
77
0
78
0
79
0
170
0
171
2
172
0
173
0
174
0
175
0
176
0
177
0
178
0
179
0
271
4
272
4
273
2
274
2
275
0
276
0
277
2
278
46
279
0
280
0
281
0
282
0
283
1
284
0
285
0
286
0
288
0
289
3
340
Standard
341

371
-2
372
-2
0
ENDTAB
0
TABLE
2
BLOCK_RECORD
5
1
330
0
100
AcDbSymbolTable
70
2
0
BLOCK_RECORD
5
1F
330
1
100
AcDbSymbolTableRecord
100
AcDbBlockTableRecord
2
*Model_Space
70
0
280
1
281
0
0
BLOCK_RECORD
5
1E
330
1
100
AcDbSymbolTableRecord
100
AcDbBlockTableRecord
2
*Paper_Space
70
0
280
1
281
0
0
ENDTAB
0
ENDSEC
0
SECTION
2
BLOCKS
0
BLOCK
5
20
330
1F
100
AcDbEntity
8
0
100
AcDbBlockBegin
2
*Model_Space
70
0
10
0
20
0
30
0
3
*Model_Space
1

0
ENDBLK
5
21
330
1F
100
AcDbEntity
8
0
100
AcDbBlockEnd
0
BLOCK
5
1C
330
1B
100
AcDbEntity
8
0
100
AcDbBlockBegin
2
*Paper_Space
70
0
10
0
20
0
30
0
3
*Paper_Space
1

0
ENDBLK
5
1D
330
1F
100
AcDbEntity
8
0
100
AcDbBlockEnd
0
ENDSEC
0
SECTION
2
ENTITIES
0
HATCH
5
48
100
AcDbEntity
8
0
6
ByLayer
62
256
370
-1
100
AcDbHatch
10
0
20
0
30
0
210
0
220
0
230
1
2
SOLID
70
1
71
0
91
1
92
0
93
6
72
1
10
857
20
341.789671336
11
394.934808769
21
780.751603006
72
1
10
394.934808769
20
780.751603006
11
-62
21
341.168749
72
1
10
-62
20
341.168749
11
-62
21
320.35443038
72
1
10
-62
20
320.35443038
11
395
21
760
72
1
10
395
20
760
11
857
21
321.1
72
1
10
857
20
321.1
11
857
21
341.789671336
97
0
75
0
76
1
98
0
0
HATCH
5
49
100
AcDbEntity
8
Dessin
6
ByLayer
62
256
370
-1
100
AcDbHatch
10
0
20
0
30
0
210
0
220
0
230
1
2
ar-rshke
70
0
71
0
91
1
92
0
93
4
72
1
10
487
20
282
11
307
21
282
72
1
10
307
20
282
11
307
21
365
72
1
10
307
20
365
11
487
21
365
72
1
10
487
20
365
11
487
21
282
97
0
75
0
76
1
52
0
41
0.8
77
0
78
0
98
0
0
LINE
5
4A
100
AcDbEntity
8
Dessin
6
ByLayer
62
256
370
-1
100
AcDbLine
10
0
20
0
11
0
21
0
0
LINE
5
4B
100
AcDbEntity
8
Dessin
6
ByLayer
62
256
370
-1
100
AcDbLine
10
0
20
0
11
795
21
0
0
LINE
5
4C
100
AcDbEntity
8
Dessin
6
ByLayer
62
256
370
-1
100
AcDbLine
10
0
20
0
11
0
21
35
0
LINE
5
4D
100
AcDbEntity
8
Dessin
6
ByLayer
62
256
370
-1
100
AcDbLine
10
795
20
0
11
795
21
35
0
LINE
5
4E
100
AcDbEntity
8
Dessin
6
ByLayer
62
256
370
-1
100
AcDbLine
10
795
20
35
11
795
21
0
0
LINE
5
4F
100
AcDbEntity
8
Dessin
6
ByLayer
62
256
370
-1
100
AcDbLine
10
795
20
0
11
795
21
35
0
LINE
5
50
100
AcDbEntity
8
Dessin
6
ByLayer
62
256
370
-1
100
AcDbLine
10
0
20
0
11
0
21
50
0
LINE
5
51
100
AcDbEntity
8
Dessin
6
ByLayer
62
256
370
-1
100
AcDbLine
10
795
20
50
11
795
21
0
0
LINE
5
52
100
AcDbEntity
8
Dessin
6
ByLayer
62
256
370
-1
100
AcDbLine
10
395.747464128
20
752.393351966
11
0
21
371.674272552
0
LINE
5
53
100
AcDbEntity
8
Dessin
6
ByLayer
62
256
370
-1
100
AcDbLine
10
0
20
50
11
0
21
380
0
LINE
5
54
100
AcDbEntity
8
Dessin
6
ByLayer
62
256
370
-1
100
AcDbLine
10
795
20
373.103442888
11
395.747464128
21
752.393351966
0
LINE
5
55
100
AcDbEntity
8
Dessin
6
ByLayer
62
256
370
-1
100
AcDbLine
10
795
20
50
11
795
21
380
0
LINE
5
56
100
AcDbEntity
8
Traits
6
ByLayer
62
256
370
-1
100
AcDbLine
10
0
20
371.674272552
11
6e-16
21
381.674272552
0
LINE
5
57
100
AcDbEntity
8
Traits
6
ByLayer
62
256
370
-1
100
AcDbLine
10
0
20
371.674272552
11
6e-16
21
381.674272552
0
LINE
5
58
100
AcDbEntity
8
Traits
6
ByLayer
62
256
370
-1
100
AcDbLine
10
0
20
371.674272552
11
6e-16
21
381.674272552
0
LINE
5
59
100
AcDbEntity
8
Traits
6
ByLayer
62
256
370
-1
100
AcDbLine
10
0
20
371.674272552
11
6e-16
21
381.674272552
0
LINE
5
5A
100
AcDbEntity
8
Traits
6
ByLayer
62
256
370
-1
100
AcDbLine
10
0
20
371.674272552
11
6e-16
21
381.674272552
0
LINE
5
5B
100
AcDbEntity
8
Traits
6
ByLayer
62
256
370
-1
100
AcDbLine
10
0
20
371.674272552
11
6e-16
21
381.674272552
0
LINE
5
5C
100
AcDbEntity
8
Traits
6
ByLayer
62
256
370
-1
100
AcDbLine
10
0
20
371.674272552
11
6e-16
21
381.674272552
0
LINE
5
5D
100
AcDbEntity
8
Traits
6
ByLayer
62
256
370
-1
100
AcDbLine
10
0
20
371.674272552
11
6e-16
21
381.674272552
0
LINE
5
5E
100
AcDbEntity
8
Traits
6
ByLayer
62
256
370
-1
100
AcDbLine
10
0
20
371.674272552
11
6e-16
21
381.674272552
0
LINE
5
5F
100
AcDbEntity
8
Traits
6
ByLayer
62
256
370
-1
100
AcDbLine
10
0
20
371.674272552
11
6e-16
21
381.674272552
0
LINE
5
60
100
AcDbEntity
8
Traits
6
ByLayer
62
256
370
-1
100
AcDbLine
10
0
20
0
11
6e-16
21
10
0
LINE
5
61
100
AcDbEntity
8
Traits
6
ByLayer
62
256
370
-1
100
AcDbLine
10
0
20
0
11
0
21
835
0
LINE
5
62
100
AcDbEntity
8
Traits
6
ByLayer
62
256
370
-1
100
AcDbLine
10
795
20
0
11
795
21
835
0
LINE
5
63
100
AcDbEntity
8
Traits
6
ByLayer
62
256
370
-1
100
AcDbLine
10
852
20
-1.4e-14
11
852
21
835
0
ARC
5
64
100
AcDbEntity
8
Traits
6
ByLayer
62
256
370
-1
100
AcDbCircle
10
-61
20
340.743153075
40
1
100
AcDbArc
50
133.891187872
51
180
0
LINE
5
65
100
AcDbEntity
8
Dessin
6
ByLayer
62
256
370
-1
100
AcDbLine
10
-0
20
357.798060138
11
-57
21
302.9626171
0
LINE
5
66
100
AcDbEntity
8
Dessin
6
ByLayer
62
256
370
-1
100
AcDbLine
10
-57
20
302.9626171
11
-57
21
325.164556962
0
LINE
5
67
100
AcDbEntity
8
Dessin
6
ByLayer
62
256
370
-1
100
AcDbLine
10
852
20
305.160328664
11
795
21
359.310328664
0
LINE
5
68
100
AcDbEntity
8
Dessin
6
ByLayer
62
256
370
-1
100
AcDbLine
10
852
20
305.160328664
11
852
21
325.85
0
LINE
5
69
100
AcDbEntity
8
Traits
6
ByLayer
62
256
370
-1
100
AcDbLine
10
0
20
835
11
0
21
835
0
LINE
5
6A
100
AcDbEntity
8
Traits
6
ByLayer
62
256
370
-1
100
AcDbLine
10
-57
20
835
11
-57
21
835
0
LINE
5
6B
100
AcDbEntity
8
Traits
6
ByLayer
62
256
370
-1
100
AcDbLine
10
0
20
835
11
0
21
835
0
LINE
5
6C
100
AcDbEntity
8
Traits
6
ByLayer
62
256
370
-1
100
AcDbLine
10
0
20
835
11
0
21
835
0
LINE
5
6D
100
AcDbEntity
8
Traits
6
ByLayer
62
256
370
-1
100
AcDbLine
10
-57
20
835
11
-57
21
835
0
LINE
5
6E
100
AcDbEntity
8
Traits
6
ByLayer
62
256
370
-1
100
AcDbLine
10
-57
20
0
11
-57
21
380
0
LINE
5
6F
100
AcDbEntity
8
Traits
6
ByLayer
62
256
370
-1
100
AcDbLine
10
-57
20
0
11
-57
21
380
0
LINE
5
70
100
AcDbEntity
8
Traits
6
ByLayer
62
256
370
-1
100
AcDbLine
10
-57
20
0
11
-57
21
835
0
LINE
5
71
100
AcDbEntity
8
Dessin
6
ByLayer
62
256
370
-1
100
AcDbLine
10
320
20
0
11
475
21
0
0
LINE
5
72
100
AcDbEntity
8
Dessin
6
ByLayer
62
256
370
-1
100
AcDbLine
10
475
20
0
11
475
21
12
0
LINE
5
73
100
AcDbEntity
8
Dessin
6
ByLayer
62
256
370
-1
100
AcDbLine
10
475
20
12
11
320
21
12
0
LINE
5
74
100
AcDbEntity
8
Dessin
6
ByLayer
62
256
370
-1
100
AcDbLine
10
320
20
12
11
320
21
0
0
LINE
5
75
100
AcDbEntity
8
Dessin
6
ByLayer
62
256
370
-1
100
AcDbLine
10
327
20
12
11
342
21
12
0
LINE
5
76
100
AcDbEntity
8
Dessin
6
ByLayer
62
256
370
-1
100
AcDbLine
10
342
20
12
11
342
21
57
0
LINE
5
77
100
AcDbEntity
8
Dessin
6
ByLayer
62
256
370
-1
100
AcDbLine
10
342
20
57
11
327
21
57
0
LINE
5
78
100
AcDbEntity
8
Dessin
6
ByLayer
62
256
370
-1
100
AcDbLine
10
327
20
57
11
327
21
12
0
LINE
5
79
100
AcDbEntity
8
Dessin
6
ByLayer
62
256
370
-1
100
AcDbLine
10
452
20
12
11
467
21
12
0
LINE
5
7A
100
AcDbEntity
8
Dessin
6
ByLayer
62
256
370
-1
100
AcDbLine
10
467
20
12
11
467
21
57
0
LINE
5
7B
100
AcDbEntity
8
Dessin
6
ByLayer
62
256
370
-1
100
AcDbLine
10
467
20
57
11
452
21
57
0
LINE
5
7C
100
AcDbEntity
8
Dessin
6
ByLayer
62
256
370
-1
100
AcDbLine
10
452
20
57
11
452
21
12
0
LINE
5
7D
100
AcDbEntity
8
Dessin
6
ByLayer
62
256
370
-1
100
AcDbLine
10
795
20
35
11
467
21
35
0
LINE
5
7E
100
AcDbEntity
8
Dessin
6
ByLayer
62
256
370
-1
100
AcDbLine
10
467
20
35
11
477
21
35
0
LINE
5
7F
100
AcDbEntity
8
Dessin
6
ByLayer
62
256
370
-1
100
AcDbLine
10
467
20
35
11
477
21
35
0
LINE
5
80
100
AcDbEntity
8
Dessin
6
ByLayer
62
256
370
-1
100
AcDbLine
10
467
20
35
11
477
21
35
0
LINE
5
81
100
AcDbEntity
8
Dessin
6
ByLayer
62
256
370
-1
100
AcDbLine
10
467
20
35
11
477
21
35
0
LINE
5
82
100
AcDbEntity
8
Dessin
6
ByLayer
62
256
370
-1
100
AcDbLine
10
467
20
35
11
477
21
35
0
LINE
5
83
100
AcDbEntity
8
Dessin
6
ByLayer
62
256
370
-1
100
AcDbLine
10
467
20
35
11
477
21
35
0
LINE
5
84
100
AcDbEntity
8
Dessin
6
ByLayer
62
256
370
-1
100
AcDbLine
10
467
20
35
11
477
21
35
0
LINE
5
85
100
AcDbEntity
8
Dessin
6
ByLayer
62
256
370
-1
100
AcDbLine
10
467
20
35
11
477
21
35
0
LINE
5
86
100
AcDbEntity
8
Dessin
6
ByLayer
62
256
370
-1
100
AcDbLine
10
467
20
35
11
477
21
35
0
LINE
5
87
100
AcDbEntity
8
Dessin
6
ByLayer
62
256
370
-1
100
AcDbLine
10
467
20
35
11
477
21
35
0
LINE
5
88
100
AcDbEntity
8
Dessin
6
ByLayer
62
256
370
-1
100
AcDbLine
10
467
20
35
11
477
21
35
0
LINE
5
89
100
AcDbEntity
8
Dessin
6
ByLayer
62
256
370
-1
100
AcDbLine
10
467
20
35
11
477
21
35
0
LINE
5
8A
100
AcDbEntity
8
Dessin
6
ByLayer
62
256
370
-1
100
AcDbLine
10
467
20
35
11
477
21
35
0
LINE
5
8B
100
AcDbEntity
8
Dessin
6
ByLayer
62
256
370
-1
100
AcDbLine
10
467
20
35
11
477
21
35
0
LINE
5
8C
100
AcDbEntity
8
Dessin
6
ByLayer
62
256
370
-1
100
AcDbLine
10
467
20
35
11
477
21
35
0
LINE
5
8D
100
AcDbEntity
8
Dessin
6
ByLayer
62
256
370
-1
100
AcDbLine
10
467
20
35
11
477
21
35
0
LINE
5
8E
100
AcDbEntity
8
Dessin
6
ByLayer
62
256
370
-1
100
AcDbLine
10
467
20
35
11
477
21
35
0
LINE
5
8F
100
AcDbEntity
8
Dessin
6
ByLayer
62
256
370
-1
100
AcDbLine
10
467
20
35
11
477
21
35
0
LINE
5
90
100
AcDbEntity
8
Dessin
6
ByLayer
62
256
370
-1
100
AcDbLine
10
467
20
35
11
477
21
35
0
LINE
5
91
100
AcDbEntity
8
Dessin
6
ByLayer
62
256
370
-1
100
AcDbLine
10
467
20
35
11
477
21
35
0
LINE
5
92
100
AcDbEntity
8
Dessin
6
ByLayer
62
256
370
-1
100
AcDbLine
10
467
20
35
11
477
21
35
0
LINE
5
93
100
AcDbEntity
8
Dessin
6
ByLayer
62
256
370
-1
100
AcDbLine
10
467
20
35
11
477
21
35
0
LINE
5
94
100
AcDbEntity
8
Dessin
6
ByLayer
62
256
370
-1
100
AcDbLine
10
467
20
35
11
477
21
35
0
LINE
5
95
100
AcDbEntity
8
Dessin
6
ByLayer
62
256
370
-1
100
AcDbLine
10
467
20
35
11
477
21
35
0
LINE
5
96
100
AcDbEntity
8
Dessin
6
ByLayer
62
256
370
-1
100
AcDbLine
10
467
20
35
11
477
21
35
0
LINE
5
97
100
AcDbEntity
8
Dessin
6
ByLayer
62
256
370
-1
100
AcDbLine
10
467
20
35
11
477
21
35
0
LINE
5
98
100
AcDbEntity
8
Dessin
6
ByLayer
62
256
370
-1
100
AcDbLine
10
467
20
35
11
477
21
35
0
LINE
5
99
100
AcDbEntity
8
Dessin
6
ByLayer
62
256
370
-1
100
AcDbLine
10
467
20
35
11
477
21
35
0
LINE
5
9A
100
AcDbEntity
8
Dessin
6
ByLayer
62
256
370
-1
100
AcDbLine
10
467
20
35
11
467
21
35
0
LINE
5
9B
100
AcDbEntity
8
Dessin
6
ByLayer
62
256
370
-1
100
AcDbLine
10
0
20
35
11
0
21
35
0
LINE
5
9C
100
AcDbEntity
8
Dessin
6
ByLayer
62
256
370
-1
100
AcDbLine
10
0
20
35
11
0
21
50
0
LINE
5
9D
100
AcDbEntity
8
Dessin
6
ByLayer
62
256
370
-1
100
AcDbLine
10
0
20
50
11
0
21
35
0
LINE
5
9E
100
AcDbEntity
8
Dessin
6
ByLayer
62
256
370
-1
100
AcDbLine
10
0
20
35
11
0
21
35
0
LINE
5
9F
100
AcDbEntity
8
Dessin
6
ByLayer
62
256
370
-1
100
AcDbLine
10
0
20
35
11
0
21
35
0
LINE
5
A0
100
AcDbEntity
8
Dessin
6
ByLayer
62
256
370
-1
100
AcDbLine
10
0
20
35
11
0
21
35
0
LINE
5
A1
100
AcDbEntity
8
Dessin
6
ByLayer
62
256
370
-1
100
AcDbLine
10
342
20
50
11
352
21
50
0
LINE
5
A2
100
AcDbEntity
8
Dessin
6
ByLayer
62
256
370
-1
100
AcDbLine
10
342
20
50
11
352
21
50
0
LINE
5
A3
100
AcDbEntity
8
Dessin
6
ByLayer
62
256
370
-1
100
AcDbLine
10
0
20
35
11
0
21
35
0
LINE
5
A4
100
AcDbEntity
8
Dessin
6
ByLayer
62
256
370
-1
100
AcDbLine
10
0
20
35
11
0
21
35
0
LINE
5
A5
100
AcDbEntity
8
Dessin
6
ByLayer
62
256
370
-1
100
AcDbLine
10
0
20
35
11
0
21
35
0
LINE
5
A6
100
AcDbEntity
8
Dessin
6
ByLayer
62
256
370
-1
100
AcDbLine
10
0
20
35
11
0
21
35
0
LINE
5
A7
100
AcDbEntity
8
Dessin
6
ByLayer
62
256
370
-1
100
AcDbLine
10
0
20
35
11
0
21
35
0
LINE
5
A8
100
AcDbEntity
8
Dessin
6
ByLayer
62
256
370
-1
100
AcDbLine
10
0
20
35
11
0
21
35
0
LINE
5
A9
100
AcDbEntity
8
Dessin
6
ByLayer
62
256
370
-1
100
AcDbLine
10
0
20
35
11
0
21
35
0
LINE
5
AA
100
AcDbEntity
8
Dessin
6
ByLayer
62
256
370
-1
100
AcDbLine
10
0
20
35
11
0
21
35
0
LINE
5
AB
100
AcDbEntity
8
Dessin
6
ByLayer
62
256
370
-1
100
AcDbLine
10
0
20
35
11
0
21
35
0
LINE
5
AC
100
AcDbEntity
8
Dessin
6
ByLayer
62
256
370
-1
100
AcDbLine
10
0
20
35
11
327
21
35
0
LINE
5
AD
100
AcDbEntity
8
Dessin
6
ByLayer
62
256
370
-1
100
AcDbLine
10
467
20
50
11
795
21
50
0
LINE
5
AE
100
AcDbEntity
8
Dessin
6
ByLayer
62
256
370
-1
100
AcDbLine
10
0
20
50
11
0
21
50
0
LINE
5
AF
100
AcDbEntity
8
Dessin
6
ByLayer
62
256
370
-1
100
AcDbLine
10
0
20
50
11
327
21
50
0
LINE
5
B0
100
AcDbEntity
8
Dessin
6
ByLayer
62
256
370
-1
100
AcDbLine
10
342
20
50
11
452
21
50
0
LINE
5
B1
100
AcDbEntity
8
Dessin
6
ByLayer
62
256
370
-1
100
AcDbLine
10
452
20
24
11
342
21
24
0
LINE
5
B2
100
AcDbEntity
8
Dessin
6
ByLayer
62
256
370
-1
100
AcDbLine
10
467
20
37
11
327
21
37
0
LINE
5
B3
100
AcDbEntity
8
Dessin
6
ByLayer
62
256
370
-1
100
AcDbLine
10
351
20
50
11
445
21
50
0
LINE
5
B4
100
AcDbEntity
8
Dessin
6
ByLayer
62
256
370
-1
100
AcDbLine
10
445
20
50
11
445
21
255
0
LINE
5
B5
100
AcDbEntity
8
Dessin
6
ByLayer
62
256
370
-1
100
AcDbLine
10
445
20
255
11
351
21
255
0
LINE
5
B6
100
AcDbEntity
8
Dessin
6
ByLayer
62
256
370
-1
100
AcDbLine
10
351
20
255
11
351
21
50
0
LINE
5
B7
100
AcDbEntity
8
Dessin
6
ByLayer
62
256
370
-1
100
AcDbLine
10
100
20
157
11
305
21
157
0
LINE
5
B8
100
AcDbEntity
8
Dessin
6
ByLayer
62
256
370
-1
100
AcDbLine
10
305
20
157
11
305
21
165
0
LINE
5
B9
100
AcDbEntity
8
Dessin
6
ByLayer
62
256
370
-1
100
AcDbLine
10
305
20
165
11
100
21
165
0
LINE
5
BA
100
AcDbEntity
8
Dessin
6
ByLayer
62
256
370
-1
100
AcDbLine
10
100
20
165
11
100
21
157
0
LINE
5
BB
100
AcDbEntity
8
Dessin
6
ByLayer
62
256
370
-1
100
AcDbLine
10
110
20
165
11
220
21
165
0
LINE
5
BC
100
AcDbEntity
8
Dessin
6
ByLayer
62
256
370
-1
100
AcDbLine
10
220
20
165
11
220
21
310
0
LINE
5
BD
100
AcDbEntity
8
Dessin
6
ByLayer
62
256
370
-1
100
AcDbLine
10
220
20
310
11
110
21
310
0
LINE
5
BE
100
AcDbEntity
8
Dessin
6
ByLayer
62
256
370
-1
100
AcDbLine
10
110
20
310
11
110
21
165
0
LINE
5
BF
100
AcDbEntity
8
Dessin
6
ByLayer
62
256
370
-1
100
AcDbLine
10
255
20
165
11
287
21
165
0
LINE
5
C0
100
AcDbEntity
8
Dessin
6
ByLayer
62
256
370
-1
100
AcDbLine
10
287
20
165
11
287
21
310
0
LINE
5
C1
100
AcDbEntity
8
Dessin
6
ByLayer
62
256
370
-1
100
AcDbLine
10
255
20
310
11
255
21
165
0
LINE
5
C2
100
AcDbEntity
8
Dessin
6
ByLayer
62
256
370
-1
100
AcDbLine
10
542
20
117
11
725
21
117
0
LINE
5
C3
100
AcDbEntity
8
Dessin
6
ByLayer
62
256
370
-1
100
AcDbLine
10
725
20
117
11
725
21
127
0
LINE
5
C4
100
AcDbEntity
8
Dessin
6
ByLayer
62
256
370
-1
100
AcDbLine
10
725
20
127
11
542
21
127
0
LINE
5
C5
100
AcDbEntity
8
Dessin
6
ByLayer
62
256
370
-1
100
AcDbLine
10
542
20
127
11
542
21
117
0
LINE
5
C6
100
AcDbEntity
8
Dessin
6
ByLayer
62
256
370
-1
100
AcDbLine
10
555
20
127
11
710
21
127
0
LINE
5
C7
100
AcDbEntity
8
Dessin
6
ByLayer
62
256
370
-1
100
AcDbLine
10
710
20
127
11
710
21
310
0
LINE
5
C8
100
AcDbEntity
8
Dessin
6
ByLayer
62
256
370
-1
100
AcDbLine
10
710
20
310
11
555
21
310
0
LINE
5
C9
100
AcDbEntity
8
Dessin
6
ByLayer
62
256
370
-1
100
AcDbLine
10
555
20
310
11
555
21
127
0
LINE
5
CA
100
AcDbEntity
8
Dessin
6
ByLayer
62
256
370
-1
100
AcDbLine
10
325
20
187
11
342
21
187
0
LINE
5
CB
100
AcDbEntity
8
Dessin
6
ByLayer
62
256
370
-1
100
AcDbLine
10
342
20
250
11
325
21
250
0
LINE
5
CC
100
AcDbEntity
8
Dessin
6
ByLayer
62
256
370
-1
100
AcDbLine
10
452
20
187
11
466
21
187
0
LINE
5
CD
100
AcDbEntity
8
Dessin
6
ByLayer
62
256
370
-1
100
AcDbLine
10
466
20
250
11
452
21
250
0
LINE
5
CE
100
AcDbEntity
8
Dessin
6
ByLayer
62
256
370
-1
100
AcDbLine
10
307
20
267
11
487
21
267
0
LINE
5
CF
100
AcDbEntity
8
Dessin
6
ByLayer
62
256
370
-1
100
AcDbLine
10
487
20
267
11
487
21
282
0
LINE
5
D0
100
AcDbEntity
8
Dessin
6
ByLayer
62
256
370
-1
100
AcDbLine
10
487
20
282
11
307
21
282
0
LINE
5
D1
100
AcDbEntity
8
Dessin
6
ByLayer
62
256
370
-1
100
AcDbLine
10
307
20
282
11
307
21
267
0
LINE
5
D2
100
AcDbEntity
8
Dessin
6
ByLayer
62
256
370
-1
100
AcDbLine
10
307
20
282
11
487
21
282
0
LINE
5
D3
100
AcDbEntity
8
Dessin
6
ByLayer
62
256
370
-1
100
AcDbLine
10
487
20
282
11
487
21
365
0
LINE
5
D4
100
AcDbEntity
8
Dessin
6
ByLayer
62
256
370
-1
100
AcDbLine
10
487
20
365
11
307
21
365
0
LINE
5
D5
100
AcDbEntity
8
Dessin
6
ByLayer
62
256
370
-1
100
AcDbLine
10
307
20
365
11
307
21
282
0
LINE
5
D6
100
AcDbEntity
8
Dessin
6
ByLayer
62
256
370
-1
100
AcDbLine
10
325
20
267
11
325
21
187
0
LINE
5
D7
100
AcDbEntity
8
Dessin
6
ByLayer
62
256
370
-1
100
AcDbLine
10
342
20
187
11
342
21
267
0
LINE
5
D8
100
AcDbEntity
8
Dessin
6
ByLayer
62
256
370
-1
100
AcDbLine
10
452
20
267
11
452
21
187
0
LINE
5
D9
100
AcDbEntity
8
Dessin
6
ByLayer
62
256
370
-1
100
AcDbLine
10
466
20
187
11
466
21
267
0
LINE
5
DA
100
AcDbEntity
8
Traits
6
ByLayer
62
256
370
-1
100
AcDbLine
10
-4.41e-14
20
-190
11
327
21
-190
0
LINE
5
DB
100
AcDbEntity
8
Dessin
6
ByLayer
62
256
370
-1
100
AcDbLine
10
710
20
290
11
795
21
290
0
LINE
5
DC
100
AcDbEntity
8
Dessin
6
ByLayer
62
256
370
-1
100
AcDbLine
10
487
20
290
11
555
21
290
0
LINE
5
DD
100
AcDbEntity
8
Dessin
6
ByLayer
62
256
370
-1
100
AcDbLine
10
287
20
290
11
307
21
290
0
LINE
5
DE
100
AcDbEntity
8
Dessin
6
ByLayer
62
256
370
-1
100
AcDbLine
10
220
20
290
11
255
21
290
0
LINE
5
DF
100
AcDbEntity
8
Dessin
6
ByLayer
62
256
370
-1
100
AcDbLine
10
1.47e-14
20
290
11
110
21
290
0
LINE
5
E0
100
AcDbEntity
8
Dessin
6
ByLayer
62
256
370
-1
100
AcDbLine
10
307
20
310
11
255
21
310
0
LINE
5
E1
100
AcDbEntity
8
Dessin
6
ByLayer
62
256
370
-1
100
AcDbLine
10
1.59e-14
20
310
11
307
21
310
0
LINE
5
E2
100
AcDbEntity
8
Dessin
6
ByLayer
62
256
370
-1
100
AcDbLine
10
487
20
310
11
795
21
310
0
LINE
5
E3
100
AcDbEntity
8
Dessin
6
ByLayer
62
256
370
-1
100
AcDbLine
10
10
20
343
11
20
21
343
0
LINE
5
E4
100
AcDbEntity
8
Dessin
6
ByLayer
62
256
370
-1
100
AcDbLine
10
20
20
343
11
20
21
380
0
LINE
5
E5
100
AcDbEntity
8
Dessin
6
ByLayer
62
256
370
-1
100
AcDbLine
10
20
20
380
11
10
21
380
0
LINE
5
E6
100
AcDbEntity
8
Dessin
6
ByLayer
62
256
370
-1
100
AcDbLine
10
10
20
380
11
10
21
343
0
LINE
5
E7
100
AcDbEntity
8
Dessin
6
ByLayer
62
256
370
-1
100
AcDbLine
10
197
20
525
11
207
21
525
0
LINE
5
E8
100
AcDbEntity
8
Dessin
6
ByLayer
62
256
370
-1
100
AcDbLine
10
207
20
525
11
207
21
565
0
LINE
5
E9
100
AcDbEntity
8
Dessin
6
ByLayer
62
256
370
-1
100
AcDbLine
10
207
20
565
11
202
21
565
0
LINE
5
EA
100
AcDbEntity
8
Dessin
6
ByLayer
62
256
370
-1
100
AcDbLine
10
197
20
560
11
197
21
525
0
LINE
5
EB
100
AcDbEntity
8
Dessin
6
ByLayer
62
256
370
-1
100
AcDbLine
10
202
20
565
11
197
21
560
0
LINE
5
EC
100
AcDbEntity
8
Dessin
6
ByLayer
62
256
370
-1
100
AcDbLine
10
587
20
525
11
597
21
525
0
LINE
5
ED
100
AcDbEntity
8
Dessin
6
ByLayer
62
256
370
-1
100
AcDbLine
10
587
20
566
11
587
21
525
0
LINE
5
EE
100
AcDbEntity
8
Dessin
6
ByLayer
62
256
370
-1
100
AcDbLine
10
592
20
566
11
587
21
566
0
LINE
5
EF
100
AcDbEntity
8
Dessin
6
ByLayer
62
256
370
-1
100
AcDbLine
10
597
20
525
11
597
21
561
0
LINE
5
F0
100
AcDbEntity
8
Dessin
6
ByLayer
62
256
370
-1
100
AcDbLine
10
592
20
566
11
597
21
561
0
LINE
5
F1
100
AcDbEntity
8
Dessin
6
ByLayer
62
256
370
-1
100
AcDbLine
10
390
20
725
11
400
21
725
0
LINE
5
F2
100
AcDbEntity
8
Dessin
6
ByLayer
62
256
370
-1
100
AcDbLine
10
400
20
725
11
400
21
745
0
LINE
5
F3
100
AcDbEntity
8
Dessin
6
ByLayer
62
256
370
-1
100
AcDbLine
10
400
20
745
11
390
21
745
0
LINE
5
F4
100
AcDbEntity
8
Dessin
6
ByLayer
62
256
370
-1
100
AcDbLine
10
390
20
745
11
390
21
725
0
LINE
5
F5
100
AcDbEntity
8
Dessin
6
ByLayer
62
256
370
-1
100
AcDbLine
10
780
20
343
11
790
21
343
0
LINE
5
F6
100
AcDbEntity
8
Dessin
6
ByLayer
62
256
370
-1
100
AcDbLine
10
780
20
380
11
780
21
343
0
LINE
5
F7
100
AcDbEntity
8
Dessin
6
ByLayer
62
256
370
-1
100
AcDbLine
10
785
20
380
11
780
21
380
0
LINE
5
F8
100
AcDbEntity
8
Dessin
6
ByLayer
62
256
370
-1
100
AcDbLine
10
790
20
343
11
790
21
375
0
LINE
5
F9
100
AcDbEntity
8
Dessin
6
ByLayer
62
256
370
-1
100
AcDbLine
10
785
20
380
11
790
21
375
0
LINE
5
FA
100
AcDbEntity
8
Traits
6
ByLayer
62
256
370
-1
100
AcDbLine
10
-57
20
835
11
-47
21
835
0
LINE
5
FB
100
AcDbEntity
8
Traits
6
ByLayer
62
256
370
-1
100
AcDbLine
10
-57
20
835
11
852
21
835
0
LINE
5
FC
100
AcDbEntity
8
Dessin
6
ByLayer
62
256
370
-1
100
AcDbLine
10
857
20
341.789671336
11
394.934808769
21
780.751603006
0
LINE
5
FD
100
AcDbEntity
8
Dessin
6
ByLayer
62
256
370
-1
100
AcDbLine
10
857
20
321.1
11
857
21
341.789671336
0
LINE
5
FE
100
AcDbEntity
8
Dessin
6
ByLayer
62
256
370
-1
100
AcDbLine
10
857
20
321.1
11
395
21
760
0
LINE
5
FF
100
AcDbEntity
8
Dessin
6
ByLayer
62
256
370
-1
100
AcDbLine
10
395
20
760
11
-62
21
320.35443038
0
LINE
5
100
100
AcDbEntity
8
Dessin
6
ByLayer
62
256
370
-1
100
AcDbLine
10
394.934808769
20
780.751603006
11
-62
21
341.168749
0
LINE
5
101
100
AcDbEntity
8
Dessin
6
ByLayer
62
256
370
-1
100
AcDbLine
10
-62
20
320.35443038
11
-62
21
341.168749
0
ENDSEC
0
SECTION
2
OBJECTS
0
DICTIONARY
5
C
330
0
100
AcDbDictionary
281
1
3
ACAD_GROUP
350
D
0
DICTIONARY
5
D
330
C
100
AcDbDictionary
281
1
0
ENDSEC
0
EOF
