0
SECTION
2
HEADER
9
$ANGBASE
50
0.0
9
$ANGDIR
70
0
0
ENDSEC
0
SECTION
2
TABLES
0
TABLE
2
LTYPE
70
1
0
LTYPE
2
CONTINUOUS
70
0
3
Solid line
72
65
73
0
40
0.0
0
ENDTAB
0
TABLE
2
LAYER
70
24
0
LAYER
2
BLACK
70
0
62
1
6
CONTINUOUS
0
LAYER
2
BLUE
70
0
62
2
6
CONTINUOUS
0
LAYER
2
GREEN
70
0
62
3
6
CONTINUOUS
0
LAYER
2
CYAN
70
0
62
4
6
CONTINUOUS
0
LAYER
2
RED
70
0
62
5
6
CONTINUOUS
0
LAYER
2
MAGENTA
70
0
62
6
6
CONTINUOUS
0
LAYER
2
BROWN
70
0
62
7
6
CONTINUOUS
0
LAYER
2
GRAY
70
0
62
8
6
CONTINUOUS
0
LAYER
2
DARKGRAY
70
0
62
9
6
CONTINUOUS
0
LAYER
2
LIGHTBLUE
70
0
62
10
6
CONTINUOUS
0
LAYER
2
LIGHTGREEN
70
0
62
11
6
CONTINUOUS
0
LAYER
2
LIGHTCYAN
70
0
62
12
6
CONTINUOUS
0
LAYER
2
LIGHTRED
70
0
62
13
6
CONTINUOUS
0
LAYER
2
LIGHTMAGENTA
70
0
62
14
6
CONTINUOUS
0
LAYER
2
YELLOW
70
0
62
15
6
CONTINUOUS
0
LAYER
2
WHITE
70
0
62
16
6
CONTINUOUS
0
LAYER
2
DARKDARKGRAY
70
0
62
17
6
CONTINUOUS
0
LAYER
2
DARKBLUE
70
0
62
18
6
CONTINUOUS
0
LAYER
2
DARKGREEN
70
0
62
19
6
CONTINUOUS
0
LAYER
2
DARKCYAN
70
0
62
20
6
CONTINUOUS
0
LAYER
2
DARKRED
70
0
62
21
6
CONTINUOUS
0
LAYER
2
DARKMAGENTA
70
0
62
22
6
CONTINUOUS
0
LAYER
2
DARKBROWN
70
0
62
23
6
CONTINUOUS
0
LAYER
2
LIGHTYELLOW
70
0
62
24
6
CONTINUOUS
0
ENDTAB
0
ENDSEC
0
SECTION
2
ENTITIES
0
LINE
8
BLACK
10
4000.0
20
78670.0
11
113000.0
21
78670.0
0
LINE
8
BLACK
10
113000.0
20
78670.0
11
113000.0
21
4000.0
0
LINE
8
BLACK
10
113000.0
20
4000.0
11
4000.0
21
4000.0
0
LINE
8
BLACK
10
4000.0
20
4000.0
11
4000.0
21
78670.0
0
LINE
8
BLACK
10
4700.0
20
77970.0
11
112300.0
21
77970.0
0
LINE
8
BLACK
10
112300.0
20
77970.0
11
112300.0
21
4700.0
0
LINE
8
BLACK
10
112300.0
20
4700.0
11
4700.0
21
4700.0
0
LINE
8
BLACK
10
4700.0
20
4700.0
11
4700.0
21
77970.0
0
LINE
8
BLACK
10
25800.0
20
78670.0
11
25800.0
21
77970.0
0
LINE
8
BLACK
10
15040.0
20
78120.0
11
14760.0
21
78120.0
0
LINE
8
BLACK
10
14900.0
20
78120.0
11
14900.0
21
78620.0
0
LINE
8
BLACK
10
14900.0
20
78620.0
11
14850.0
21
78550.0
0
LINE
8
BLACK
10
14850.0
20
78550.0
11
14800.0
21
78500.0
0
LINE
8
BLACK
10
14800.0
20
78500.0
11
14760.0
21
78470.0
0
LINE
8
BLACK
10
25800.0
20
4000.0
11
25800.0
21
4700.0
0
LINE
8
BLACK
10
15040.0
20
4150.0
11
14760.0
21
4150.0
0
LINE
8
BLACK
10
14900.0
20
4150.0
11
14900.0
21
4650.0
0
LINE
8
BLACK
10
14900.0
20
4650.0
11
14850.0
21
4580.0
0
LINE
8
BLACK
10
14850.0
20
4580.0
11
14800.0
21
4530.0
0
LINE
8
BLACK
10
14800.0
20
4530.0
11
14760.0
21
4500.0
0
LINE
8
BLACK
10
47600.0
20
78670.0
11
47600.0
21
77970.0
0
LINE
8
BLACK
10
36560.0
20
78570.0
11
36580.0
21
78590.0
0
LINE
8
BLACK
10
36580.0
20
78590.0
11
36630.0
21
78620.0
0
LINE
8
BLACK
10
36630.0
20
78620.0
11
36750.0
21
78620.0
0
LINE
8
BLACK
10
36750.0
20
78620.0
11
36790.0
21
78590.0
0
LINE
8
BLACK
10
36790.0
20
78590.0
11
36820.0
21
78570.0
0
LINE
8
BLACK
10
36820.0
20
78570.0
11
36840.0
21
78520.0
0
LINE
8
BLACK
10
36840.0
20
78520.0
11
36840.0
21
78470.0
0
LINE
8
BLACK
10
36840.0
20
78470.0
11
36820.0
21
78400.0
0
LINE
8
BLACK
10
36820.0
20
78400.0
11
36530.0
21
78120.0
0
LINE
8
BLACK
10
36530.0
20
78120.0
11
36840.0
21
78120.0
0
LINE
8
BLACK
10
47600.0
20
4000.0
11
47600.0
21
4700.0
0
LINE
8
BLACK
10
36560.0
20
4600.0
11
36580.0
21
4620.0
0
LINE
8
BLACK
10
36580.0
20
4620.0
11
36630.0
21
4650.0
0
LINE
8
BLACK
10
36630.0
20
4650.0
11
36750.0
21
4650.0
0
LINE
8
BLACK
10
36750.0
20
4650.0
11
36790.0
21
4620.0
0
LINE
8
BLACK
10
36790.0
20
4620.0
11
36820.0
21
4600.0
0
LINE
8
BLACK
10
36820.0
20
4600.0
11
36840.0
21
4550.0
0
LINE
8
BLACK
10
36840.0
20
4550.0
11
36840.0
21
4500.0
0
LINE
8
BLACK
10
36840.0
20
4500.0
11
36820.0
21
4430.0
0
LINE
8
BLACK
10
36820.0
20
4430.0
11
36530.0
21
4150.0
0
LINE
8
BLACK
10
36530.0
20
4150.0
11
36840.0
21
4150.0
0
LINE
8
BLACK
10
69400.0
20
78670.0
11
69400.0
21
77970.0
0
LINE
8
BLACK
10
58330.0
20
78620.0
11
58640.0
21
78620.0
0
LINE
8
BLACK
10
58640.0
20
78620.0
11
58470.0
21
78430.0
0
LINE
8
BLACK
10
58470.0
20
78430.0
11
58550.0
21
78430.0
0
LINE
8
BLACK
10
58550.0
20
78430.0
11
58590.0
21
78400.0
0
LINE
8
BLACK
10
58590.0
20
78400.0
11
58620.0
21
78380.0
0
LINE
8
BLACK
10
58620.0
20
78380.0
11
58640.0
21
78330.0
0
LINE
8
BLACK
10
58640.0
20
78330.0
11
58640.0
21
78210.0
0
LINE
8
BLACK
10
58640.0
20
78210.0
11
58620.0
21
78170.0
0
LINE
8
BLACK
10
58620.0
20
78170.0
11
58590.0
21
78140.0
0
LINE
8
BLACK
10
58590.0
20
78140.0
11
58550.0
21
78120.0
0
LINE
8
BLACK
10
58550.0
20
78120.0
11
58400.0
21
78120.0
0
LINE
8
BLACK
10
58400.0
20
78120.0
11
58360.0
21
78140.0
0
LINE
8
BLACK
10
58360.0
20
78140.0
11
58330.0
21
78170.0
0
LINE
8
BLACK
10
69400.0
20
4000.0
11
69400.0
21
4700.0
0
LINE
8
BLACK
10
58330.0
20
4650.0
11
58640.0
21
4650.0
0
LINE
8
BLACK
10
58640.0
20
4650.0
11
58470.0
21
4460.0
0
LINE
8
BLACK
10
58470.0
20
4460.0
11
58550.0
21
4460.0
0
LINE
8
BLACK
10
58550.0
20
4460.0
11
58590.0
21
4430.0
0
LINE
8
BLACK
10
58590.0
20
4430.0
11
58620.0
21
4410.0
0
LINE
8
BLACK
10
58620.0
20
4410.0
11
58640.0
21
4360.0
0
LINE
8
BLACK
10
58640.0
20
4360.0
11
58640.0
21
4240.0
0
LINE
8
BLACK
10
58640.0
20
4240.0
11
58620.0
21
4200.0
0
LINE
8
BLACK
10
58620.0
20
4200.0
11
58590.0
21
4170.0
0
LINE
8
BLACK
10
58590.0
20
4170.0
11
58550.0
21
4150.0
0
LINE
8
BLACK
10
58550.0
20
4150.0
11
58400.0
21
4150.0
0
LINE
8
BLACK
10
58400.0
20
4150.0
11
58360.0
21
4170.0
0
LINE
8
BLACK
10
58360.0
20
4170.0
11
58330.0
21
4200.0
0
LINE
8
BLACK
10
91200.0
20
78670.0
11
91200.0
21
77970.0
0
LINE
8
BLACK
10
80390.0
20
78450.0
11
80390.0
21
78120.0
0
LINE
8
BLACK
10
80270.0
20
78640.0
11
80160.0
21
78280.0
0
LINE
8
BLACK
10
80160.0
20
78280.0
11
80460.0
21
78280.0
0
LINE
8
BLACK
10
91200.0
20
4000.0
11
91200.0
21
4700.0
0
LINE
8
BLACK
10
80390.0
20
4480.0
11
80390.0
21
4150.0
0
LINE
8
BLACK
10
80270.0
20
4670.0
11
80160.0
21
4310.0
0
LINE
8
BLACK
10
80160.0
20
4310.0
11
80460.0
21
4310.0
0
LINE
8
BLACK
10
102220.0
20
78620.0
11
101980.0
21
78620.0
0
LINE
8
BLACK
10
101980.0
20
78620.0
11
101960.0
21
78380.0
0
LINE
8
BLACK
10
101960.0
20
78380.0
11
101980.0
21
78400.0
0
LINE
8
BLACK
10
101980.0
20
78400.0
11
102030.0
21
78430.0
0
LINE
8
BLACK
10
102030.0
20
78430.0
11
102150.0
21
78430.0
0
LINE
8
BLACK
10
102150.0
20
78430.0
11
102190.0
21
78400.0
0
LINE
8
BLACK
10
102190.0
20
78400.0
11
102220.0
21
78380.0
0
LINE
8
BLACK
10
102220.0
20
78380.0
11
102240.0
21
78330.0
0
LINE
8
BLACK
10
102240.0
20
78330.0
11
102240.0
21
78210.0
0
LINE
8
BLACK
10
102240.0
20
78210.0
11
102220.0
21
78170.0
0
LINE
8
BLACK
10
102220.0
20
78170.0
11
102190.0
21
78140.0
0
LINE
8
BLACK
10
102190.0
20
78140.0
11
102150.0
21
78120.0
0
LINE
8
BLACK
10
102150.0
20
78120.0
11
102030.0
21
78120.0
0
LINE
8
BLACK
10
102030.0
20
78120.0
11
101980.0
21
78140.0
0
LINE
8
BLACK
10
101980.0
20
78140.0
11
101960.0
21
78170.0
0
LINE
8
BLACK
10
102220.0
20
4650.0
11
101980.0
21
4650.0
0
LINE
8
BLACK
10
101980.0
20
4650.0
11
101960.0
21
4410.0
0
LINE
8
BLACK
10
101960.0
20
4410.0
11
101980.0
21
4430.0
0
LINE
8
BLACK
10
101980.0
20
4430.0
11
102030.0
21
4460.0
0
LINE
8
BLACK
10
102030.0
20
4460.0
11
102150.0
21
4460.0
0
LINE
8
BLACK
10
102150.0
20
4460.0
11
102190.0
21
4430.0
0
LINE
8
BLACK
10
102190.0
20
4430.0
11
102220.0
21
4410.0
0
LINE
8
BLACK
10
102220.0
20
4410.0
11
102240.0
21
4360.0
0
LINE
8
BLACK
10
102240.0
20
4360.0
11
102240.0
21
4240.0
0
LINE
8
BLACK
10
102240.0
20
4240.0
11
102220.0
21
4200.0
0
LINE
8
BLACK
10
102220.0
20
4200.0
11
102190.0
21
4170.0
0
LINE
8
BLACK
10
102190.0
20
4170.0
11
102150.0
21
4150.0
0
LINE
8
BLACK
10
102150.0
20
4150.0
11
102030.0
21
4150.0
0
LINE
8
BLACK
10
102030.0
20
4150.0
11
101980.0
21
4170.0
0
LINE
8
BLACK
10
101980.0
20
4170.0
11
101960.0
21
4200.0
0
LINE
8
BLACK
10
4000.0
20
53780.0
11
4700.0
21
53780.0
0
LINE
8
BLACK
10
4240.0
20
66160.0
11
4470.0
21
66160.0
0
LINE
8
BLACK
10
4190.0
20
66020.0
11
4350.0
21
66520.0
0
LINE
8
BLACK
10
4350.0
20
66520.0
11
4520.0
21
66020.0
0
LINE
8
BLACK
10
113000.0
20
53780.0
11
112300.0
21
53780.0
0
LINE
8
BLACK
10
112540.0
20
66160.0
11
112770.0
21
66160.0
0
LINE
8
BLACK
10
112490.0
20
66020.0
11
112650.0
21
66520.0
0
LINE
8
BLACK
10
112650.0
20
66520.0
11
112820.0
21
66020.0
0
LINE
8
BLACK
10
4000.0
20
28890.0
11
4700.0
21
28890.0
0
LINE
8
BLACK
10
4390.0
20
41390.0
11
4460.0
21
41370.0
0
LINE
8
BLACK
10
4460.0
20
41370.0
11
4480.0
21
41340.0
0
LINE
8
BLACK
10
4480.0
20
41340.0
11
4500.0
21
41290.0
0
LINE
8
BLACK
10
4500.0
20
41290.0
11
4500.0
21
41220.0
0
LINE
8
BLACK
10
4500.0
20
41220.0
11
4480.0
21
41180.0
0
LINE
8
BLACK
10
4480.0
20
41180.0
11
4460.0
21
41150.0
0
LINE
8
BLACK
10
4460.0
20
41150.0
11
4410.0
21
41130.0
0
LINE
8
BLACK
10
4410.0
20
41130.0
11
4220.0
21
41130.0
0
LINE
8
BLACK
10
4220.0
20
41130.0
11
4220.0
21
41630.0
0
LINE
8
BLACK
10
4220.0
20
41630.0
11
4390.0
21
41630.0
0
LINE
8
BLACK
10
4390.0
20
41630.0
11
4430.0
21
41600.0
0
LINE
8
BLACK
10
4430.0
20
41600.0
11
4460.0
21
41580.0
0
LINE
8
BLACK
10
4460.0
20
41580.0
11
4480.0
21
41530.0
0
LINE
8
BLACK
10
4480.0
20
41530.0
11
4480.0
21
41480.0
0
LINE
8
BLACK
10
4480.0
20
41480.0
11
4460.0
21
41440.0
0
LINE
8
BLACK
10
4460.0
20
41440.0
11
4430.0
21
41410.0
0
LINE
8
BLACK
10
4430.0
20
41410.0
11
4390.0
21
41390.0
0
LINE
8
BLACK
10
4390.0
20
41390.0
11
4220.0
21
41390.0
0
LINE
8
BLACK
10
113000.0
20
28890.0
11
112300.0
21
28890.0
0
LINE
8
BLACK
10
112690.0
20
41390.0
11
112760.0
21
41370.0
0
LINE
8
BLACK
10
112760.0
20
41370.0
11
112780.0
21
41340.0
0
LINE
8
BLACK
10
112780.0
20
41340.0
11
112800.0
21
41290.0
0
LINE
8
BLACK
10
112800.0
20
41290.0
11
112800.0
21
41220.0
0
LINE
8
BLACK
10
112800.0
20
41220.0
11
112780.0
21
41180.0
0
LINE
8
BLACK
10
112780.0
20
41180.0
11
112760.0
21
41150.0
0
LINE
8
BLACK
10
112760.0
20
41150.0
11
112710.0
21
41130.0
0
LINE
8
BLACK
10
112710.0
20
41130.0
11
112520.0
21
41130.0
0
LINE
8
BLACK
10
112520.0
20
41130.0
11
112520.0
21
41630.0
0
LINE
8
BLACK
10
112520.0
20
41630.0
11
112690.0
21
41630.0
0
LINE
8
BLACK
10
112690.0
20
41630.0
11
112730.0
21
41600.0
0
LINE
8
BLACK
10
112730.0
20
41600.0
11
112760.0
21
41580.0
0
LINE
8
BLACK
10
112760.0
20
41580.0
11
112780.0
21
41530.0
0
LINE
8
BLACK
10
112780.0
20
41530.0
11
112780.0
21
41480.0
0
LINE
8
BLACK
10
112780.0
20
41480.0
11
112760.0
21
41440.0
0
LINE
8
BLACK
10
112760.0
20
41440.0
11
112730.0
21
41410.0
0
LINE
8
BLACK
10
112730.0
20
41410.0
11
112690.0
21
41390.0
0
LINE
8
BLACK
10
112690.0
20
41390.0
11
112520.0
21
41390.0
0
LINE
8
BLACK
10
4500.0
20
16290.0
11
4480.0
21
16260.0
0
LINE
8
BLACK
10
4480.0
20
16260.0
11
4410.0
21
16240.0
0
LINE
8
BLACK
10
4410.0
20
16240.0
11
4360.0
21
16240.0
0
LINE
8
BLACK
10
4360.0
20
16240.0
11
4290.0
21
16260.0
0
LINE
8
BLACK
10
4290.0
20
16260.0
11
4240.0
21
16310.0
0
LINE
8
BLACK
10
4240.0
20
16310.0
11
4220.0
21
16360.0
0
LINE
8
BLACK
10
4220.0
20
16360.0
11
4200.0
21
16450.0
0
LINE
8
BLACK
10
4200.0
20
16450.0
11
4200.0
21
16520.0
0
LINE
8
BLACK
10
4200.0
20
16520.0
11
4220.0
21
16620.0
0
LINE
8
BLACK
10
4220.0
20
16620.0
11
4240.0
21
16670.0
0
LINE
8
BLACK
10
4240.0
20
16670.0
11
4290.0
21
16710.0
0
LINE
8
BLACK
10
4290.0
20
16710.0
11
4360.0
21
16740.0
0
LINE
8
BLACK
10
4360.0
20
16740.0
11
4410.0
21
16740.0
0
LINE
8
BLACK
10
4410.0
20
16740.0
11
4480.0
21
16710.0
0
LINE
8
BLACK
10
4480.0
20
16710.0
11
4500.0
21
16690.0
0
LINE
8
BLACK
10
112800.0
20
16290.0
11
112780.0
21
16260.0
0
LINE
8
BLACK
10
112780.0
20
16260.0
11
112710.0
21
16240.0
0
LINE
8
BLACK
10
112710.0
20
16240.0
11
112660.0
21
16240.0
0
LINE
8
BLACK
10
112660.0
20
16240.0
11
112590.0
21
16260.0
0
LINE
8
BLACK
10
112590.0
20
16260.0
11
112540.0
21
16310.0
0
LINE
8
BLACK
10
112540.0
20
16310.0
11
112520.0
21
16360.0
0
LINE
8
BLACK
10
112520.0
20
16360.0
11
112500.0
21
16450.0
0
LINE
8
BLACK
10
112500.0
20
16450.0
11
112500.0
21
16520.0
0
LINE
8
BLACK
10
112500.0
20
16520.0
11
112520.0
21
16620.0
0
LINE
8
BLACK
10
112520.0
20
16620.0
11
112540.0
21
16670.0
0
LINE
8
BLACK
10
112540.0
20
16670.0
11
112590.0
21
16710.0
0
LINE
8
BLACK
10
112590.0
20
16710.0
11
112660.0
21
16740.0
0
LINE
8
BLACK
10
112660.0
20
16740.0
11
112710.0
21
16740.0
0
LINE
8
BLACK
10
112710.0
20
16740.0
11
112780.0
21
16710.0
0
LINE
8
BLACK
10
112780.0
20
16710.0
11
112800.0
21
16690.0
0
LINE
8
BLACK
10
79440.0
20
6260.0
11
79440.0
21
6860.0
0
LINE
8
BLACK
10
79440.0
20
6860.0
11
79590.0
21
6860.0
0
LINE
8
BLACK
10
79590.0
20
6860.0
11
79670.0
21
6830.0
0
LINE
8
BLACK
10
79670.0
20
6830.0
11
79730.0
21
6770.0
0
LINE
8
BLACK
10
79730.0
20
6770.0
11
79760.0
21
6710.0
0
LINE
8
BLACK
10
79760.0
20
6710.0
11
79790.0
21
6600.0
0
LINE
8
BLACK
10
79790.0
20
6600.0
11
79790.0
21
6510.0
0
LINE
8
BLACK
10
79790.0
20
6510.0
11
79760.0
21
6400.0
0
LINE
8
BLACK
10
79760.0
20
6400.0
11
79730.0
21
6340.0
0
LINE
8
BLACK
10
79730.0
20
6340.0
11
79670.0
21
6290.0
0
LINE
8
BLACK
10
79670.0
20
6290.0
11
79590.0
21
6260.0
0
LINE
8
BLACK
10
79590.0
20
6260.0
11
79440.0
21
6260.0
0
LINE
8
BLACK
10
80300.0
20
6260.0
11
80300.0
21
6570.0
0
LINE
8
BLACK
10
80300.0
20
6570.0
11
80270.0
21
6630.0
0
LINE
8
BLACK
10
80270.0
20
6630.0
11
80210.0
21
6660.0
0
LINE
8
BLACK
10
80210.0
20
6660.0
11
80100.0
21
6660.0
0
LINE
8
BLACK
10
80100.0
20
6660.0
11
80040.0
21
6630.0
0
LINE
8
BLACK
10
80300.0
20
6290.0
11
80240.0
21
6260.0
0
LINE
8
BLACK
10
80240.0
20
6260.0
11
80100.0
21
6260.0
0
LINE
8
BLACK
10
80100.0
20
6260.0
11
80040.0
21
6290.0
0
LINE
8
BLACK
10
80040.0
20
6290.0
11
80010.0
21
6340.0
0
LINE
8
BLACK
10
80010.0
20
6340.0
11
80010.0
21
6400.0
0
LINE
8
BLACK
10
80010.0
20
6400.0
11
80040.0
21
6460.0
0
LINE
8
BLACK
10
80040.0
20
6460.0
11
80100.0
21
6490.0
0
LINE
8
BLACK
10
80100.0
20
6490.0
11
80240.0
21
6490.0
0
LINE
8
BLACK
10
80240.0
20
6490.0
11
80300.0
21
6510.0
0
LINE
8
BLACK
10
80500.0
20
6660.0
11
80730.0
21
6660.0
0
LINE
8
BLACK
10
80580.0
20
6860.0
11
80580.0
21
6340.0
0
LINE
8
BLACK
10
80580.0
20
6340.0
11
80610.0
21
6290.0
0
LINE
8
BLACK
10
80610.0
20
6290.0
11
80670.0
21
6260.0
0
LINE
8
BLACK
10
80670.0
20
6260.0
11
80730.0
21
6260.0
0
LINE
8
BLACK
10
81150.0
20
6290.0
11
81090.0
21
6260.0
0
LINE
8
BLACK
10
81090.0
20
6260.0
11
80980.0
21
6260.0
0
LINE
8
BLACK
10
80980.0
20
6260.0
11
80920.0
21
6290.0
0
LINE
8
BLACK
10
80920.0
20
6290.0
11
80890.0
21
6340.0
0
LINE
8
BLACK
10
80890.0
20
6340.0
11
80890.0
21
6570.0
0
LINE
8
BLACK
10
80890.0
20
6570.0
11
80920.0
21
6630.0
0
LINE
8
BLACK
10
80920.0
20
6630.0
11
80980.0
21
6660.0
0
LINE
8
BLACK
10
80980.0
20
6660.0
11
81090.0
21
6660.0
0
LINE
8
BLACK
10
81090.0
20
6660.0
11
81150.0
21
6630.0
0
LINE
8
BLACK
10
81150.0
20
6630.0
11
81180.0
21
6570.0
0
LINE
8
BLACK
10
81180.0
20
6570.0
11
81180.0
21
6510.0
0
LINE
8
BLACK
10
81180.0
20
6510.0
11
80890.0
21
6460.0
0
LINE
8
BLACK
10
81430.0
20
6310.0
11
81460.0
21
6290.0
0
LINE
8
BLACK
10
81460.0
20
6290.0
11
81430.0
21
6260.0
0
LINE
8
BLACK
10
81430.0
20
6260.0
11
81400.0
21
6290.0
0
LINE
8
BLACK
10
81400.0
20
6290.0
11
81430.0
21
6310.0
0
LINE
8
BLACK
10
81430.0
20
6310.0
11
81430.0
21
6260.0
0
LINE
8
BLACK
10
81430.0
20
6630.0
11
81460.0
21
6600.0
0
LINE
8
BLACK
10
81460.0
20
6600.0
11
81430.0
21
6570.0
0
LINE
8
BLACK
10
81430.0
20
6570.0
11
81400.0
21
6600.0
0
LINE
8
BLACK
10
81400.0
20
6600.0
11
81430.0
21
6630.0
0
LINE
8
BLACK
10
81430.0
20
6630.0
11
81430.0
21
6570.0
0
LINE
8
BLACK
10
82500.0
20
6260.0
11
82150.0
21
6260.0
0
LINE
8
BLACK
10
82330.0
20
6260.0
11
82330.0
21
6860.0
0
LINE
8
BLACK
10
82330.0
20
6860.0
11
82270.0
21
6770.0
0
LINE
8
BLACK
10
82270.0
20
6770.0
11
82210.0
21
6710.0
0
LINE
8
BLACK
10
82210.0
20
6710.0
11
82150.0
21
6690.0
0
LINE
8
BLACK
10
82870.0
20
6860.0
11
82920.0
21
6860.0
0
LINE
8
BLACK
10
82920.0
20
6860.0
11
82980.0
21
6830.0
0
LINE
8
BLACK
10
82980.0
20
6830.0
11
83010.0
21
6800.0
0
LINE
8
BLACK
10
83010.0
20
6800.0
11
83040.0
21
6740.0
0
LINE
8
BLACK
10
83040.0
20
6740.0
11
83070.0
21
6630.0
0
LINE
8
BLACK
10
83070.0
20
6630.0
11
83070.0
21
6490.0
0
LINE
8
BLACK
10
83070.0
20
6490.0
11
83040.0
21
6370.0
0
LINE
8
BLACK
10
83040.0
20
6370.0
11
83010.0
21
6310.0
0
LINE
8
BLACK
10
83010.0
20
6310.0
11
82980.0
21
6290.0
0
LINE
8
BLACK
10
82980.0
20
6290.0
11
82920.0
21
6260.0
0
LINE
8
BLACK
10
82920.0
20
6260.0
11
82870.0
21
6260.0
0
LINE
8
BLACK
10
82870.0
20
6260.0
11
82810.0
21
6290.0
0
LINE
8
BLACK
10
82810.0
20
6290.0
11
82780.0
21
6310.0
0
LINE
8
BLACK
10
82780.0
20
6310.0
11
82750.0
21
6370.0
0
LINE
8
BLACK
10
82750.0
20
6370.0
11
82720.0
21
6490.0
0
LINE
8
BLACK
10
82720.0
20
6490.0
11
82720.0
21
6630.0
0
LINE
8
BLACK
10
82720.0
20
6630.0
11
82750.0
21
6740.0
0
LINE
8
BLACK
10
82750.0
20
6740.0
11
82780.0
21
6800.0
0
LINE
8
BLACK
10
82780.0
20
6800.0
11
82810.0
21
6830.0
0
LINE
8
BLACK
10
82810.0
20
6830.0
11
82870.0
21
6860.0
0
LINE
8
BLACK
10
84040.0
20
6260.0
11
84040.0
21
6860.0
0
LINE
8
BLACK
10
84040.0
20
6290.0
11
83980.0
21
6260.0
0
LINE
8
BLACK
10
83980.0
20
6260.0
11
83870.0
21
6260.0
0
LINE
8
BLACK
10
83870.0
20
6260.0
11
83810.0
21
6290.0
0
LINE
8
BLACK
10
83810.0
20
6290.0
11
83780.0
21
6310.0
0
LINE
8
BLACK
10
83780.0
20
6310.0
11
83750.0
21
6370.0
0
LINE
8
BLACK
10
83750.0
20
6370.0
11
83750.0
21
6540.0
0
LINE
8
BLACK
10
83750.0
20
6540.0
11
83780.0
21
6600.0
0
LINE
8
BLACK
10
83780.0
20
6600.0
11
83810.0
21
6630.0
0
LINE
8
BLACK
10
83810.0
20
6630.0
11
83870.0
21
6660.0
0
LINE
8
BLACK
10
83870.0
20
6660.0
11
83980.0
21
6660.0
0
LINE
8
BLACK
10
83980.0
20
6660.0
11
84040.0
21
6630.0
0
LINE
8
BLACK
10
84550.0
20
6290.0
11
84490.0
21
6260.0
0
LINE
8
BLACK
10
84490.0
20
6260.0
11
84380.0
21
6260.0
0
LINE
8
BLACK
10
84380.0
20
6260.0
11
84320.0
21
6290.0
0
LINE
8
BLACK
10
84320.0
20
6290.0
11
84290.0
21
6340.0
0
LINE
8
BLACK
10
84290.0
20
6340.0
11
84290.0
21
6570.0
0
LINE
8
BLACK
10
84290.0
20
6570.0
11
84320.0
21
6630.0
0
LINE
8
BLACK
10
84320.0
20
6630.0
11
84380.0
21
6660.0
0
LINE
8
BLACK
10
84380.0
20
6660.0
11
84490.0
21
6660.0
0
LINE
8
BLACK
10
84490.0
20
6660.0
11
84550.0
21
6630.0
0
LINE
8
BLACK
10
84550.0
20
6630.0
11
84580.0
21
6570.0
0
LINE
8
BLACK
10
84580.0
20
6570.0
11
84580.0
21
6510.0
0
LINE
8
BLACK
10
84580.0
20
6510.0
11
84290.0
21
6460.0
0
LINE
8
BLACK
10
85090.0
20
6290.0
11
85030.0
21
6260.0
0
LINE
8
BLACK
10
85030.0
20
6260.0
11
84920.0
21
6260.0
0
LINE
8
BLACK
10
84920.0
20
6260.0
11
84860.0
21
6290.0
0
LINE
8
BLACK
10
84860.0
20
6290.0
11
84830.0
21
6310.0
0
LINE
8
BLACK
10
84830.0
20
6310.0
11
84800.0
21
6370.0
0
LINE
8
BLACK
10
84800.0
20
6370.0
11
84800.0
21
6540.0
0
LINE
8
BLACK
10
84800.0
20
6540.0
11
84830.0
21
6600.0
0
LINE
8
BLACK
10
84830.0
20
6600.0
11
84860.0
21
6630.0
0
LINE
8
BLACK
10
84860.0
20
6630.0
11
84920.0
21
6660.0
0
LINE
8
BLACK
10
84920.0
20
6660.0
11
85030.0
21
6660.0
0
LINE
8
BLACK
10
85030.0
20
6660.0
11
85090.0
21
6630.0
0
LINE
8
BLACK
10
85770.0
20
6800.0
11
85800.0
21
6830.0
0
LINE
8
BLACK
10
85800.0
20
6830.0
11
85860.0
21
6860.0
0
LINE
8
BLACK
10
85860.0
20
6860.0
11
86000.0
21
6860.0
0
LINE
8
BLACK
10
86000.0
20
6860.0
11
86060.0
21
6830.0
0
LINE
8
BLACK
10
86060.0
20
6830.0
11
86090.0
21
6800.0
0
LINE
8
BLACK
10
86090.0
20
6800.0
11
86120.0
21
6740.0
0
LINE
8
BLACK
10
86120.0
20
6740.0
11
86120.0
21
6690.0
0
LINE
8
BLACK
10
86120.0
20
6690.0
11
86090.0
21
6600.0
0
LINE
8
BLACK
10
86090.0
20
6600.0
11
85750.0
21
6260.0
0
LINE
8
BLACK
10
85750.0
20
6260.0
11
86120.0
21
6260.0
0
LINE
8
BLACK
10
86490.0
20
6860.0
11
86540.0
21
6860.0
0
LINE
8
BLACK
10
86540.0
20
6860.0
11
86600.0
21
6830.0
0
LINE
8
BLACK
10
86600.0
20
6830.0
11
86630.0
21
6800.0
0
LINE
8
BLACK
10
86630.0
20
6800.0
11
86660.0
21
6740.0
0
LINE
8
BLACK
10
86660.0
20
6740.0
11
86690.0
21
6630.0
0
LINE
8
BLACK
10
86690.0
20
6630.0
11
86690.0
21
6490.0
0
LINE
8
BLACK
10
86690.0
20
6490.0
11
86660.0
21
6370.0
0
LINE
8
BLACK
10
86660.0
20
6370.0
11
86630.0
21
6310.0
0
LINE
8
BLACK
10
86630.0
20
6310.0
11
86600.0
21
6290.0
0
LINE
8
BLACK
10
86600.0
20
6290.0
11
86540.0
21
6260.0
0
LINE
8
BLACK
10
86540.0
20
6260.0
11
86490.0
21
6260.0
0
LINE
8
BLACK
10
86490.0
20
6260.0
11
86430.0
21
6290.0
0
LINE
8
BLACK
10
86430.0
20
6290.0
11
86400.0
21
6310.0
0
LINE
8
BLACK
10
86400.0
20
6310.0
11
86370.0
21
6370.0
0
LINE
8
BLACK
10
86370.0
20
6370.0
11
86340.0
21
6490.0
0
LINE
8
BLACK
10
86340.0
20
6490.0
11
86340.0
21
6630.0
0
LINE
8
BLACK
10
86340.0
20
6630.0
11
86370.0
21
6740.0
0
LINE
8
BLACK
10
86370.0
20
6740.0
11
86400.0
21
6800.0
0
LINE
8
BLACK
10
86400.0
20
6800.0
11
86430.0
21
6830.0
0
LINE
8
BLACK
10
86430.0
20
6830.0
11
86490.0
21
6860.0
0
LINE
8
BLACK
10
87260.0
20
6260.0
11
86910.0
21
6260.0
0
LINE
8
BLACK
10
87090.0
20
6260.0
11
87090.0
21
6860.0
0
LINE
8
BLACK
10
87090.0
20
6860.0
11
87030.0
21
6770.0
0
LINE
8
BLACK
10
87030.0
20
6770.0
11
86970.0
21
6710.0
0
LINE
8
BLACK
10
86970.0
20
6710.0
11
86910.0
21
6690.0
0
LINE
8
BLACK
10
87770.0
20
6660.0
11
87770.0
21
6260.0
0
LINE
8
BLACK
10
87630.0
20
6890.0
11
87480.0
21
6460.0
0
LINE
8
BLACK
10
87480.0
20
6460.0
11
87860.0
21
6460.0
0
LINE
8
BLACK
10
71040.0
20
5060.0
11
71040.0
21
5660.0
0
LINE
8
BLACK
10
71390.0
20
5060.0
11
71130.0
21
5400.0
0
LINE
8
BLACK
10
71390.0
20
5660.0
11
71040.0
21
5310.0
0
LINE
8
BLACK
10
71640.0
20
5060.0
11
71640.0
21
5460.0
0
LINE
8
BLACK
10
71640.0
20
5660.0
11
71610.0
21
5630.0
0
LINE
8
BLACK
10
71610.0
20
5630.0
11
71640.0
21
5600.0
0
LINE
8
BLACK
10
71640.0
20
5600.0
11
71670.0
21
5630.0
0
LINE
8
BLACK
10
71670.0
20
5630.0
11
71640.0
21
5660.0
0
LINE
8
BLACK
10
71640.0
20
5660.0
11
71640.0
21
5600.0
0
LINE
8
BLACK
10
72280.0
20
5110.0
11
72250.0
21
5090.0
0
LINE
8
BLACK
10
72250.0
20
5090.0
11
72160.0
21
5060.0
0
LINE
8
BLACK
10
72160.0
20
5060.0
11
72100.0
21
5060.0
0
LINE
8
BLACK
10
72100.0
20
5060.0
11
72020.0
21
5090.0
0
LINE
8
BLACK
10
72020.0
20
5090.0
11
71960.0
21
5140.0
0
LINE
8
BLACK
10
71960.0
20
5140.0
11
71930.0
21
5200.0
0
LINE
8
BLACK
10
71930.0
20
5200.0
11
71900.0
21
5310.0
0
LINE
8
BLACK
10
71900.0
20
5310.0
11
71900.0
21
5400.0
0
LINE
8
BLACK
10
71900.0
20
5400.0
11
71930.0
21
5510.0
0
LINE
8
BLACK
10
71930.0
20
5510.0
11
71960.0
21
5570.0
0
LINE
8
BLACK
10
71960.0
20
5570.0
11
72020.0
21
5630.0
0
LINE
8
BLACK
10
72020.0
20
5630.0
11
72100.0
21
5660.0
0
LINE
8
BLACK
10
72100.0
20
5660.0
11
72160.0
21
5660.0
0
LINE
8
BLACK
10
72160.0
20
5660.0
11
72250.0
21
5630.0
0
LINE
8
BLACK
10
72250.0
20
5630.0
11
72280.0
21
5600.0
0
LINE
8
BLACK
10
72790.0
20
5060.0
11
72790.0
21
5370.0
0
LINE
8
BLACK
10
72790.0
20
5370.0
11
72760.0
21
5430.0
0
LINE
8
BLACK
10
72760.0
20
5430.0
11
72700.0
21
5460.0
0
LINE
8
BLACK
10
72700.0
20
5460.0
11
72590.0
21
5460.0
0
LINE
8
BLACK
10
72590.0
20
5460.0
11
72530.0
21
5430.0
0
LINE
8
BLACK
10
72790.0
20
5090.0
11
72730.0
21
5060.0
0
LINE
8
BLACK
10
72730.0
20
5060.0
11
72590.0
21
5060.0
0
LINE
8
BLACK
10
72590.0
20
5060.0
11
72530.0
21
5090.0
0
LINE
8
BLACK
10
72530.0
20
5090.0
11
72500.0
21
5140.0
0
LINE
8
BLACK
10
72500.0
20
5140.0
11
72500.0
21
5200.0
0
LINE
8
BLACK
10
72500.0
20
5200.0
11
72530.0
21
5260.0
0
LINE
8
BLACK
10
72530.0
20
5260.0
11
72590.0
21
5290.0
0
LINE
8
BLACK
10
72590.0
20
5290.0
11
72730.0
21
5290.0
0
LINE
8
BLACK
10
72730.0
20
5290.0
11
72790.0
21
5310.0
0
LINE
8
BLACK
10
73330.0
20
5060.0
11
73330.0
21
5660.0
0
LINE
8
BLACK
10
73330.0
20
5090.0
11
73270.0
21
5060.0
0
LINE
8
BLACK
10
73270.0
20
5060.0
11
73160.0
21
5060.0
0
LINE
8
BLACK
10
73160.0
20
5060.0
11
73100.0
21
5090.0
0
LINE
8
BLACK
10
73100.0
20
5090.0
11
73070.0
21
5110.0
0
LINE
8
BLACK
10
73070.0
20
5110.0
11
73040.0
21
5170.0
0
LINE
8
BLACK
10
73040.0
20
5170.0
11
73040.0
21
5340.0
0
LINE
8
BLACK
10
73040.0
20
5340.0
11
73070.0
21
5400.0
0
LINE
8
BLACK
10
73070.0
20
5400.0
11
73100.0
21
5430.0
0
LINE
8
BLACK
10
73100.0
20
5430.0
11
73160.0
21
5460.0
0
LINE
8
BLACK
10
73160.0
20
5460.0
11
73270.0
21
5460.0
0
LINE
8
BLACK
10
73270.0
20
5460.0
11
73330.0
21
5430.0
0
LINE
8
BLACK
10
74070.0
20
5370.0
11
74270.0
21
5370.0
0
LINE
8
BLACK
10
74360.0
20
5060.0
11
74070.0
21
5060.0
0
LINE
8
BLACK
10
74070.0
20
5060.0
11
74070.0
21
5660.0
0
LINE
8
BLACK
10
74070.0
20
5660.0
11
74360.0
21
5660.0
0
LINE
8
BLACK
10
74610.0
20
5110.0
11
74640.0
21
5090.0
0
LINE
8
BLACK
10
74640.0
20
5090.0
11
74610.0
21
5060.0
0
LINE
8
BLACK
10
74610.0
20
5060.0
11
74580.0
21
5090.0
0
LINE
8
BLACK
10
74580.0
20
5090.0
11
74610.0
21
5110.0
0
LINE
8
BLACK
10
74610.0
20
5110.0
11
74610.0
21
5060.0
0
LINE
8
BLACK
10
74900.0
20
5060.0
11
74900.0
21
5660.0
0
LINE
8
BLACK
10
74900.0
20
5660.0
11
75050.0
21
5660.0
0
LINE
8
BLACK
10
75050.0
20
5660.0
11
75130.0
21
5630.0
0
LINE
8
BLACK
10
75130.0
20
5630.0
11
75190.0
21
5570.0
0
LINE
8
BLACK
10
75190.0
20
5570.0
11
75220.0
21
5510.0
0
LINE
8
BLACK
10
75220.0
20
5510.0
11
75250.0
21
5400.0
0
LINE
8
BLACK
10
75250.0
20
5400.0
11
75250.0
21
5310.0
0
LINE
8
BLACK
10
75250.0
20
5310.0
11
75220.0
21
5200.0
0
LINE
8
BLACK
10
75220.0
20
5200.0
11
75190.0
21
5140.0
0
LINE
8
BLACK
10
75190.0
20
5140.0
11
75130.0
21
5090.0
0
LINE
8
BLACK
10
75130.0
20
5090.0
11
75050.0
21
5060.0
0
LINE
8
BLACK
10
75050.0
20
5060.0
11
74900.0
21
5060.0
0
LINE
8
BLACK
10
75500.0
20
5110.0
11
75530.0
21
5090.0
0
LINE
8
BLACK
10
75530.0
20
5090.0
11
75500.0
21
5060.0
0
LINE
8
BLACK
10
75500.0
20
5060.0
11
75470.0
21
5090.0
0
LINE
8
BLACK
10
75470.0
20
5090.0
11
75500.0
21
5110.0
0
LINE
8
BLACK
10
75500.0
20
5110.0
11
75500.0
21
5060.0
0
LINE
8
BLACK
10
75760.0
20
5230.0
11
76050.0
21
5230.0
0
LINE
8
BLACK
10
75710.0
20
5060.0
11
75910.0
21
5660.0
0
LINE
8
BLACK
10
75910.0
20
5660.0
11
76110.0
21
5060.0
0
LINE
8
BLACK
10
76300.0
20
5110.0
11
76330.0
21
5090.0
0
LINE
8
BLACK
10
76330.0
20
5090.0
11
76300.0
21
5060.0
0
LINE
8
BLACK
10
76300.0
20
5060.0
11
76270.0
21
5090.0
0
LINE
8
BLACK
10
76270.0
20
5090.0
11
76300.0
21
5110.0
0
LINE
8
BLACK
10
76300.0
20
5110.0
11
76300.0
21
5060.0
0
LINE
8
BLACK
10
104590.0
20
6260.0
11
104390.0
21
6540.0
0
LINE
8
BLACK
10
104240.0
20
6260.0
11
104240.0
21
6860.0
0
LINE
8
BLACK
10
104240.0
20
6860.0
11
104470.0
21
6860.0
0
LINE
8
BLACK
10
104470.0
20
6860.0
11
104530.0
21
6830.0
0
LINE
8
BLACK
10
104530.0
20
6830.0
11
104560.0
21
6800.0
0
LINE
8
BLACK
10
104560.0
20
6800.0
11
104590.0
21
6740.0
0
LINE
8
BLACK
10
104590.0
20
6740.0
11
104590.0
21
6660.0
0
LINE
8
BLACK
10
104590.0
20
6660.0
11
104560.0
21
6600.0
0
LINE
8
BLACK
10
104560.0
20
6600.0
11
104530.0
21
6570.0
0
LINE
8
BLACK
10
104530.0
20
6570.0
11
104470.0
21
6540.0
0
LINE
8
BLACK
10
104470.0
20
6540.0
11
104240.0
21
6540.0
0
LINE
8
BLACK
10
105070.0
20
6290.0
11
105010.0
21
6260.0
0
LINE
8
BLACK
10
105010.0
20
6260.0
11
104900.0
21
6260.0
0
LINE
8
BLACK
10
104900.0
20
6260.0
11
104840.0
21
6290.0
0
LINE
8
BLACK
10
104840.0
20
6290.0
11
104810.0
21
6340.0
0
LINE
8
BLACK
10
104810.0
20
6340.0
11
104810.0
21
6570.0
0
LINE
8
BLACK
10
104810.0
20
6570.0
11
104840.0
21
6630.0
0
LINE
8
BLACK
10
104840.0
20
6630.0
11
104900.0
21
6660.0
0
LINE
8
BLACK
10
104900.0
20
6660.0
11
105010.0
21
6660.0
0
LINE
8
BLACK
10
105010.0
20
6660.0
11
105070.0
21
6630.0
0
LINE
8
BLACK
10
105070.0
20
6630.0
11
105100.0
21
6570.0
0
LINE
8
BLACK
10
105100.0
20
6570.0
11
105100.0
21
6510.0
0
LINE
8
BLACK
10
105100.0
20
6510.0
11
104810.0
21
6460.0
0
LINE
8
BLACK
10
105300.0
20
6660.0
11
105440.0
21
6260.0
0
LINE
8
BLACK
10
105440.0
20
6260.0
11
105580.0
21
6660.0
0
LINE
8
BLACK
10
105810.0
20
6310.0
11
105840.0
21
6290.0
0
LINE
8
BLACK
10
105840.0
20
6290.0
11
105810.0
21
6260.0
0
LINE
8
BLACK
10
105810.0
20
6260.0
11
105780.0
21
6290.0
0
LINE
8
BLACK
10
105780.0
20
6290.0
11
105810.0
21
6310.0
0
LINE
8
BLACK
10
105810.0
20
6310.0
11
105810.0
21
6260.0
0
LINE
8
BLACK
10
105810.0
20
6630.0
11
105840.0
21
6600.0
0
LINE
8
BLACK
10
105840.0
20
6600.0
11
105810.0
21
6570.0
0
LINE
8
BLACK
10
105810.0
20
6570.0
11
105780.0
21
6600.0
0
LINE
8
BLACK
10
105780.0
20
6600.0
11
105810.0
21
6630.0
0
LINE
8
BLACK
10
105810.0
20
6630.0
11
105810.0
21
6570.0
0
LINE
8
BLACK
10
71010.0
20
6290.0
11
71100.0
21
6260.0
0
LINE
8
BLACK
10
71100.0
20
6260.0
11
71240.0
21
6260.0
0
LINE
8
BLACK
10
71240.0
20
6260.0
11
71300.0
21
6290.0
0
LINE
8
BLACK
10
71300.0
20
6290.0
11
71330.0
21
6310.0
0
LINE
8
BLACK
10
71330.0
20
6310.0
11
71360.0
21
6370.0
0
LINE
8
BLACK
10
71360.0
20
6370.0
11
71360.0
21
6430.0
0
LINE
8
BLACK
10
71360.0
20
6430.0
11
71330.0
21
6490.0
0
LINE
8
BLACK
10
71330.0
20
6490.0
11
71300.0
21
6510.0
0
LINE
8
BLACK
10
71300.0
20
6510.0
11
71240.0
21
6540.0
0
LINE
8
BLACK
10
71240.0
20
6540.0
11
71130.0
21
6570.0
0
LINE
8
BLACK
10
71130.0
20
6570.0
11
71070.0
21
6600.0
0
LINE
8
BLACK
10
71070.0
20
6600.0
11
71040.0
21
6630.0
0
LINE
8
BLACK
10
71040.0
20
6630.0
11
71010.0
21
6690.0
0
LINE
8
BLACK
10
71010.0
20
6690.0
11
71010.0
21
6740.0
0
LINE
8
BLACK
10
71010.0
20
6740.0
11
71040.0
21
6800.0
0
LINE
8
BLACK
10
71040.0
20
6800.0
11
71070.0
21
6830.0
0
LINE
8
BLACK
10
71070.0
20
6830.0
11
71130.0
21
6860.0
0
LINE
8
BLACK
10
71130.0
20
6860.0
11
71270.0
21
6860.0
0
LINE
8
BLACK
10
71270.0
20
6860.0
11
71360.0
21
6830.0
0
LINE
8
BLACK
10
71610.0
20
6260.0
11
71610.0
21
6660.0
0
LINE
8
BLACK
10
71610.0
20
6860.0
11
71580.0
21
6830.0
0
LINE
8
BLACK
10
71580.0
20
6830.0
11
71610.0
21
6800.0
0
LINE
8
BLACK
10
71610.0
20
6800.0
11
71640.0
21
6830.0
0
LINE
8
BLACK
10
71640.0
20
6830.0
11
71610.0
21
6860.0
0
LINE
8
BLACK
10
71610.0
20
6860.0
11
71610.0
21
6800.0
0
LINE
8
BLACK
10
71850.0
20
6660.0
11
72160.0
21
6660.0
0
LINE
8
BLACK
10
72160.0
20
6660.0
11
71850.0
21
6260.0
0
LINE
8
BLACK
10
71850.0
20
6260.0
11
72160.0
21
6260.0
0
LINE
8
BLACK
10
72620.0
20
6290.0
11
72560.0
21
6260.0
0
LINE
8
BLACK
10
72560.0
20
6260.0
11
72450.0
21
6260.0
0
LINE
8
BLACK
10
72450.0
20
6260.0
11
72390.0
21
6290.0
0
LINE
8
BLACK
10
72390.0
20
6290.0
11
72360.0
21
6340.0
0
LINE
8
BLACK
10
72360.0
20
6340.0
11
72360.0
21
6570.0
0
LINE
8
BLACK
10
72360.0
20
6570.0
11
72390.0
21
6630.0
0
LINE
8
BLACK
10
72390.0
20
6630.0
11
72450.0
21
6660.0
0
LINE
8
BLACK
10
72450.0
20
6660.0
11
72560.0
21
6660.0
0
LINE
8
BLACK
10
72560.0
20
6660.0
11
72620.0
21
6630.0
0
LINE
8
BLACK
10
72620.0
20
6630.0
11
72650.0
21
6570.0
0
LINE
8
BLACK
10
72650.0
20
6570.0
11
72650.0
21
6510.0
0
LINE
8
BLACK
10
72650.0
20
6510.0
11
72360.0
21
6460.0
0
LINE
8
BLACK
10
72900.0
20
6310.0
11
72930.0
21
6290.0
0
LINE
8
BLACK
10
72930.0
20
6290.0
11
72900.0
21
6260.0
0
LINE
8
BLACK
10
72900.0
20
6260.0
11
72870.0
21
6290.0
0
LINE
8
BLACK
10
72870.0
20
6290.0
11
72900.0
21
6310.0
0
LINE
8
BLACK
10
72900.0
20
6310.0
11
72900.0
21
6260.0
0
LINE
8
BLACK
10
72900.0
20
6630.0
11
72930.0
21
6600.0
0
LINE
8
BLACK
10
72930.0
20
6600.0
11
72900.0
21
6570.0
0
LINE
8
BLACK
10
72900.0
20
6570.0
11
72870.0
21
6600.0
0
LINE
8
BLACK
10
72870.0
20
6600.0
11
72900.0
21
6630.0
0
LINE
8
BLACK
10
72900.0
20
6630.0
11
72900.0
21
6570.0
0
LINE
8
BLACK
10
73620.0
20
6430.0
11
73910.0
21
6430.0
0
LINE
8
BLACK
10
73570.0
20
6260.0
11
73770.0
21
6860.0
0
LINE
8
BLACK
10
73770.0
20
6860.0
11
73970.0
21
6260.0
0
LINE
8
BLACK
10
74420.0
20
6660.0
11
74420.0
21
6260.0
0
LINE
8
BLACK
10
74280.0
20
6890.0
11
74130.0
21
6460.0
0
LINE
8
BLACK
10
74130.0
20
6460.0
11
74510.0
21
6460.0
0
LINE
8
BLACK
10
104240.0
20
5060.0
11
104240.0
21
5660.0
0
LINE
8
BLACK
10
104790.0
20
5060.0
11
104790.0
21
5660.0
0
LINE
8
BLACK
10
104790.0
20
5090.0
11
104730.0
21
5060.0
0
LINE
8
BLACK
10
104730.0
20
5060.0
11
104620.0
21
5060.0
0
LINE
8
BLACK
10
104620.0
20
5060.0
11
104560.0
21
5090.0
0
LINE
8
BLACK
10
104560.0
20
5090.0
11
104530.0
21
5110.0
0
LINE
8
BLACK
10
104530.0
20
5110.0
11
104500.0
21
5170.0
0
LINE
8
BLACK
10
104500.0
20
5170.0
11
104500.0
21
5340.0
0
LINE
8
BLACK
10
104500.0
20
5340.0
11
104530.0
21
5400.0
0
LINE
8
BLACK
10
104530.0
20
5400.0
11
104560.0
21
5430.0
0
LINE
8
BLACK
10
104560.0
20
5430.0
11
104620.0
21
5460.0
0
LINE
8
BLACK
10
104620.0
20
5460.0
11
104730.0
21
5460.0
0
LINE
8
BLACK
10
104730.0
20
5460.0
11
104790.0
21
5430.0
0
LINE
8
BLACK
10
105070.0
20
5110.0
11
105100.0
21
5090.0
0
LINE
8
BLACK
10
105100.0
20
5090.0
11
105070.0
21
5060.0
0
LINE
8
BLACK
10
105070.0
20
5060.0
11
105040.0
21
5090.0
0
LINE
8
BLACK
10
105040.0
20
5090.0
11
105070.0
21
5110.0
0
LINE
8
BLACK
10
105070.0
20
5110.0
11
105070.0
21
5060.0
0
LINE
8
BLACK
10
105070.0
20
5430.0
11
105100.0
21
5400.0
0
LINE
8
BLACK
10
105100.0
20
5400.0
11
105070.0
21
5370.0
0
LINE
8
BLACK
10
105070.0
20
5370.0
11
105040.0
21
5400.0
0
LINE
8
BLACK
10
105040.0
20
5400.0
11
105070.0
21
5430.0
0
LINE
8
BLACK
10
105070.0
20
5430.0
11
105070.0
21
5370.0
0
LINE
8
BLACK
10
106110.0
20
5660.0
11
105820.0
21
5660.0
0
LINE
8
BLACK
10
105820.0
20
5660.0
11
105790.0
21
5370.0
0
LINE
8
BLACK
10
105790.0
20
5370.0
11
105820.0
21
5400.0
0
LINE
8
BLACK
10
105820.0
20
5400.0
11
105880.0
21
5430.0
0
LINE
8
BLACK
10
105880.0
20
5430.0
11
106020.0
21
5430.0
0
LINE
8
BLACK
10
106020.0
20
5430.0
11
106080.0
21
5400.0
0
LINE
8
BLACK
10
106080.0
20
5400.0
11
106110.0
21
5370.0
0
LINE
8
BLACK
10
106110.0
20
5370.0
11
106140.0
21
5310.0
0
LINE
8
BLACK
10
106140.0
20
5310.0
11
106140.0
21
5170.0
0
LINE
8
BLACK
10
106140.0
20
5170.0
11
106110.0
21
5110.0
0
LINE
8
BLACK
10
106110.0
20
5110.0
11
106080.0
21
5090.0
0
LINE
8
BLACK
10
106080.0
20
5090.0
11
106020.0
21
5060.0
0
LINE
8
BLACK
10
106020.0
20
5060.0
11
105880.0
21
5060.0
0
LINE
8
BLACK
10
105880.0
20
5060.0
11
105820.0
21
5090.0
0
LINE
8
BLACK
10
105820.0
20
5090.0
11
105790.0
21
5110.0
0
LINE
8
BLACK
10
106820.0
20
5690.0
11
106310.0
21
4910.0
0
LINE
8
BLACK
10
107280.0
20
5660.0
11
107170.0
21
5660.0
0
LINE
8
BLACK
10
107170.0
20
5660.0
11
107110.0
21
5630.0
0
LINE
8
BLACK
10
107110.0
20
5630.0
11
107080.0
21
5600.0
0
LINE
8
BLACK
10
107080.0
20
5600.0
11
107020.0
21
5510.0
0
LINE
8
BLACK
10
107020.0
20
5510.0
11
106990.0
21
5400.0
0
LINE
8
BLACK
10
106990.0
20
5400.0
11
106990.0
21
5170.0
0
LINE
8
BLACK
10
106990.0
20
5170.0
11
107020.0
21
5110.0
0
LINE
8
BLACK
10
107020.0
20
5110.0
11
107050.0
21
5090.0
0
LINE
8
BLACK
10
107050.0
20
5090.0
11
107110.0
21
5060.0
0
LINE
8
BLACK
10
107110.0
20
5060.0
11
107220.0
21
5060.0
0
LINE
8
BLACK
10
107220.0
20
5060.0
11
107280.0
21
5090.0
0
LINE
8
BLACK
10
107280.0
20
5090.0
11
107310.0
21
5110.0
0
LINE
8
BLACK
10
107310.0
20
5110.0
11
107340.0
21
5170.0
0
LINE
8
BLACK
10
107340.0
20
5170.0
11
107340.0
21
5310.0
0
LINE
8
BLACK
10
107340.0
20
5310.0
11
107310.0
21
5370.0
0
LINE
8
BLACK
10
107310.0
20
5370.0
11
107280.0
21
5400.0
0
LINE
8
BLACK
10
107280.0
20
5400.0
11
107220.0
21
5430.0
0
LINE
8
BLACK
10
107220.0
20
5430.0
11
107110.0
21
5430.0
0
LINE
8
BLACK
10
107110.0
20
5430.0
11
107050.0
21
5400.0
0
LINE
8
BLACK
10
107050.0
20
5400.0
11
107020.0
21
5370.0
0
LINE
8
BLACK
10
107020.0
20
5370.0
11
106990.0
21
5310.0
0
LINE
8
BLACK
10
70960.0
20
8060.0
11
71300.0
21
8060.0
0
LINE
8
BLACK
10
71130.0
20
7460.0
11
71130.0
21
8060.0
0
LINE
8
BLACK
10
71500.0
20
7460.0
11
71500.0
21
7860.0
0
LINE
8
BLACK
10
71500.0
20
8060.0
11
71470.0
21
8030.0
0
LINE
8
BLACK
10
71470.0
20
8030.0
11
71500.0
21
8000.0
0
LINE
8
BLACK
10
71500.0
20
8000.0
11
71530.0
21
8030.0
0
LINE
8
BLACK
10
71530.0
20
8030.0
11
71500.0
21
8060.0
0
LINE
8
BLACK
10
71500.0
20
8060.0
11
71500.0
21
8000.0
0
LINE
8
BLACK
10
71710.0
20
7860.0
11
71940.0
21
7860.0
0
LINE
8
BLACK
10
71790.0
20
8060.0
11
71790.0
21
7540.0
0
LINE
8
BLACK
10
71790.0
20
7540.0
11
71820.0
21
7490.0
0
LINE
8
BLACK
10
71820.0
20
7490.0
11
71880.0
21
7460.0
0
LINE
8
BLACK
10
71880.0
20
7460.0
11
71940.0
21
7460.0
0
LINE
8
BLACK
10
72220.0
20
7460.0
11
72160.0
21
7490.0
0
LINE
8
BLACK
10
72160.0
20
7490.0
11
72130.0
21
7540.0
0
LINE
8
BLACK
10
72130.0
20
7540.0
11
72130.0
21
8060.0
0
LINE
8
BLACK
10
72670.0
20
7490.0
11
72610.0
21
7460.0
0
LINE
8
BLACK
10
72610.0
20
7460.0
11
72500.0
21
7460.0
0
LINE
8
BLACK
10
72500.0
20
7460.0
11
72440.0
21
7490.0
0
LINE
8
BLACK
10
72440.0
20
7490.0
11
72410.0
21
7540.0
0
LINE
8
BLACK
10
72410.0
20
7540.0
11
72410.0
21
7770.0
0
LINE
8
BLACK
10
72410.0
20
7770.0
11
72440.0
21
7830.0
0
LINE
8
BLACK
10
72440.0
20
7830.0
11
72500.0
21
7860.0
0
LINE
8
BLACK
10
72500.0
20
7860.0
11
72610.0
21
7860.0
0
LINE
8
BLACK
10
72610.0
20
7860.0
11
72670.0
21
7830.0
0
LINE
8
BLACK
10
72670.0
20
7830.0
11
72700.0
21
7770.0
0
LINE
8
BLACK
10
72700.0
20
7770.0
11
72700.0
21
7710.0
0
LINE
8
BLACK
10
72700.0
20
7710.0
11
72410.0
21
7660.0
0
LINE
8
BLACK
10
72950.0
20
7510.0
11
72980.0
21
7490.0
0
LINE
8
BLACK
10
72980.0
20
7490.0
11
72950.0
21
7460.0
0
LINE
8
BLACK
10
72950.0
20
7460.0
11
72920.0
21
7490.0
0
LINE
8
BLACK
10
72920.0
20
7490.0
11
72950.0
21
7510.0
0
LINE
8
BLACK
10
72950.0
20
7510.0
11
72950.0
21
7460.0
0
LINE
8
BLACK
10
72950.0
20
7830.0
11
72980.0
21
7800.0
0
LINE
8
BLACK
10
72980.0
20
7800.0
11
72950.0
21
7770.0
0
LINE
8
BLACK
10
72950.0
20
7770.0
11
72920.0
21
7800.0
0
LINE
8
BLACK
10
72920.0
20
7800.0
11
72950.0
21
7830.0
0
LINE
8
BLACK
10
72950.0
20
7830.0
11
72950.0
21
7770.0
0
LINE
8
BLACK
10
71240.0
20
10170.0
11
71040.0
21
10170.0
0
LINE
8
BLACK
10
71040.0
20
9860.0
11
71040.0
21
10460.0
0
LINE
8
BLACK
10
71040.0
20
10460.0
11
71330.0
21
10460.0
0
LINE
8
BLACK
10
71550.0
20
9860.0
11
71550.0
21
10260.0
0
LINE
8
BLACK
10
71550.0
20
10460.0
11
71520.0
21
10430.0
0
LINE
8
BLACK
10
71520.0
20
10430.0
11
71550.0
21
10400.0
0
LINE
8
BLACK
10
71550.0
20
10400.0
11
71580.0
21
10430.0
0
LINE
8
BLACK
10
71580.0
20
10430.0
11
71550.0
21
10460.0
0
LINE
8
BLACK
10
71550.0
20
10460.0
11
71550.0
21
10400.0
0
LINE
8
BLACK
10
71930.0
20
9860.0
11
71870.0
21
9890.0
0
LINE
8
BLACK
10
71870.0
20
9890.0
11
71840.0
21
9940.0
0
LINE
8
BLACK
10
71840.0
20
9940.0
11
71840.0
21
10460.0
0
LINE
8
BLACK
10
72380.0
20
9890.0
11
72320.0
21
9860.0
0
LINE
8
BLACK
10
72320.0
20
9860.0
11
72210.0
21
9860.0
0
LINE
8
BLACK
10
72210.0
20
9860.0
11
72150.0
21
9890.0
0
LINE
8
BLACK
10
72150.0
20
9890.0
11
72120.0
21
9940.0
0
LINE
8
BLACK
10
72120.0
20
9940.0
11
72120.0
21
10170.0
0
LINE
8
BLACK
10
72120.0
20
10170.0
11
72150.0
21
10230.0
0
LINE
8
BLACK
10
72150.0
20
10230.0
11
72210.0
21
10260.0
0
LINE
8
BLACK
10
72210.0
20
10260.0
11
72320.0
21
10260.0
0
LINE
8
BLACK
10
72320.0
20
10260.0
11
72380.0
21
10230.0
0
LINE
8
BLACK
10
72380.0
20
10230.0
11
72410.0
21
10170.0
0
LINE
8
BLACK
10
72410.0
20
10170.0
11
72410.0
21
10110.0
0
LINE
8
BLACK
10
72410.0
20
10110.0
11
72120.0
21
10060.0
0
LINE
8
BLACK
10
72660.0
20
9910.0
11
72690.0
21
9890.0
0
LINE
8
BLACK
10
72690.0
20
9890.0
11
72660.0
21
9860.0
0
LINE
8
BLACK
10
72660.0
20
9860.0
11
72630.0
21
9890.0
0
LINE
8
BLACK
10
72630.0
20
9890.0
11
72660.0
21
9910.0
0
LINE
8
BLACK
10
72660.0
20
9910.0
11
72660.0
21
9860.0
0
LINE
8
BLACK
10
72660.0
20
10230.0
11
72690.0
21
10200.0
0
LINE
8
BLACK
10
72690.0
20
10200.0
11
72660.0
21
10170.0
0
LINE
8
BLACK
10
72660.0
20
10170.0
11
72630.0
21
10200.0
0
LINE
8
BLACK
10
72630.0
20
10200.0
11
72660.0
21
10230.0
0
LINE
8
BLACK
10
72660.0
20
10230.0
11
72660.0
21
10170.0
0
LINE
8
BLACK
10
73410.0
20
9860.0
11
73410.0
21
10460.0
0
LINE
8
BLACK
10
73410.0
20
10460.0
11
73640.0
21
10460.0
0
LINE
8
BLACK
10
73640.0
20
10460.0
11
73700.0
21
10430.0
0
LINE
8
BLACK
10
73700.0
20
10430.0
11
73730.0
21
10400.0
0
LINE
8
BLACK
10
73730.0
20
10400.0
11
73760.0
21
10340.0
0
LINE
8
BLACK
10
73760.0
20
10340.0
11
73760.0
21
10260.0
0
LINE
8
BLACK
10
73760.0
20
10260.0
11
73730.0
21
10200.0
0
LINE
8
BLACK
10
73730.0
20
10200.0
11
73700.0
21
10170.0
0
LINE
8
BLACK
10
73700.0
20
10170.0
11
73640.0
21
10140.0
0
LINE
8
BLACK
10
73640.0
20
10140.0
11
73410.0
21
10140.0
0
LINE
8
BLACK
10
74130.0
20
10460.0
11
74240.0
21
10460.0
0
LINE
8
BLACK
10
74240.0
20
10460.0
11
74300.0
21
10430.0
0
LINE
8
BLACK
10
74300.0
20
10430.0
11
74360.0
21
10370.0
0
LINE
8
BLACK
10
74360.0
20
10370.0
11
74380.0
21
10260.0
0
LINE
8
BLACK
10
74380.0
20
10260.0
11
74380.0
21
10060.0
0
LINE
8
BLACK
10
74380.0
20
10060.0
11
74360.0
21
9940.0
0
LINE
8
BLACK
10
74360.0
20
9940.0
11
74300.0
21
9890.0
0
LINE
8
BLACK
10
74300.0
20
9890.0
11
74240.0
21
9860.0
0
LINE
8
BLACK
10
74240.0
20
9860.0
11
74130.0
21
9860.0
0
LINE
8
BLACK
10
74130.0
20
9860.0
11
74070.0
21
9890.0
0
LINE
8
BLACK
10
74070.0
20
9890.0
11
74010.0
21
9940.0
0
LINE
8
BLACK
10
74010.0
20
9940.0
11
73980.0
21
10060.0
0
LINE
8
BLACK
10
73980.0
20
10060.0
11
73980.0
21
10260.0
0
LINE
8
BLACK
10
73980.0
20
10260.0
11
74010.0
21
10370.0
0
LINE
8
BLACK
10
74010.0
20
10370.0
11
74070.0
21
10430.0
0
LINE
8
BLACK
10
74070.0
20
10430.0
11
74130.0
21
10460.0
0
LINE
8
BLACK
10
74590.0
20
10460.0
11
74730.0
21
9860.0
0
LINE
8
BLACK
10
74730.0
20
9860.0
11
74840.0
21
10290.0
0
LINE
8
BLACK
10
74840.0
20
10290.0
11
74960.0
21
9860.0
0
LINE
8
BLACK
10
74960.0
20
9860.0
11
75100.0
21
10460.0
0
LINE
8
BLACK
10
75330.0
20
10170.0
11
75530.0
21
10170.0
0
LINE
8
BLACK
10
75620.0
20
9860.0
11
75330.0
21
9860.0
0
LINE
8
BLACK
10
75330.0
20
9860.0
11
75330.0
21
10460.0
0
LINE
8
BLACK
10
75330.0
20
10460.0
11
75620.0
21
10460.0
0
LINE
8
BLACK
10
76220.0
20
9860.0
11
76020.0
21
10140.0
0
LINE
8
BLACK
10
75870.0
20
9860.0
11
75870.0
21
10460.0
0
LINE
8
BLACK
10
75870.0
20
10460.0
11
76100.0
21
10460.0
0
LINE
8
BLACK
10
76100.0
20
10460.0
11
76160.0
21
10430.0
0
LINE
8
BLACK
10
76160.0
20
10430.0
11
76190.0
21
10400.0
0
LINE
8
BLACK
10
76190.0
20
10400.0
11
76220.0
21
10340.0
0
LINE
8
BLACK
10
76220.0
20
10340.0
11
76220.0
21
10260.0
0
LINE
8
BLACK
10
76220.0
20
10260.0
11
76190.0
21
10200.0
0
LINE
8
BLACK
10
76190.0
20
10200.0
11
76160.0
21
10170.0
0
LINE
8
BLACK
10
76160.0
20
10170.0
11
76100.0
21
10140.0
0
LINE
8
BLACK
10
76100.0
20
10140.0
11
75870.0
21
10140.0
0
LINE
8
BLACK
10
76470.0
20
9910.0
11
76500.0
21
9890.0
0
LINE
8
BLACK
10
76500.0
20
9890.0
11
76470.0
21
9860.0
0
LINE
8
BLACK
10
76470.0
20
9860.0
11
76440.0
21
9890.0
0
LINE
8
BLACK
10
76440.0
20
9890.0
11
76470.0
21
9910.0
0
LINE
8
BLACK
10
76470.0
20
9910.0
11
76470.0
21
9860.0
0
LINE
8
BLACK
10
76730.0
20
9890.0
11
76790.0
21
9860.0
0
LINE
8
BLACK
10
76790.0
20
9860.0
11
76910.0
21
9860.0
0
LINE
8
BLACK
10
76910.0
20
9860.0
11
76960.0
21
9890.0
0
LINE
8
BLACK
10
76960.0
20
9890.0
11
76990.0
21
9940.0
0
LINE
8
BLACK
10
76990.0
20
9940.0
11
76990.0
21
9970.0
0
LINE
8
BLACK
10
76990.0
20
9970.0
11
76960.0
21
10030.0
0
LINE
8
BLACK
10
76960.0
20
10030.0
11
76910.0
21
10060.0
0
LINE
8
BLACK
10
76910.0
20
10060.0
11
76820.0
21
10060.0
0
LINE
8
BLACK
10
76820.0
20
10060.0
11
76760.0
21
10090.0
0
LINE
8
BLACK
10
76760.0
20
10090.0
11
76730.0
21
10140.0
0
LINE
8
BLACK
10
76730.0
20
10140.0
11
76730.0
21
10170.0
0
LINE
8
BLACK
10
76730.0
20
10170.0
11
76760.0
21
10230.0
0
LINE
8
BLACK
10
76760.0
20
10230.0
11
76820.0
21
10260.0
0
LINE
8
BLACK
10
76820.0
20
10260.0
11
76910.0
21
10260.0
0
LINE
8
BLACK
10
76910.0
20
10260.0
11
76960.0
21
10230.0
0
LINE
8
BLACK
10
77510.0
20
9890.0
11
77450.0
21
9860.0
0
LINE
8
BLACK
10
77450.0
20
9860.0
11
77340.0
21
9860.0
0
LINE
8
BLACK
10
77340.0
20
9860.0
11
77280.0
21
9890.0
0
LINE
8
BLACK
10
77280.0
20
9890.0
11
77250.0
21
9910.0
0
LINE
8
BLACK
10
77250.0
20
9910.0
11
77220.0
21
9970.0
0
LINE
8
BLACK
10
77220.0
20
9970.0
11
77220.0
21
10140.0
0
LINE
8
BLACK
10
77220.0
20
10140.0
11
77250.0
21
10200.0
0
LINE
8
BLACK
10
77250.0
20
10200.0
11
77280.0
21
10230.0
0
LINE
8
BLACK
10
77280.0
20
10230.0
11
77340.0
21
10260.0
0
LINE
8
BLACK
10
77340.0
20
10260.0
11
77450.0
21
10260.0
0
LINE
8
BLACK
10
77450.0
20
10260.0
11
77510.0
21
10230.0
0
LINE
8
BLACK
10
77760.0
20
9860.0
11
77760.0
21
10460.0
0
LINE
8
BLACK
10
78020.0
20
9860.0
11
78020.0
21
10170.0
0
LINE
8
BLACK
10
78020.0
20
10170.0
11
77990.0
21
10230.0
0
LINE
8
BLACK
10
77990.0
20
10230.0
11
77930.0
21
10260.0
0
LINE
8
BLACK
10
77930.0
20
10260.0
11
77850.0
21
10260.0
0
LINE
8
BLACK
10
77850.0
20
10260.0
11
77790.0
21
10230.0
0
LINE
8
BLACK
10
77790.0
20
10230.0
11
77760.0
21
10200.0
0
LINE
8
BLACK
10
71010.0
20
8690.0
11
71100.0
21
8660.0
0
LINE
8
BLACK
10
71100.0
20
8660.0
11
71240.0
21
8660.0
0
LINE
8
BLACK
10
71240.0
20
8660.0
11
71300.0
21
8690.0
0
LINE
8
BLACK
10
71300.0
20
8690.0
11
71330.0
21
8710.0
0
LINE
8
BLACK
10
71330.0
20
8710.0
11
71360.0
21
8770.0
0
LINE
8
BLACK
10
71360.0
20
8770.0
11
71360.0
21
8830.0
0
LINE
8
BLACK
10
71360.0
20
8830.0
11
71330.0
21
8890.0
0
LINE
8
BLACK
10
71330.0
20
8890.0
11
71300.0
21
8910.0
0
LINE
8
BLACK
10
71300.0
20
8910.0
11
71240.0
21
8940.0
0
LINE
8
BLACK
10
71240.0
20
8940.0
11
71130.0
21
8970.0
0
LINE
8
BLACK
10
71130.0
20
8970.0
11
71070.0
21
9000.0
0
LINE
8
BLACK
10
71070.0
20
9000.0
11
71040.0
21
9030.0
0
LINE
8
BLACK
10
71040.0
20
9030.0
11
71010.0
21
9090.0
0
LINE
8
BLACK
10
71010.0
20
9090.0
11
71010.0
21
9140.0
0
LINE
8
BLACK
10
71010.0
20
9140.0
11
71040.0
21
9200.0
0
LINE
8
BLACK
10
71040.0
20
9200.0
11
71070.0
21
9230.0
0
LINE
8
BLACK
10
71070.0
20
9230.0
11
71130.0
21
9260.0
0
LINE
8
BLACK
10
71130.0
20
9260.0
11
71270.0
21
9260.0
0
LINE
8
BLACK
10
71270.0
20
9260.0
11
71360.0
21
9230.0
0
LINE
8
BLACK
10
71610.0
20
8660.0
11
71610.0
21
9260.0
0
LINE
8
BLACK
10
71870.0
20
8660.0
11
71870.0
21
8970.0
0
LINE
8
BLACK
10
71870.0
20
8970.0
11
71840.0
21
9030.0
0
LINE
8
BLACK
10
71840.0
20
9030.0
11
71780.0
21
9060.0
0
LINE
8
BLACK
10
71780.0
20
9060.0
11
71700.0
21
9060.0
0
LINE
8
BLACK
10
71700.0
20
9060.0
11
71640.0
21
9030.0
0
LINE
8
BLACK
10
71640.0
20
9030.0
11
71610.0
21
9000.0
0
LINE
8
BLACK
10
72380.0
20
8690.0
11
72320.0
21
8660.0
0
LINE
8
BLACK
10
72320.0
20
8660.0
11
72210.0
21
8660.0
0
LINE
8
BLACK
10
72210.0
20
8660.0
11
72150.0
21
8690.0
0
LINE
8
BLACK
10
72150.0
20
8690.0
11
72120.0
21
8740.0
0
LINE
8
BLACK
10
72120.0
20
8740.0
11
72120.0
21
8970.0
0
LINE
8
BLACK
10
72120.0
20
8970.0
11
72150.0
21
9030.0
0
LINE
8
BLACK
10
72150.0
20
9030.0
11
72210.0
21
9060.0
0
LINE
8
BLACK
10
72210.0
20
9060.0
11
72320.0
21
9060.0
0
LINE
8
BLACK
10
72320.0
20
9060.0
11
72380.0
21
9030.0
0
LINE
8
BLACK
10
72380.0
20
9030.0
11
72410.0
21
8970.0
0
LINE
8
BLACK
10
72410.0
20
8970.0
11
72410.0
21
8910.0
0
LINE
8
BLACK
10
72410.0
20
8910.0
11
72120.0
21
8860.0
0
LINE
8
BLACK
10
72890.0
20
8690.0
11
72830.0
21
8660.0
0
LINE
8
BLACK
10
72830.0
20
8660.0
11
72720.0
21
8660.0
0
LINE
8
BLACK
10
72720.0
20
8660.0
11
72660.0
21
8690.0
0
LINE
8
BLACK
10
72660.0
20
8690.0
11
72630.0
21
8740.0
0
LINE
8
BLACK
10
72630.0
20
8740.0
11
72630.0
21
8970.0
0
LINE
8
BLACK
10
72630.0
20
8970.0
11
72660.0
21
9030.0
0
LINE
8
BLACK
10
72660.0
20
9030.0
11
72720.0
21
9060.0
0
LINE
8
BLACK
10
72720.0
20
9060.0
11
72830.0
21
9060.0
0
LINE
8
BLACK
10
72830.0
20
9060.0
11
72890.0
21
9030.0
0
LINE
8
BLACK
10
72890.0
20
9030.0
11
72920.0
21
8970.0
0
LINE
8
BLACK
10
72920.0
20
8970.0
11
72920.0
21
8910.0
0
LINE
8
BLACK
10
72920.0
20
8910.0
11
72630.0
21
8860.0
0
LINE
8
BLACK
10
73090.0
20
9060.0
11
73320.0
21
9060.0
0
LINE
8
BLACK
10
73170.0
20
9260.0
11
73170.0
21
8740.0
0
LINE
8
BLACK
10
73170.0
20
8740.0
11
73200.0
21
8690.0
0
LINE
8
BLACK
10
73200.0
20
8690.0
11
73260.0
21
8660.0
0
LINE
8
BLACK
10
73260.0
20
8660.0
11
73320.0
21
8660.0
0
LINE
8
BLACK
10
73510.0
20
8710.0
11
73540.0
21
8690.0
0
LINE
8
BLACK
10
73540.0
20
8690.0
11
73510.0
21
8660.0
0
LINE
8
BLACK
10
73510.0
20
8660.0
11
73480.0
21
8690.0
0
LINE
8
BLACK
10
73480.0
20
8690.0
11
73510.0
21
8710.0
0
LINE
8
BLACK
10
73510.0
20
8710.0
11
73510.0
21
8660.0
0
LINE
8
BLACK
10
73510.0
20
9030.0
11
73540.0
21
9000.0
0
LINE
8
BLACK
10
73540.0
20
9000.0
11
73510.0
21
8970.0
0
LINE
8
BLACK
10
73510.0
20
8970.0
11
73480.0
21
9000.0
0
LINE
8
BLACK
10
73480.0
20
9000.0
11
73510.0
21
9030.0
0
LINE
8
BLACK
10
73510.0
20
9030.0
11
73510.0
21
8970.0
0
LINE
8
BLACK
10
74690.0
20
9290.0
11
74180.0
21
8510.0
0
LINE
8
BLACK
10
75180.0
20
9260.0
11
74890.0
21
9260.0
0
LINE
8
BLACK
10
74890.0
20
9260.0
11
74860.0
21
8970.0
0
LINE
8
BLACK
10
74860.0
20
8970.0
11
74890.0
21
9000.0
0
LINE
8
BLACK
10
74890.0
20
9000.0
11
74950.0
21
9030.0
0
LINE
8
BLACK
10
74950.0
20
9030.0
11
75090.0
21
9030.0
0
LINE
8
BLACK
10
75090.0
20
9030.0
11
75150.0
21
9000.0
0
LINE
8
BLACK
10
75150.0
20
9000.0
11
75180.0
21
8970.0
0
LINE
8
BLACK
10
75180.0
20
8970.0
11
75210.0
21
8910.0
0
LINE
8
BLACK
10
75210.0
20
8910.0
11
75210.0
21
8770.0
0
LINE
8
BLACK
10
75210.0
20
8770.0
11
75180.0
21
8710.0
0
LINE
8
BLACK
10
75180.0
20
8710.0
11
75150.0
21
8690.0
0
LINE
8
BLACK
10
75150.0
20
8690.0
11
75090.0
21
8660.0
0
LINE
8
BLACK
10
75090.0
20
8660.0
11
74950.0
21
8660.0
0
LINE
8
BLACK
10
74950.0
20
8660.0
11
74890.0
21
8690.0
0
LINE
8
BLACK
10
74890.0
20
8690.0
11
74860.0
21
8710.0
0
LINE
8
BLACK
10
75460.0
20
8890.0
11
75920.0
21
8890.0
0
LINE
8
BLACK
10
76200.0
20
8660.0
11
76200.0
21
9260.0
0
LINE
8
BLACK
10
76200.0
20
9260.0
11
76430.0
21
9260.0
0
LINE
8
BLACK
10
76430.0
20
9260.0
11
76490.0
21
9230.0
0
LINE
8
BLACK
10
76490.0
20
9230.0
11
76520.0
21
9200.0
0
LINE
8
BLACK
10
76520.0
20
9200.0
11
76550.0
21
9140.0
0
LINE
8
BLACK
10
76550.0
20
9140.0
11
76550.0
21
9060.0
0
LINE
8
BLACK
10
76550.0
20
9060.0
11
76520.0
21
9000.0
0
LINE
8
BLACK
10
76520.0
20
9000.0
11
76490.0
21
8970.0
0
LINE
8
BLACK
10
76490.0
20
8970.0
11
76430.0
21
8940.0
0
LINE
8
BLACK
10
76430.0
20
8940.0
11
76200.0
21
8940.0
0
LINE
8
BLACK
10
76920.0
20
9260.0
11
77030.0
21
9260.0
0
LINE
8
BLACK
10
77030.0
20
9260.0
11
77090.0
21
9230.0
0
LINE
8
BLACK
10
77090.0
20
9230.0
11
77150.0
21
9170.0
0
LINE
8
BLACK
10
77150.0
20
9170.0
11
77170.0
21
9060.0
0
LINE
8
BLACK
10
77170.0
20
9060.0
11
77170.0
21
8860.0
0
LINE
8
BLACK
10
77170.0
20
8860.0
11
77150.0
21
8740.0
0
LINE
8
BLACK
10
77150.0
20
8740.0
11
77090.0
21
8690.0
0
LINE
8
BLACK
10
77090.0
20
8690.0
11
77030.0
21
8660.0
0
LINE
8
BLACK
10
77030.0
20
8660.0
11
76920.0
21
8660.0
0
LINE
8
BLACK
10
76920.0
20
8660.0
11
76860.0
21
8690.0
0
LINE
8
BLACK
10
76860.0
20
8690.0
11
76800.0
21
8740.0
0
LINE
8
BLACK
10
76800.0
20
8740.0
11
76770.0
21
8860.0
0
LINE
8
BLACK
10
76770.0
20
8860.0
11
76770.0
21
9060.0
0
LINE
8
BLACK
10
76770.0
20
9060.0
11
76800.0
21
9170.0
0
LINE
8
BLACK
10
76800.0
20
9170.0
11
76860.0
21
9230.0
0
LINE
8
BLACK
10
76860.0
20
9230.0
11
76920.0
21
9260.0
0
LINE
8
BLACK
10
77380.0
20
9260.0
11
77520.0
21
8660.0
0
LINE
8
BLACK
10
77520.0
20
8660.0
11
77630.0
21
9090.0
0
LINE
8
BLACK
10
77630.0
20
9090.0
11
77750.0
21
8660.0
0
LINE
8
BLACK
10
77750.0
20
8660.0
11
77890.0
21
9260.0
0
LINE
8
BLACK
10
78120.0
20
8970.0
11
78320.0
21
8970.0
0
LINE
8
BLACK
10
78410.0
20
8660.0
11
78120.0
21
8660.0
0
LINE
8
BLACK
10
78120.0
20
8660.0
11
78120.0
21
9260.0
0
LINE
8
BLACK
10
78120.0
20
9260.0
11
78410.0
21
9260.0
0
LINE
8
BLACK
10
79010.0
20
8660.0
11
78810.0
21
8940.0
0
LINE
8
BLACK
10
78660.0
20
8660.0
11
78660.0
21
9260.0
0
LINE
8
BLACK
10
78660.0
20
9260.0
11
78890.0
21
9260.0
0
LINE
8
BLACK
10
78890.0
20
9260.0
11
78950.0
21
9230.0
0
LINE
8
BLACK
10
78950.0
20
9230.0
11
78980.0
21
9200.0
0
LINE
8
BLACK
10
78980.0
20
9200.0
11
79010.0
21
9140.0
0
LINE
8
BLACK
10
79010.0
20
9140.0
11
79010.0
21
9060.0
0
LINE
8
BLACK
10
79010.0
20
9060.0
11
78980.0
21
9000.0
0
LINE
8
BLACK
10
78980.0
20
9000.0
11
78950.0
21
8970.0
0
LINE
8
BLACK
10
78950.0
20
8970.0
11
78890.0
21
8940.0
0
LINE
8
BLACK
10
78890.0
20
8940.0
11
78660.0
21
8940.0
0
LINE
8
BLACK
10
79690.0
20
9290.0
11
79180.0
21
8510.0
0
LINE
8
BLACK
10
70300.0
20
10700.0
11
70300.0
21
4700.0
0
LINE
8
BLACK
10
70300.0
20
10700.0
11
112300.0
21
10700.0
0
LINE
8
BLACK
10
70300.0
20
10700.0
11
112300.0
21
10700.0
0
LINE
8
BLACK
10
70300.0
20
8300.0
11
112300.0
21
8300.0
0
LINE
8
BLACK
10
103500.0
20
7100.0
11
103500.0
21
4700.0
0
LINE
8
BLACK
10
70300.0
20
5900.0
11
112300.0
21
5900.0
0
LINE
8
BLACK
10
70300.0
20
7100.0
11
112300.0
21
7100.0
0
LINE
8
BLACK
10
76900.0
20
7100.0
11
76900.0
21
5900.0
0
LINE
8
BLACK
10
17000.0
20
66270.0
11
16500.0
21
66270.0
0
LINE
8
BLACK
10
16500.0
20
66270.0
11
16000.0
21
65520.0
0
LINE
8
BLACK
10
16000.0
20
65520.0
11
15500.0
21
66270.0
0
LINE
8
BLACK
10
15500.0
20
66270.0
11
16000.0
21
67020.0
0
LINE
8
BLACK
10
16000.0
20
67020.0
11
16500.0
21
66270.0
0
LINE
8
BLACK
10
15300.0
20
65240.0
11
15000.0
21
65240.0
0
LINE
8
BLACK
10
15000.0
20
65240.0
11
15000.0
21
65360.0
0
LINE
8
BLACK
10
15000.0
20
65360.0
11
15020.0
21
65380.0
0
LINE
8
BLACK
10
15020.0
20
65380.0
11
15030.0
21
65400.0
0
LINE
8
BLACK
10
15030.0
20
65400.0
11
15060.0
21
65410.0
0
LINE
8
BLACK
10
15060.0
20
65410.0
11
15100.0
21
65410.0
0
LINE
8
BLACK
10
15100.0
20
65410.0
11
15130.0
21
65400.0
0
LINE
8
BLACK
10
15130.0
20
65400.0
11
15140.0
21
65380.0
0
LINE
8
BLACK
10
15140.0
20
65380.0
11
15160.0
21
65360.0
0
LINE
8
BLACK
10
15160.0
20
65360.0
11
15160.0
21
65240.0
0
LINE
8
BLACK
10
15000.0
20
65510.0
11
15300.0
21
65580.0
0
LINE
8
BLACK
10
15300.0
20
65580.0
11
15090.0
21
65640.0
0
LINE
8
BLACK
10
15090.0
20
65640.0
11
15300.0
21
65700.0
0
LINE
8
BLACK
10
15300.0
20
65700.0
11
15000.0
21
65770.0
0
LINE
8
BLACK
10
15300.0
20
66050.0
11
15160.0
21
65950.0
0
LINE
8
BLACK
10
15300.0
20
65880.0
11
15000.0
21
65880.0
0
LINE
8
BLACK
10
15000.0
20
65880.0
11
15000.0
21
66000.0
0
LINE
8
BLACK
10
15000.0
20
66000.0
11
15020.0
21
66020.0
0
LINE
8
BLACK
10
15020.0
20
66020.0
11
15030.0
21
66040.0
0
LINE
8
BLACK
10
15030.0
20
66040.0
11
15060.0
21
66050.0
0
LINE
8
BLACK
10
15060.0
20
66050.0
11
15100.0
21
66050.0
0
LINE
8
BLACK
10
15100.0
20
66050.0
11
15130.0
21
66040.0
0
LINE
8
BLACK
10
15130.0
20
66040.0
11
15140.0
21
66020.0
0
LINE
8
BLACK
10
15140.0
20
66020.0
11
15160.0
21
66000.0
0
LINE
8
BLACK
10
15160.0
20
66000.0
11
15160.0
21
65880.0
0
LINE
8
BLACK
10
15330.0
20
66110.0
11
15330.0
21
66340.0
0
LINE
8
BLACK
10
15140.0
20
66510.0
11
15140.0
21
66410.0
0
LINE
8
BLACK
10
15300.0
20
66410.0
11
15000.0
21
66410.0
0
LINE
8
BLACK
10
15000.0
20
66410.0
11
15000.0
21
66550.0
0
LINE
8
BLACK
10
15300.0
20
66810.0
11
15300.0
21
66670.0
0
LINE
8
BLACK
10
15300.0
20
66670.0
11
15000.0
21
66670.0
0
LINE
8
BLACK
10
15220.0
20
66900.0
11
15220.0
21
67040.0
0
LINE
8
BLACK
10
15300.0
20
66870.0
11
15000.0
21
66970.0
0
LINE
8
BLACK
10
15000.0
20
66970.0
11
15300.0
21
67070.0
0
LINE
8
BLACK
10
15020.0
20
67330.0
11
15000.0
21
67300.0
0
LINE
8
BLACK
10
15000.0
20
67300.0
11
15000.0
21
67260.0
0
LINE
8
BLACK
10
15000.0
20
67260.0
11
15020.0
21
67210.0
0
LINE
8
BLACK
10
15020.0
20
67210.0
11
15040.0
21
67190.0
0
LINE
8
BLACK
10
15040.0
20
67190.0
11
15070.0
21
67170.0
0
LINE
8
BLACK
10
15070.0
20
67170.0
11
15130.0
21
67160.0
0
LINE
8
BLACK
10
15130.0
20
67160.0
11
15170.0
21
67160.0
0
LINE
8
BLACK
10
15170.0
20
67160.0
11
15230.0
21
67170.0
0
LINE
8
BLACK
10
15230.0
20
67170.0
11
15260.0
21
67190.0
0
LINE
8
BLACK
10
15260.0
20
67190.0
11
15290.0
21
67210.0
0
LINE
8
BLACK
10
15290.0
20
67210.0
11
15300.0
21
67260.0
0
LINE
8
BLACK
10
15300.0
20
67260.0
11
15300.0
21
67290.0
0
LINE
8
BLACK
10
15300.0
20
67290.0
11
15290.0
21
67330.0
0
LINE
8
BLACK
10
15290.0
20
67330.0
11
15270.0
21
67340.0
0
LINE
8
BLACK
10
15270.0
20
67340.0
11
15170.0
21
67340.0
0
LINE
8
BLACK
10
15170.0
20
67340.0
11
15170.0
21
67290.0
0
POLYLINE
8
BLACK
66
1
70
1
40
160
41
160
0
VERTEX
8
BLACK
10
17670.0
 20
71670.0
42
1.0
0
VERTEX
8
BLACK
10
17830.0
 20
71670.0
42
1.0
0
SEQEND
0
LINE
8
BLACK
10
17750.0
20
71670.0
11
17750.0
21
72170.0
0
LINE
8
BLACK
10
17750.0
20
72170.0
11
17000.0
21
72670.0
0
LINE
8
BLACK
10
17000.0
20
72670.0
11
17750.0
21
73170.0
0
LINE
8
BLACK
10
17750.0
20
73170.0
11
18500.0
21
72670.0
0
LINE
8
BLACK
10
18500.0
20
72670.0
11
17750.0
21
72170.0
0
LINE
8
BLACK
10
16710.0
20
73370.0
11
16710.0
21
73670.0
0
LINE
8
BLACK
10
16710.0
20
73670.0
11
16830.0
21
73670.0
0
LINE
8
BLACK
10
16830.0
20
73670.0
11
16850.0
21
73650.0
0
LINE
8
BLACK
10
16850.0
20
73650.0
11
16870.0
21
73640.0
0
LINE
8
BLACK
10
16870.0
20
73640.0
11
16880.0
21
73610.0
0
LINE
8
BLACK
10
16880.0
20
73610.0
11
16880.0
21
73570.0
0
LINE
8
BLACK
10
16880.0
20
73570.0
11
16870.0
21
73540.0
0
LINE
8
BLACK
10
16870.0
20
73540.0
11
16850.0
21
73530.0
0
LINE
8
BLACK
10
16850.0
20
73530.0
11
16830.0
21
73510.0
0
LINE
8
BLACK
10
16830.0
20
73510.0
11
16710.0
21
73510.0
0
LINE
8
BLACK
10
16980.0
20
73670.0
11
17050.0
21
73370.0
0
LINE
8
BLACK
10
17050.0
20
73370.0
11
17110.0
21
73580.0
0
LINE
8
BLACK
10
17110.0
20
73580.0
11
17170.0
21
73370.0
0
LINE
8
BLACK
10
17170.0
20
73370.0
11
17240.0
21
73670.0
0
LINE
8
BLACK
10
17520.0
20
73370.0
11
17420.0
21
73510.0
0
LINE
8
BLACK
10
17350.0
20
73370.0
11
17350.0
21
73670.0
0
LINE
8
BLACK
10
17350.0
20
73670.0
11
17470.0
21
73670.0
0
LINE
8
BLACK
10
17470.0
20
73670.0
11
17490.0
21
73650.0
0
LINE
8
BLACK
10
17490.0
20
73650.0
11
17510.0
21
73640.0
0
LINE
8
BLACK
10
17510.0
20
73640.0
11
17520.0
21
73610.0
0
LINE
8
BLACK
10
17520.0
20
73610.0
11
17520.0
21
73570.0
0
LINE
8
BLACK
10
17520.0
20
73570.0
11
17510.0
21
73540.0
0
LINE
8
BLACK
10
17510.0
20
73540.0
11
17490.0
21
73530.0
0
LINE
8
BLACK
10
17490.0
20
73530.0
11
17470.0
21
73510.0
0
LINE
8
BLACK
10
17470.0
20
73510.0
11
17350.0
21
73510.0
0
LINE
8
BLACK
10
17580.0
20
73340.0
11
17810.0
21
73340.0
0
LINE
8
BLACK
10
17980.0
20
73530.0
11
17880.0
21
73530.0
0
LINE
8
BLACK
10
17880.0
20
73370.0
11
17880.0
21
73670.0
0
LINE
8
BLACK
10
17880.0
20
73670.0
11
18020.0
21
73670.0
0
LINE
8
BLACK
10
18280.0
20
73370.0
11
18140.0
21
73370.0
0
LINE
8
BLACK
10
18140.0
20
73370.0
11
18140.0
21
73670.0
0
LINE
8
BLACK
10
18370.0
20
73450.0
11
18510.0
21
73450.0
0
LINE
8
BLACK
10
18340.0
20
73370.0
11
18440.0
21
73670.0
0
LINE
8
BLACK
10
18440.0
20
73670.0
11
18540.0
21
73370.0
0
LINE
8
BLACK
10
18800.0
20
73650.0
11
18770.0
21
73670.0
0
LINE
8
BLACK
10
18770.0
20
73670.0
11
18730.0
21
73670.0
0
LINE
8
BLACK
10
18730.0
20
73670.0
11
18680.0
21
73650.0
0
LINE
8
BLACK
10
18680.0
20
73650.0
11
18660.0
21
73630.0
0
LINE
8
BLACK
10
18660.0
20
73630.0
11
18640.0
21
73600.0
0
LINE
8
BLACK
10
18640.0
20
73600.0
11
18630.0
21
73540.0
0
LINE
8
BLACK
10
18630.0
20
73540.0
11
18630.0
21
73500.0
0
LINE
8
BLACK
10
18630.0
20
73500.0
11
18640.0
21
73440.0
0
LINE
8
BLACK
10
18640.0
20
73440.0
11
18660.0
21
73410.0
0
LINE
8
BLACK
10
18660.0
20
73410.0
11
18680.0
21
73380.0
0
LINE
8
BLACK
10
18680.0
20
73380.0
11
18730.0
21
73370.0
0
LINE
8
BLACK
10
18730.0
20
73370.0
11
18760.0
21
73370.0
0
LINE
8
BLACK
10
18760.0
20
73370.0
11
18800.0
21
73380.0
0
LINE
8
BLACK
10
18800.0
20
73380.0
11
18810.0
21
73400.0
0
LINE
8
BLACK
10
18810.0
20
73400.0
11
18810.0
21
73500.0
0
LINE
8
BLACK
10
18810.0
20
73500.0
11
18760.0
21
73500.0
0
POLYLINE
8
BLACK
66
1
70
1
40
160
41
160
0
VERTEX
8
BLACK
10
62420.0
 20
59170.0
42
1.0
0
VERTEX
8
BLACK
10
62580.0
 20
59170.0
42
1.0
0
SEQEND
0
LINE
8
BLACK
10
62000.0
20
54670.0
11
62500.0
21
54170.0
0
LINE
8
BLACK
10
62500.0
20
54170.0
11
63000.0
21
54670.0
0
LINE
8
BLACK
10
63000.0
20
54670.0
11
62000.0
21
54670.0
0
CIRCLE
8
BLACK
10
54500.0
20
72170.0
40
200
0
LINE
8
BLACK
10
54500.0
20
71670.0
11
54500.0
21
71970.0
0
LINE
8
BLACK
10
54110.0
20
72580.0
11
54340.0
21
72580.0
0
LINE
8
BLACK
10
54230.0
20
72470.0
11
54230.0
21
72700.0
0
LINE
8
BLACK
10
54620.0
20
72770.0
11
54480.0
21
72770.0
0
LINE
8
BLACK
10
54480.0
20
72770.0
11
54470.0
21
72630.0
0
LINE
8
BLACK
10
54470.0
20
72630.0
11
54480.0
21
72640.0
0
LINE
8
BLACK
10
54480.0
20
72640.0
11
54510.0
21
72650.0
0
LINE
8
BLACK
10
54510.0
20
72650.0
11
54580.0
21
72650.0
0
LINE
8
BLACK
10
54580.0
20
72650.0
11
54610.0
21
72640.0
0
LINE
8
BLACK
10
54610.0
20
72640.0
11
54620.0
21
72630.0
0
LINE
8
BLACK
10
54620.0
20
72630.0
11
54640.0
21
72600.0
0
LINE
8
BLACK
10
54640.0
20
72600.0
11
54640.0
21
72530.0
0
LINE
8
BLACK
10
54640.0
20
72530.0
11
54620.0
21
72500.0
0
LINE
8
BLACK
10
54620.0
20
72500.0
11
54610.0
21
72480.0
0
LINE
8
BLACK
10
54610.0
20
72480.0
11
54580.0
21
72470.0
0
LINE
8
BLACK
10
54580.0
20
72470.0
11
54510.0
21
72470.0
0
LINE
8
BLACK
10
54510.0
20
72470.0
11
54480.0
21
72480.0
0
LINE
8
BLACK
10
54480.0
20
72480.0
11
54470.0
21
72500.0
0
LINE
8
BLACK
10
54730.0
20
72770.0
11
54830.0
21
72470.0
0
LINE
8
BLACK
10
54830.0
20
72470.0
11
54930.0
21
72770.0
0
LINE
8
BLACK
10
32300.0
20
71670.0
11
32300.0
21
72170.0
0
LINE
8
BLACK
10
32300.0
20
72170.0
11
31550.0
21
72670.0
0
LINE
8
BLACK
10
31550.0
20
72670.0
11
32300.0
21
73170.0
0
LINE
8
BLACK
10
32300.0
20
73170.0
11
33050.0
21
72670.0
0
LINE
8
BLACK
10
33050.0
20
72670.0
11
32300.0
21
72170.0
0
LINE
8
BLACK
10
31260.0
20
73370.0
11
31260.0
21
73670.0
0
LINE
8
BLACK
10
31260.0
20
73670.0
11
31380.0
21
73670.0
0
LINE
8
BLACK
10
31380.0
20
73670.0
11
31400.0
21
73650.0
0
LINE
8
BLACK
10
31400.0
20
73650.0
11
31420.0
21
73640.0
0
LINE
8
BLACK
10
31420.0
20
73640.0
11
31430.0
21
73610.0
0
LINE
8
BLACK
10
31430.0
20
73610.0
11
31430.0
21
73570.0
0
LINE
8
BLACK
10
31430.0
20
73570.0
11
31420.0
21
73540.0
0
LINE
8
BLACK
10
31420.0
20
73540.0
11
31400.0
21
73530.0
0
LINE
8
BLACK
10
31400.0
20
73530.0
11
31380.0
21
73510.0
0
LINE
8
BLACK
10
31380.0
20
73510.0
11
31260.0
21
73510.0
0
LINE
8
BLACK
10
31530.0
20
73670.0
11
31600.0
21
73370.0
0
LINE
8
BLACK
10
31600.0
20
73370.0
11
31660.0
21
73580.0
0
LINE
8
BLACK
10
31660.0
20
73580.0
11
31720.0
21
73370.0
0
LINE
8
BLACK
10
31720.0
20
73370.0
11
31790.0
21
73670.0
0
LINE
8
BLACK
10
32070.0
20
73370.0
11
31970.0
21
73510.0
0
LINE
8
BLACK
10
31900.0
20
73370.0
11
31900.0
21
73670.0
0
LINE
8
BLACK
10
31900.0
20
73670.0
11
32020.0
21
73670.0
0
LINE
8
BLACK
10
32020.0
20
73670.0
11
32040.0
21
73650.0
0
LINE
8
BLACK
10
32040.0
20
73650.0
11
32060.0
21
73640.0
0
LINE
8
BLACK
10
32060.0
20
73640.0
11
32070.0
21
73610.0
0
LINE
8
BLACK
10
32070.0
20
73610.0
11
32070.0
21
73570.0
0
LINE
8
BLACK
10
32070.0
20
73570.0
11
32060.0
21
73540.0
0
LINE
8
BLACK
10
32060.0
20
73540.0
11
32040.0
21
73530.0
0
LINE
8
BLACK
10
32040.0
20
73530.0
11
32020.0
21
73510.0
0
LINE
8
BLACK
10
32020.0
20
73510.0
11
31900.0
21
73510.0
0
LINE
8
BLACK
10
32130.0
20
73340.0
11
32360.0
21
73340.0
0
LINE
8
BLACK
10
32530.0
20
73530.0
11
32430.0
21
73530.0
0
LINE
8
BLACK
10
32430.0
20
73370.0
11
32430.0
21
73670.0
0
LINE
8
BLACK
10
32430.0
20
73670.0
11
32570.0
21
73670.0
0
LINE
8
BLACK
10
32830.0
20
73370.0
11
32690.0
21
73370.0
0
LINE
8
BLACK
10
32690.0
20
73370.0
11
32690.0
21
73670.0
0
LINE
8
BLACK
10
32920.0
20
73450.0
11
33060.0
21
73450.0
0
LINE
8
BLACK
10
32890.0
20
73370.0
11
32990.0
21
73670.0
0
LINE
8
BLACK
10
32990.0
20
73670.0
11
33090.0
21
73370.0
0
LINE
8
BLACK
10
33350.0
20
73650.0
11
33320.0
21
73670.0
0
LINE
8
BLACK
10
33320.0
20
73670.0
11
33280.0
21
73670.0
0
LINE
8
BLACK
10
33280.0
20
73670.0
11
33230.0
21
73650.0
0
LINE
8
BLACK
10
33230.0
20
73650.0
11
33210.0
21
73630.0
0
LINE
8
BLACK
10
33210.0
20
73630.0
11
33190.0
21
73600.0
0
LINE
8
BLACK
10
33190.0
20
73600.0
11
33180.0
21
73540.0
0
LINE
8
BLACK
10
33180.0
20
73540.0
11
33180.0
21
73500.0
0
LINE
8
BLACK
10
33180.0
20
73500.0
11
33190.0
21
73440.0
0
LINE
8
BLACK
10
33190.0
20
73440.0
11
33210.0
21
73410.0
0
LINE
8
BLACK
10
33210.0
20
73410.0
11
33230.0
21
73380.0
0
LINE
8
BLACK
10
33230.0
20
73380.0
11
33280.0
21
73370.0
0
LINE
8
BLACK
10
33280.0
20
73370.0
11
33310.0
21
73370.0
0
LINE
8
BLACK
10
33310.0
20
73370.0
11
33350.0
21
73380.0
0
LINE
8
BLACK
10
33350.0
20
73380.0
11
33360.0
21
73400.0
0
LINE
8
BLACK
10
33360.0
20
73400.0
11
33360.0
21
73500.0
0
LINE
8
BLACK
10
33360.0
20
73500.0
11
33310.0
21
73500.0
0
LINE
8
BLACK
10
32300.0
20
71270.0
11
32300.0
21
71670.0
0
LINE
8
BLACK
10
60300.0
20
71670.0
11
44000.0
21
71670.0
0
LINE
8
BLACK
10
63000.0
20
51170.0
11
63000.0
21
47670.0
0
POLYLINE
8
BLACK
66
1
70
1
40
160
41
160
0
VERTEX
8
BLACK
10
54420.0
 20
71670.0
42
1.0
0
VERTEX
8
BLACK
10
54580.0
 20
71670.0
42
1.0
0
SEQEND
0
POLYLINE
8
BLACK
66
1
70
1
40
160
41
160
0
VERTEX
8
BLACK
10
86120.0
 20
71670.0
42
1.0
0
VERTEX
8
BLACK
10
86280.0
 20
71670.0
42
1.0
0
SEQEND
0
POLYLINE
8
BLACK
66
1
70
1
40
160
41
160
0
VERTEX
8
BLACK
10
24920.0
 20
66270.0
42
1.0
0
VERTEX
8
BLACK
10
25080.0
 20
66270.0
42
1.0
0
SEQEND
0
LINE
8
BLACK
10
25000.0
20
67170.0
11
25000.0
21
66270.0
0
LINE
8
BLACK
10
45000.0
20
66170.0
11
45000.0
21
65670.0
0
POLYLINE
8
BLACK
66
1
70
1
40
160
41
160
0
VERTEX
8
BLACK
10
68920.0
 20
71670.0
42
1.0
0
VERTEX
8
BLACK
10
69080.0
 20
71670.0
42
1.0
0
SEQEND
0
LINE
8
BLACK
10
69000.0
20
70170.0
11
69000.0
21
71670.0
0
LINE
8
BLACK
10
78000.0
20
34170.0
11
59500.0
21
34170.0
0
LINE
8
BLACK
10
59500.0
20
39670.0
11
59500.0
21
38170.0
0
POLYLINE
8
BLACK
66
1
70
1
40
160
41
160
0
VERTEX
8
BLACK
10
77420.0
 20
49670.0
42
1.0
0
VERTEX
8
BLACK
10
77580.0
 20
49670.0
42
1.0
0
SEQEND
0
LINE
8
BLACK
10
78000.0
20
49670.0
11
77500.0
21
49670.0
0
LINE
8
BLACK
10
78000.0
20
47670.0
11
77500.0
21
47670.0
0
LINE
8
BLACK
10
77500.0
20
47670.0
11
77500.0
21
51670.0
0
POLYLINE
8
BLACK
66
1
70
1
40
160
41
160
0
VERTEX
8
BLACK
10
62920.0
 20
49670.0
42
1.0
0
VERTEX
8
BLACK
10
63080.0
 20
49670.0
42
1.0
0
SEQEND
0
LINE
8
BLACK
10
64500.0
20
49670.0
11
63000.0
21
49670.0
0
LINE
8
BLACK
10
63000.0
20
47670.0
11
64500.0
21
47670.0
0
POLYLINE
8
BLACK
66
1
70
1
40
160
41
160
0
VERTEX
8
BLACK
10
75920.0
 20
58170.0
42
1.0
0
VERTEX
8
BLACK
10
76080.0
 20
58170.0
42
1.0
0
SEQEND
0
LINE
8
BLACK
10
78000.0
20
58170.0
11
76000.0
21
58170.0
0
LINE
8
BLACK
10
78000.0
20
56170.0
11
76000.0
21
56170.0
0
LINE
8
BLACK
10
76000.0
20
56170.0
11
76000.0
21
60170.0
0
POLYLINE
8
BLACK
66
1
70
1
40
160
41
160
0
VERTEX
8
BLACK
10
62420.0
 20
57170.0
42
1.0
0
VERTEX
8
BLACK
10
62580.0
 20
57170.0
42
1.0
0
SEQEND
0
LINE
8
BLACK
10
64500.0
20
57170.0
11
62500.0
21
57170.0
0
LINE
8
BLACK
10
64500.0
20
59170.0
11
62500.0
21
59170.0
0
LINE
8
BLACK
10
62500.0
20
59170.0
11
62500.0
21
54670.0
0
LINE
8
BLACK
10
52500.0
20
47670.0
11
52500.0
21
46170.0
0
LINE
8
BLACK
10
52500.0
20
46170.0
11
38000.0
21
46170.0
0
LINE
8
BLACK
10
38000.0
20
46170.0
11
38000.0
21
47670.0
0
LINE
8
BLACK
10
44500.0
20
52670.0
11
44500.0
21
51670.0
0
LINE
8
BLACK
10
52500.0
20
58670.0
11
52500.0
21
57670.0
0
LINE
8
BLACK
10
38000.0
20
58670.0
11
38000.0
21
57670.0
0
LINE
8
BLACK
10
78800.0
20
65770.0
11
78800.0
21
65170.0
0
POLYLINE
8
BLACK
66
1
70
1
40
160
41
160
0
VERTEX
8
BLACK
10
83520.0
 20
71670.0
42
1.0
0
VERTEX
8
BLACK
10
83680.0
 20
71670.0
42
1.0
0
SEQEND
0
LINE
8
BLACK
10
83600.0
20
69770.0
11
83600.0
21
71670.0
0
POLYLINE
8
BLACK
66
1
70
1
40
160
41
160
0
VERTEX
8
BLACK
10
74420.0
 20
71670.0
42
1.0
0
VERTEX
8
BLACK
10
74580.0
 20
71670.0
42
1.0
0
SEQEND
0
LINE
8
BLACK
10
74500.0
20
69870.0
11
74500.0
21
71670.0
0
LINE
8
BLACK
10
53000.0
20
66870.0
11
53000.0
21
65970.0
0
POLYLINE
8
BLACK
66
1
70
1
40
160
41
160
0
VERTEX
8
BLACK
10
56920.0
 20
71670.0
42
1.0
0
VERTEX
8
BLACK
10
57080.0
 20
71670.0
42
1.0
0
SEQEND
0
LINE
8
BLACK
10
57000.0
20
71670.0
11
57000.0
21
70070.0
0
POLYLINE
8
BLACK
66
1
70
1
40
160
41
160
0
VERTEX
8
BLACK
10
48320.0
 20
71670.0
42
1.0
0
VERTEX
8
BLACK
10
48480.0
 20
71670.0
42
1.0
0
SEQEND
0
LINE
8
BLACK
10
48400.0
20
70670.0
11
48400.0
21
71670.0
0
POLYLINE
8
BLACK
66
1
70
1
40
160
41
160
0
VERTEX
8
BLACK
10
32220.0
 20
66270.0
42
1.0
0
VERTEX
8
BLACK
10
32380.0
 20
66270.0
42
1.0
0
SEQEND
0
LINE
8
BLACK
10
32300.0
20
67270.0
11
32300.0
21
66270.0
0
LINE
8
BLACK
10
17000.0
20
70170.0
11
17000.0
21
65170.0
0
POLYLINE
8
BLACK
66
1
70
1
40
160
41
160
0
VERTEX
8
BLACK
10
35420.0
 20
71670.0
42
1.0
0
VERTEX
8
BLACK
10
35580.0
 20
71670.0
42
1.0
0
SEQEND
0
LINE
8
BLACK
10
35500.0
20
71470.0
11
35500.0
21
71670.0
0
LINE
8
BLACK
10
27000.0
20
55170.0
11
27000.0
21
56370.0
0
LINE
8
BLACK
10
27000.0
20
56370.0
11
24500.0
21
56370.0
0
LINE
8
BLACK
10
20400.0
20
59370.0
11
16800.0
21
59370.0
0
LINE
8
BLACK
10
16800.0
20
59370.0
11
16800.0
21
59170.0
0
LINE
8
BLACK
10
63700.0
20
68270.0
11
63700.0
21
64670.0
0
LINE
8
BLACK
10
17000.0
20
68670.0
11
13500.0
21
68670.0
0
POLYLINE
8
BLACK
66
1
70
1
40
160
41
160
0
VERTEX
8
BLACK
10
16920.0
 20
68670.0
42
1.0
0
VERTEX
8
BLACK
10
17080.0
 20
68670.0
42
1.0
0
SEQEND
0
LINE
8
BLACK
10
40000.0
20
68670.0
11
40000.0
21
62170.0
0
LINE
8
BLACK
10
17000.0
20
71670.0
11
18600.0
21
71670.0
0
LINE
8
BLACK
10
34600.0
20
72570.0
11
34600.0
21
71670.0
0
POLYLINE
8
BLACK
66
1
70
1
40
160
41
160
0
VERTEX
8
BLACK
10
34520.0
 20
71670.0
42
1.0
0
VERTEX
8
BLACK
10
34680.0
 20
71670.0
42
1.0
0
SEQEND
0
LINE
8
BLACK
10
16700.0
20
55570.0
11
16700.0
21
56370.0
0
LINE
8
BLACK
10
16700.0
20
56370.0
11
19500.0
21
56370.0
0
LINE
8
BLACK
10
25400.0
20
59370.0
11
27000.0
21
59370.0
0
LINE
8
BLACK
10
27000.0
20
59370.0
11
27000.0
21
58770.0
0
POLYLINE
8
BLACK
66
1
70
1
40
160
41
160
0
VERTEX
8
BLACK
10
32220.0
 20
71670.0
42
1.0
0
VERTEX
8
BLACK
10
32380.0
 20
71670.0
42
1.0
0
SEQEND
0
LINE
8
BLACK
10
17700.0
20
66270.0
11
17000.0
21
66270.0
0
POLYLINE
8
BLACK
66
1
70
1
40
160
41
160
0
VERTEX
8
BLACK
10
16920.0
 20
66270.0
42
1.0
0
VERTEX
8
BLACK
10
17080.0
 20
66270.0
42
1.0
0
SEQEND
0
POLYLINE
8
BLACK
66
1
70
1
40
160
41
160
0
VERTEX
8
BLACK
10
35420.0
 20
66270.0
42
1.0
0
VERTEX
8
BLACK
10
35580.0
 20
66270.0
42
1.0
0
SEQEND
0
LINE
8
BLACK
10
53000.0
20
70870.0
11
53000.0
21
71670.0
0
POLYLINE
8
BLACK
66
1
70
1
40
160
41
160
0
VERTEX
8
BLACK
10
52920.0
 20
71670.0
42
1.0
0
VERTEX
8
BLACK
10
53080.0
 20
71670.0
42
1.0
0
SEQEND
0
LINE
8
BLACK
10
57000.0
20
66070.0
11
57000.0
21
65570.0
0
LINE
8
BLACK
10
48400.0
20
66670.0
11
48400.0
21
66070.0
0
LINE
8
BLACK
10
78800.0
20
69770.0
11
78800.0
21
71670.0
0
POLYLINE
8
BLACK
66
1
70
1
40
160
41
160
0
VERTEX
8
BLACK
10
78720.0
 20
71670.0
42
1.0
0
VERTEX
8
BLACK
10
78880.0
 20
71670.0
42
1.0
0
SEQEND
0
LINE
8
BLACK
10
83600.0
20
64970.0
11
83600.0
21
65770.0
0
LINE
8
BLACK
10
74500.0
20
65870.0
11
74500.0
21
65170.0
0
LINE
8
BLACK
10
44500.0
20
58670.0
11
44500.0
21
57670.0
0
LINE
8
BLACK
10
38000.0
20
52670.0
11
38000.0
21
51670.0
0
LINE
8
BLACK
10
52500.0
20
52670.0
11
52500.0
21
51670.0
0
LINE
8
BLACK
10
44500.0
20
47670.0
11
44500.0
21
43670.0
0
POLYLINE
8
BLACK
66
1
70
1
40
160
41
160
0
VERTEX
8
BLACK
10
44420.0
 20
46170.0
42
1.0
0
VERTEX
8
BLACK
10
44580.0
 20
46170.0
42
1.0
0
SEQEND
0
LINE
8
BLACK
10
64500.0
20
58170.0
11
62500.0
21
58170.0
0
POLYLINE
8
BLACK
66
1
70
1
40
160
41
160
0
VERTEX
8
BLACK
10
62420.0
 20
58170.0
42
1.0
0
VERTEX
8
BLACK
10
62580.0
 20
58170.0
42
1.0
0
SEQEND
0
LINE
8
BLACK
10
64500.0
20
56170.0
11
62500.0
21
56170.0
0
POLYLINE
8
BLACK
66
1
70
1
40
160
41
160
0
VERTEX
8
BLACK
10
62420.0
 20
56170.0
42
1.0
0
VERTEX
8
BLACK
10
62580.0
 20
56170.0
42
1.0
0
SEQEND
0
LINE
8
BLACK
10
78000.0
20
57170.0
11
76000.0
21
57170.0
0
POLYLINE
8
BLACK
66
1
70
1
40
160
41
160
0
VERTEX
8
BLACK
10
75920.0
 20
57170.0
42
1.0
0
VERTEX
8
BLACK
10
76080.0
 20
57170.0
42
1.0
0
SEQEND
0
LINE
8
BLACK
10
78000.0
20
59170.0
11
76000.0
21
59170.0
0
POLYLINE
8
BLACK
66
1
70
1
40
160
41
160
0
VERTEX
8
BLACK
10
75920.0
 20
59170.0
42
1.0
0
VERTEX
8
BLACK
10
76080.0
 20
59170.0
42
1.0
0
SEQEND
0
LINE
8
BLACK
10
64500.0
20
48670.0
11
63000.0
21
48670.0
0
POLYLINE
8
BLACK
66
1
70
1
40
160
41
160
0
VERTEX
8
BLACK
10
62920.0
 20
48670.0
42
1.0
0
VERTEX
8
BLACK
10
63080.0
 20
48670.0
42
1.0
0
SEQEND
0
LINE
8
BLACK
10
64500.0
20
50670.0
11
63000.0
21
50670.0
0
POLYLINE
8
BLACK
66
1
70
1
40
160
41
160
0
VERTEX
8
BLACK
10
62920.0
 20
50670.0
42
1.0
0
VERTEX
8
BLACK
10
63080.0
 20
50670.0
42
1.0
0
SEQEND
0
LINE
8
BLACK
10
78000.0
20
48670.0
11
77500.0
21
48670.0
0
POLYLINE
8
BLACK
66
1
70
1
40
160
41
160
0
VERTEX
8
BLACK
10
77420.0
 20
48670.0
42
1.0
0
VERTEX
8
BLACK
10
77580.0
 20
48670.0
42
1.0
0
SEQEND
0
LINE
8
BLACK
10
78000.0
20
50670.0
11
77500.0
21
50670.0
0
POLYLINE
8
BLACK
66
1
70
1
40
160
41
160
0
VERTEX
8
BLACK
10
77420.0
 20
50670.0
42
1.0
0
VERTEX
8
BLACK
10
77580.0
 20
50670.0
42
1.0
0
SEQEND
0
LINE
8
BLACK
10
59500.0
20
38170.0
11
78000.0
21
38170.0
0
LINE
8
BLACK
10
59500.0
20
34170.0
11
59500.0
21
32670.0
0
POLYLINE
8
BLACK
66
1
70
1
40
160
41
160
0
VERTEX
8
BLACK
10
63920.0
 20
34170.0
42
1.0
0
VERTEX
8
BLACK
10
64080.0
 20
34170.0
42
1.0
0
SEQEND
0
POLYLINE
8
BLACK
66
1
70
1
40
160
41
160
0
VERTEX
8
BLACK
10
69420.0
 20
34170.0
42
1.0
0
VERTEX
8
BLACK
10
69580.0
 20
34170.0
42
1.0
0
SEQEND
0
POLYLINE
8
BLACK
66
1
70
1
40
160
41
160
0
VERTEX
8
BLACK
10
74420.0
 20
34170.0
42
1.0
0
VERTEX
8
BLACK
10
74580.0
 20
34170.0
42
1.0
0
SEQEND
0
POLYLINE
8
BLACK
66
1
70
1
40
160
41
160
0
VERTEX
8
BLACK
10
77920.0
 20
34170.0
42
1.0
0
VERTEX
8
BLACK
10
78080.0
 20
34170.0
42
1.0
0
SEQEND
0
POLYLINE
8
BLACK
66
1
70
1
40
160
41
160
0
VERTEX
8
BLACK
10
74420.0
 20
38170.0
42
1.0
0
VERTEX
8
BLACK
10
74580.0
 20
38170.0
42
1.0
0
SEQEND
0
POLYLINE
8
BLACK
66
1
70
1
40
160
41
160
0
VERTEX
8
BLACK
10
69420.0
 20
38170.0
42
1.0
0
VERTEX
8
BLACK
10
69580.0
 20
38170.0
42
1.0
0
SEQEND
0
POLYLINE
8
BLACK
66
1
70
1
40
160
41
160
0
VERTEX
8
BLACK
10
63920.0
 20
38170.0
42
1.0
0
VERTEX
8
BLACK
10
64080.0
 20
38170.0
42
1.0
0
SEQEND
0
POLYLINE
8
BLACK
66
1
70
1
40
160
41
160
0
VERTEX
8
BLACK
10
59420.0
 20
38170.0
42
1.0
0
VERTEX
8
BLACK
10
59580.0
 20
38170.0
42
1.0
0
SEQEND
0
POLYLINE
8
BLACK
66
1
70
1
40
160
41
160
0
VERTEX
8
BLACK
10
59420.0
 20
34170.0
42
1.0
0
VERTEX
8
BLACK
10
59580.0
 20
34170.0
42
1.0
0
SEQEND
0
LINE
8
BLACK
10
69000.0
20
66170.0
11
69000.0
21
64670.0
0
LINE
8
BLACK
10
45000.0
20
70170.0
11
45000.0
21
71670.0
0
POLYLINE
8
BLACK
66
1
70
1
40
160
41
160
0
VERTEX
8
BLACK
10
44920.0
 20
71670.0
42
1.0
0
VERTEX
8
BLACK
10
45080.0
 20
71670.0
42
1.0
0
SEQEND
0
LINE
8
BLACK
10
23600.0
20
71670.0
11
36000.0
21
71670.0
0
LINE
8
BLACK
10
25000.0
20
71170.0
11
25000.0
21
71670.0
0
POLYLINE
8
BLACK
66
1
70
1
40
160
41
160
0
VERTEX
8
BLACK
10
24920.0
 20
71670.0
42
1.0
0
VERTEX
8
BLACK
10
25080.0
 20
71670.0
42
1.0
0
SEQEND
0
LINE
8
BLACK
10
35500.0
20
66270.0
11
22700.0
21
66270.0
0
LINE
8
BLACK
10
35500.0
20
65170.0
11
35500.0
21
67470.0
0
LINE
8
BLACK
10
86200.0
20
71670.0
11
67300.0
21
71670.0
0
LINE
8
BLACK
10
44000.0
20
43670.0
11
44500.0
21
43170.0
0
LINE
8
BLACK
10
44500.0
20
43170.0
11
45000.0
21
43670.0
0
LINE
8
BLACK
10
45000.0
20
43670.0
11
44000.0
21
43670.0
0
LINE
8
BLACK
10
16200.0
20
55570.0
11
16700.0
21
55070.0
0
LINE
8
BLACK
10
16700.0
20
55070.0
11
17200.0
21
55570.0
0
LINE
8
BLACK
10
17200.0
20
55570.0
11
16200.0
21
55570.0
0
LINE
8
BLACK
10
16300.0
20
59170.0
11
16800.0
21
58670.0
0
LINE
8
BLACK
10
16800.0
20
58670.0
11
17300.0
21
59170.0
0
LINE
8
BLACK
10
17300.0
20
59170.0
11
16300.0
21
59170.0
0
LINE
8
BLACK
10
59000.0
20
32670.0
11
59500.0
21
32170.0
0
LINE
8
BLACK
10
59500.0
20
32170.0
11
60000.0
21
32670.0
0
LINE
8
BLACK
10
60000.0
20
32670.0
11
59000.0
21
32670.0
0
LINE
8
BLACK
10
83100.0
20
64970.0
11
83600.0
21
64470.0
0
LINE
8
BLACK
10
83600.0
20
64470.0
11
84100.0
21
64970.0
0
LINE
8
BLACK
10
84100.0
20
64970.0
11
83100.0
21
64970.0
0
LINE
8
BLACK
10
78300.0
20
65170.0
11
78800.0
21
64670.0
0
LINE
8
BLACK
10
78800.0
20
64670.0
11
79300.0
21
65170.0
0
LINE
8
BLACK
10
79300.0
20
65170.0
11
78300.0
21
65170.0
0
LINE
8
BLACK
10
74000.0
20
65170.0
11
74500.0
21
64670.0
0
LINE
8
BLACK
10
74500.0
20
64670.0
11
75000.0
21
65170.0
0
LINE
8
BLACK
10
75000.0
20
65170.0
11
74000.0
21
65170.0
0
LINE
8
BLACK
10
68500.0
20
64670.0
11
69000.0
21
64170.0
0
LINE
8
BLACK
10
69000.0
20
64170.0
11
69500.0
21
64670.0
0
LINE
8
BLACK
10
69500.0
20
64670.0
11
68500.0
21
64670.0
0
LINE
8
BLACK
10
63200.0
20
64670.0
11
63700.0
21
64170.0
0
LINE
8
BLACK
10
63700.0
20
64170.0
11
64200.0
21
64670.0
0
LINE
8
BLACK
10
64200.0
20
64670.0
11
63200.0
21
64670.0
0
LINE
8
BLACK
10
56500.0
20
65570.0
11
57000.0
21
65070.0
0
LINE
8
BLACK
10
57000.0
20
65070.0
11
57500.0
21
65570.0
0
LINE
8
BLACK
10
57500.0
20
65570.0
11
56500.0
21
65570.0
0
LINE
8
BLACK
10
52500.0
20
65970.0
11
53000.0
21
65470.0
0
LINE
8
BLACK
10
53000.0
20
65470.0
11
53500.0
21
65970.0
0
LINE
8
BLACK
10
53500.0
20
65970.0
11
52500.0
21
65970.0
0
LINE
8
BLACK
10
47900.0
20
66070.0
11
48400.0
21
65570.0
0
LINE
8
BLACK
10
48400.0
20
65570.0
11
48900.0
21
66070.0
0
LINE
8
BLACK
10
48900.0
20
66070.0
11
47900.0
21
66070.0
0
LINE
8
BLACK
10
44500.0
20
65670.0
11
45000.0
21
65170.0
0
LINE
8
BLACK
10
45000.0
20
65170.0
11
45500.0
21
65670.0
0
LINE
8
BLACK
10
45500.0
20
65670.0
11
44500.0
21
65670.0
0
LINE
8
BLACK
10
39500.0
20
62170.0
11
40000.0
21
61670.0
0
LINE
8
BLACK
10
40000.0
20
61670.0
11
40500.0
21
62170.0
0
LINE
8
BLACK
10
40500.0
20
62170.0
11
39500.0
21
62170.0
0
LINE
8
BLACK
10
35000.0
20
65170.0
11
35500.0
21
64670.0
0
LINE
8
BLACK
10
35500.0
20
64670.0
11
36000.0
21
65170.0
0
LINE
8
BLACK
10
36000.0
20
65170.0
11
35000.0
21
65170.0
0
LINE
8
BLACK
10
38000.0
20
69670.0
11
38000.0
21
72670.0
0
LINE
8
BLACK
10
38000.0
20
72670.0
11
42000.0
21
72670.0
0
LINE
8
BLACK
10
42000.0
20
72670.0
11
42000.0
21
69670.0
0
LINE
8
BLACK
10
42000.0
20
69670.0
11
38000.0
21
69670.0
0
LINE
8
BLACK
10
38000.0
20
71670.0
11
36000.0
21
71670.0
0
LINE
8
BLACK
10
38340.0
20
71910.0
11
38470.0
21
71510.0
0
LINE
8
BLACK
10
38470.0
20
71510.0
11
38600.0
21
71910.0
0
LINE
8
BLACK
10
38740.0
20
71510.0
11
38740.0
21
71910.0
0
LINE
8
BLACK
10
37110.0
20
71810.0
11
36890.0
21
71810.0
0
LINE
8
BLACK
10
37000.0
20
71810.0
11
37000.0
21
72210.0
0
LINE
8
BLACK
10
37000.0
20
72210.0
11
36960.0
21
72150.0
0
LINE
8
BLACK
10
36960.0
20
72150.0
11
36920.0
21
72110.0
0
LINE
8
BLACK
10
36920.0
20
72110.0
11
36890.0
21
72090.0
0
LINE
8
BLACK
10
40000.0
20
69670.0
11
40000.0
21
68670.0
0
LINE
8
BLACK
10
39780.0
20
70270.0
11
39760.0
21
70240.0
0
LINE
8
BLACK
10
39760.0
20
70240.0
11
39760.0
21
70180.0
0
LINE
8
BLACK
10
39760.0
20
70180.0
11
39780.0
21
70120.0
0
LINE
8
BLACK
10
39780.0
20
70120.0
11
39820.0
21
70080.0
0
LINE
8
BLACK
10
39820.0
20
70080.0
11
39860.0
21
70070.0
0
LINE
8
BLACK
10
39860.0
20
70070.0
11
39930.0
21
70050.0
0
LINE
8
BLACK
10
39930.0
20
70050.0
11
39990.0
21
70050.0
0
LINE
8
BLACK
10
39990.0
20
70050.0
11
40070.0
21
70070.0
0
LINE
8
BLACK
10
40070.0
20
70070.0
11
40100.0
21
70080.0
0
LINE
8
BLACK
10
40100.0
20
70080.0
11
40140.0
21
70120.0
0
LINE
8
BLACK
10
40140.0
20
70120.0
11
40160.0
21
70180.0
0
LINE
8
BLACK
10
40160.0
20
70180.0
11
40160.0
21
70220.0
0
LINE
8
BLACK
10
40160.0
20
70220.0
11
40140.0
21
70270.0
0
LINE
8
BLACK
10
40140.0
20
70270.0
11
40120.0
21
70290.0
0
LINE
8
BLACK
10
40120.0
20
70290.0
11
39990.0
21
70290.0
0
LINE
8
BLACK
10
39990.0
20
70290.0
11
39990.0
21
70220.0
0
LINE
8
BLACK
10
40160.0
20
70470.0
11
39760.0
21
70470.0
0
LINE
8
BLACK
10
39760.0
20
70470.0
11
40160.0
21
70690.0
0
LINE
8
BLACK
10
40160.0
20
70690.0
11
39760.0
21
70690.0
0
LINE
8
BLACK
10
40160.0
20
70890.0
11
39760.0
21
70890.0
0
LINE
8
BLACK
10
39760.0
20
70890.0
11
39760.0
21
70980.0
0
LINE
8
BLACK
10
39760.0
20
70980.0
11
39780.0
21
71040.0
0
LINE
8
BLACK
10
39780.0
20
71040.0
11
39820.0
21
71080.0
0
LINE
8
BLACK
10
39820.0
20
71080.0
11
39860.0
21
71090.0
0
LINE
8
BLACK
10
39860.0
20
71090.0
11
39930.0
21
71110.0
0
LINE
8
BLACK
10
39930.0
20
71110.0
11
39990.0
21
71110.0
0
LINE
8
BLACK
10
39990.0
20
71110.0
11
40070.0
21
71090.0
0
LINE
8
BLACK
10
40070.0
20
71090.0
11
40100.0
21
71080.0
0
LINE
8
BLACK
10
40100.0
20
71080.0
11
40140.0
21
71040.0
0
LINE
8
BLACK
10
40140.0
20
71040.0
11
40160.0
21
70980.0
0
LINE
8
BLACK
10
40160.0
20
70980.0
11
40160.0
21
70890.0
0
LINE
8
BLACK
10
39500.0
20
69060.0
11
39480.0
21
69080.0
0
LINE
8
BLACK
10
39480.0
20
69080.0
11
39460.0
21
69110.0
0
LINE
8
BLACK
10
39460.0
20
69110.0
11
39460.0
21
69210.0
0
LINE
8
BLACK
10
39460.0
20
69210.0
11
39480.0
21
69250.0
0
LINE
8
BLACK
10
39480.0
20
69250.0
11
39500.0
21
69270.0
0
LINE
8
BLACK
10
39500.0
20
69270.0
11
39540.0
21
69280.0
0
LINE
8
BLACK
10
39540.0
20
69280.0
11
39580.0
21
69280.0
0
LINE
8
BLACK
10
39580.0
20
69280.0
11
39630.0
21
69270.0
0
LINE
8
BLACK
10
39630.0
20
69270.0
11
39860.0
21
69040.0
0
LINE
8
BLACK
10
39860.0
20
69040.0
11
39860.0
21
69280.0
0
LINE
8
BLACK
10
42000.0
20
71670.0
11
44000.0
21
71670.0
0
LINE
8
BLACK
10
40980.0
20
71910.0
11
41110.0
21
71510.0
0
LINE
8
BLACK
10
41110.0
20
71510.0
11
41240.0
21
71910.0
0
LINE
8
BLACK
10
41450.0
20
71910.0
11
41530.0
21
71910.0
0
LINE
8
BLACK
10
41530.0
20
71910.0
11
41570.0
21
71890.0
0
LINE
8
BLACK
10
41570.0
20
71890.0
11
41600.0
21
71850.0
0
LINE
8
BLACK
10
41600.0
20
71850.0
11
41620.0
21
71770.0
0
LINE
8
BLACK
10
41620.0
20
71770.0
11
41620.0
21
71640.0
0
LINE
8
BLACK
10
41620.0
20
71640.0
11
41600.0
21
71570.0
0
LINE
8
BLACK
10
41600.0
20
71570.0
11
41570.0
21
71530.0
0
LINE
8
BLACK
10
41570.0
20
71530.0
11
41530.0
21
71510.0
0
LINE
8
BLACK
10
41530.0
20
71510.0
11
41450.0
21
71510.0
0
LINE
8
BLACK
10
41450.0
20
71510.0
11
41410.0
21
71530.0
0
LINE
8
BLACK
10
41410.0
20
71530.0
11
41380.0
21
71570.0
0
LINE
8
BLACK
10
41380.0
20
71570.0
11
41360.0
21
71640.0
0
LINE
8
BLACK
10
41360.0
20
71640.0
11
41360.0
21
71770.0
0
LINE
8
BLACK
10
41360.0
20
71770.0
11
41380.0
21
71850.0
0
LINE
8
BLACK
10
41380.0
20
71850.0
11
41410.0
21
71890.0
0
LINE
8
BLACK
10
41410.0
20
71890.0
11
41450.0
21
71910.0
0
LINE
8
BLACK
10
42870.0
20
72210.0
11
43110.0
21
72210.0
0
LINE
8
BLACK
10
43110.0
20
72210.0
11
42980.0
21
72060.0
0
LINE
8
BLACK
10
42980.0
20
72060.0
11
43040.0
21
72060.0
0
LINE
8
BLACK
10
43040.0
20
72060.0
11
43080.0
21
72040.0
0
LINE
8
BLACK
10
43080.0
20
72040.0
11
43100.0
21
72020.0
0
LINE
8
BLACK
10
43100.0
20
72020.0
11
43110.0
21
71980.0
0
LINE
8
BLACK
10
43110.0
20
71980.0
11
43110.0
21
71880.0
0
LINE
8
BLACK
10
43110.0
20
71880.0
11
43100.0
21
71850.0
0
LINE
8
BLACK
10
43100.0
20
71850.0
11
43080.0
21
71830.0
0
LINE
8
BLACK
10
43080.0
20
71830.0
11
43040.0
21
71810.0
0
LINE
8
BLACK
10
43040.0
20
71810.0
11
42920.0
21
71810.0
0
LINE
8
BLACK
10
42920.0
20
71810.0
11
42890.0
21
71830.0
0
LINE
8
BLACK
10
42890.0
20
71830.0
11
42870.0
21
71850.0
0
LINE
8
BLACK
10
40760.0
20
69600.0
11
40760.0
21
69110.0
0
LINE
8
BLACK
10
40760.0
20
69110.0
11
40790.0
21
69050.0
0
LINE
8
BLACK
10
40790.0
20
69050.0
11
40820.0
21
69030.0
0
LINE
8
BLACK
10
40820.0
20
69030.0
11
40880.0
21
69000.0
0
LINE
8
BLACK
10
40880.0
20
69000.0
11
40990.0
21
69000.0
0
LINE
8
BLACK
10
40990.0
20
69000.0
11
41050.0
21
69030.0
0
LINE
8
BLACK
10
41050.0
20
69030.0
11
41080.0
21
69050.0
0
LINE
8
BLACK
10
41080.0
20
69050.0
11
41110.0
21
69110.0
0
LINE
8
BLACK
10
41110.0
20
69110.0
11
41110.0
21
69600.0
0
LINE
8
BLACK
10
41340.0
20
69600.0
11
41710.0
21
69600.0
0
LINE
8
BLACK
10
41710.0
20
69600.0
11
41510.0
21
69370.0
0
LINE
8
BLACK
10
41510.0
20
69370.0
11
41590.0
21
69370.0
0
LINE
8
BLACK
10
41590.0
20
69370.0
11
41650.0
21
69340.0
0
LINE
8
BLACK
10
41650.0
20
69340.0
11
41680.0
21
69310.0
0
LINE
8
BLACK
10
41680.0
20
69310.0
11
41710.0
21
69250.0
0
LINE
8
BLACK
10
41710.0
20
69250.0
11
41710.0
21
69110.0
0
LINE
8
BLACK
10
41710.0
20
69110.0
11
41680.0
21
69050.0
0
LINE
8
BLACK
10
41680.0
20
69050.0
11
41650.0
21
69030.0
0
LINE
8
BLACK
10
41650.0
20
69030.0
11
41590.0
21
69000.0
0
LINE
8
BLACK
10
41590.0
20
69000.0
11
41420.0
21
69000.0
0
LINE
8
BLACK
10
41420.0
20
69000.0
11
41360.0
21
69030.0
0
LINE
8
BLACK
10
41360.0
20
69030.0
11
41340.0
21
69050.0
0
LINE
8
BLACK
10
41910.0
20
69600.0
11
42280.0
21
69600.0
0
LINE
8
BLACK
10
42280.0
20
69600.0
11
42080.0
21
69370.0
0
LINE
8
BLACK
10
42080.0
20
69370.0
11
42160.0
21
69370.0
0
LINE
8
BLACK
10
42160.0
20
69370.0
11
42220.0
21
69340.0
0
LINE
8
BLACK
10
42220.0
20
69340.0
11
42250.0
21
69310.0
0
LINE
8
BLACK
10
42250.0
20
69310.0
11
42280.0
21
69250.0
0
LINE
8
BLACK
10
42280.0
20
69250.0
11
42280.0
21
69110.0
0
LINE
8
BLACK
10
42280.0
20
69110.0
11
42250.0
21
69050.0
0
LINE
8
BLACK
10
42250.0
20
69050.0
11
42220.0
21
69030.0
0
LINE
8
BLACK
10
42220.0
20
69030.0
11
42160.0
21
69000.0
0
LINE
8
BLACK
10
42160.0
20
69000.0
11
41990.0
21
69000.0
0
LINE
8
BLACK
10
41990.0
20
69000.0
11
41930.0
21
69030.0
0
LINE
8
BLACK
10
41930.0
20
69030.0
11
41910.0
21
69050.0
0
LINE
8
BLACK
10
39050.0
20
72960.0
11
38760.0
21
72960.0
0
LINE
8
BLACK
10
38760.0
20
72960.0
11
38760.0
21
73560.0
0
LINE
8
BLACK
10
39200.0
20
73560.0
11
39600.0
21
73560.0
0
LINE
8
BLACK
10
39600.0
20
73560.0
11
39340.0
21
72960.0
0
LINE
8
BLACK
10
39910.0
20
73300.0
11
39850.0
21
73330.0
0
LINE
8
BLACK
10
39850.0
20
73330.0
11
39820.0
21
73360.0
0
LINE
8
BLACK
10
39820.0
20
73360.0
11
39790.0
21
73410.0
0
LINE
8
BLACK
10
39790.0
20
73410.0
11
39790.0
21
73440.0
0
LINE
8
BLACK
10
39790.0
20
73440.0
11
39820.0
21
73500.0
0
LINE
8
BLACK
10
39820.0
20
73500.0
11
39850.0
21
73530.0
0
LINE
8
BLACK
10
39850.0
20
73530.0
11
39910.0
21
73560.0
0
LINE
8
BLACK
10
39910.0
20
73560.0
11
40020.0
21
73560.0
0
LINE
8
BLACK
10
40020.0
20
73560.0
11
40080.0
21
73530.0
0
LINE
8
BLACK
10
40080.0
20
73530.0
11
40110.0
21
73500.0
0
LINE
8
BLACK
10
40110.0
20
73500.0
11
40140.0
21
73440.0
0
LINE
8
BLACK
10
40140.0
20
73440.0
11
40140.0
21
73410.0
0
LINE
8
BLACK
10
40140.0
20
73410.0
11
40110.0
21
73360.0
0
LINE
8
BLACK
10
40110.0
20
73360.0
11
40080.0
21
73330.0
0
LINE
8
BLACK
10
40080.0
20
73330.0
11
40020.0
21
73300.0
0
LINE
8
BLACK
10
40020.0
20
73300.0
11
39910.0
21
73300.0
0
LINE
8
BLACK
10
39910.0
20
73300.0
11
39850.0
21
73270.0
0
LINE
8
BLACK
10
39850.0
20
73270.0
11
39820.0
21
73240.0
0
LINE
8
BLACK
10
39820.0
20
73240.0
11
39790.0
21
73190.0
0
LINE
8
BLACK
10
39790.0
20
73190.0
11
39790.0
21
73070.0
0
LINE
8
BLACK
10
39790.0
20
73070.0
11
39820.0
21
73010.0
0
LINE
8
BLACK
10
39820.0
20
73010.0
11
39850.0
21
72990.0
0
LINE
8
BLACK
10
39850.0
20
72990.0
11
39910.0
21
72960.0
0
LINE
8
BLACK
10
39910.0
20
72960.0
11
40020.0
21
72960.0
0
LINE
8
BLACK
10
40020.0
20
72960.0
11
40080.0
21
72990.0
0
LINE
8
BLACK
10
40080.0
20
72990.0
11
40110.0
21
73010.0
0
LINE
8
BLACK
10
40110.0
20
73010.0
11
40140.0
21
73070.0
0
LINE
8
BLACK
10
40140.0
20
73070.0
11
40140.0
21
73190.0
0
LINE
8
BLACK
10
40140.0
20
73190.0
11
40110.0
21
73240.0
0
LINE
8
BLACK
10
40110.0
20
73240.0
11
40080.0
21
73270.0
0
LINE
8
BLACK
10
40080.0
20
73270.0
11
40020.0
21
73300.0
0
LINE
8
BLACK
10
40510.0
20
73560.0
11
40560.0
21
73560.0
0
LINE
8
BLACK
10
40560.0
20
73560.0
11
40620.0
21
73530.0
0
LINE
8
BLACK
10
40620.0
20
73530.0
11
40650.0
21
73500.0
0
LINE
8
BLACK
10
40650.0
20
73500.0
11
40680.0
21
73440.0
0
LINE
8
BLACK
10
40680.0
20
73440.0
11
40710.0
21
73330.0
0
LINE
8
BLACK
10
40710.0
20
73330.0
11
40710.0
21
73190.0
0
LINE
8
BLACK
10
40710.0
20
73190.0
11
40680.0
21
73070.0
0
LINE
8
BLACK
10
40680.0
20
73070.0
11
40650.0
21
73010.0
0
LINE
8
BLACK
10
40650.0
20
73010.0
11
40620.0
21
72990.0
0
LINE
8
BLACK
10
40620.0
20
72990.0
11
40560.0
21
72960.0
0
LINE
8
BLACK
10
40560.0
20
72960.0
11
40510.0
21
72960.0
0
LINE
8
BLACK
10
40510.0
20
72960.0
11
40450.0
21
72990.0
0
LINE
8
BLACK
10
40450.0
20
72990.0
11
40420.0
21
73010.0
0
LINE
8
BLACK
10
40420.0
20
73010.0
11
40390.0
21
73070.0
0
LINE
8
BLACK
10
40390.0
20
73070.0
11
40360.0
21
73190.0
0
LINE
8
BLACK
10
40360.0
20
73190.0
11
40360.0
21
73330.0
0
LINE
8
BLACK
10
40360.0
20
73330.0
11
40390.0
21
73440.0
0
LINE
8
BLACK
10
40390.0
20
73440.0
11
40420.0
21
73500.0
0
LINE
8
BLACK
10
40420.0
20
73500.0
11
40450.0
21
73530.0
0
LINE
8
BLACK
10
40450.0
20
73530.0
11
40510.0
21
73560.0
0
LINE
8
BLACK
10
41250.0
20
73560.0
11
40960.0
21
73560.0
0
LINE
8
BLACK
10
40960.0
20
73560.0
11
40930.0
21
73270.0
0
LINE
8
BLACK
10
40930.0
20
73270.0
11
40960.0
21
73300.0
0
LINE
8
BLACK
10
40960.0
20
73300.0
11
41020.0
21
73330.0
0
LINE
8
BLACK
10
41020.0
20
73330.0
11
41160.0
21
73330.0
0
LINE
8
BLACK
10
41160.0
20
73330.0
11
41220.0
21
73300.0
0
LINE
8
BLACK
10
41220.0
20
73300.0
11
41250.0
21
73270.0
0
LINE
8
BLACK
10
41250.0
20
73270.0
11
41280.0
21
73210.0
0
LINE
8
BLACK
10
41280.0
20
73210.0
11
41280.0
21
73070.0
0
LINE
8
BLACK
10
41280.0
20
73070.0
11
41250.0
21
73010.0
0
LINE
8
BLACK
10
41250.0
20
73010.0
11
41220.0
21
72990.0
0
LINE
8
BLACK
10
41220.0
20
72990.0
11
41160.0
21
72960.0
0
LINE
8
BLACK
10
41160.0
20
72960.0
11
41020.0
21
72960.0
0
LINE
8
BLACK
10
41020.0
20
72960.0
11
40960.0
21
72990.0
0
LINE
8
BLACK
10
40960.0
20
72990.0
11
40930.0
21
73010.0
0
LINE
8
BLACK
10
61500.0
20
72670.0
11
61500.0
21
69470.0
0
LINE
8
BLACK
10
61500.0
20
69470.0
11
66100.0
21
69470.0
0
LINE
8
BLACK
10
66100.0
20
69470.0
11
66100.0
21
72670.0
0
LINE
8
BLACK
10
66100.0
20
72670.0
11
61500.0
21
72670.0
0
LINE
8
BLACK
10
63700.0
20
69450.0
11
63700.0
21
68270.0
0
LINE
8
BLACK
10
63430.0
20
70230.0
11
63400.0
21
70180.0
0
LINE
8
BLACK
10
63400.0
20
70180.0
11
63400.0
21
70110.0
0
LINE
8
BLACK
10
63400.0
20
70110.0
11
63430.0
21
70040.0
0
LINE
8
BLACK
10
63430.0
20
70040.0
11
63470.0
21
69990.0
0
LINE
8
BLACK
10
63470.0
20
69990.0
11
63520.0
21
69970.0
0
LINE
8
BLACK
10
63520.0
20
69970.0
11
63620.0
21
69950.0
0
LINE
8
BLACK
10
63620.0
20
69950.0
11
63690.0
21
69950.0
0
LINE
8
BLACK
10
63690.0
20
69950.0
11
63780.0
21
69970.0
0
LINE
8
BLACK
10
63780.0
20
69970.0
11
63830.0
21
69990.0
0
LINE
8
BLACK
10
63830.0
20
69990.0
11
63880.0
21
70040.0
0
LINE
8
BLACK
10
63880.0
20
70040.0
11
63900.0
21
70110.0
0
LINE
8
BLACK
10
63900.0
20
70110.0
11
63900.0
21
70160.0
0
LINE
8
BLACK
10
63900.0
20
70160.0
11
63880.0
21
70230.0
0
LINE
8
BLACK
10
63880.0
20
70230.0
11
63850.0
21
70250.0
0
LINE
8
BLACK
10
63850.0
20
70250.0
11
63690.0
21
70250.0
0
LINE
8
BLACK
10
63690.0
20
70250.0
11
63690.0
21
70160.0
0
LINE
8
BLACK
10
63900.0
20
70470.0
11
63400.0
21
70470.0
0
LINE
8
BLACK
10
63400.0
20
70470.0
11
63900.0
21
70750.0
0
LINE
8
BLACK
10
63900.0
20
70750.0
11
63400.0
21
70750.0
0
LINE
8
BLACK
10
63900.0
20
70990.0
11
63400.0
21
70990.0
0
LINE
8
BLACK
10
63400.0
20
70990.0
11
63400.0
21
71110.0
0
LINE
8
BLACK
10
63400.0
20
71110.0
11
63430.0
21
71180.0
0
LINE
8
BLACK
10
63430.0
20
71180.0
11
63470.0
21
71230.0
0
LINE
8
BLACK
10
63470.0
20
71230.0
11
63520.0
21
71250.0
0
LINE
8
BLACK
10
63520.0
20
71250.0
11
63620.0
21
71270.0
0
LINE
8
BLACK
10
63620.0
20
71270.0
11
63690.0
21
71270.0
0
LINE
8
BLACK
10
63690.0
20
71270.0
11
63780.0
21
71250.0
0
LINE
8
BLACK
10
63780.0
20
71250.0
11
63830.0
21
71230.0
0
LINE
8
BLACK
10
63830.0
20
71230.0
11
63880.0
21
71180.0
0
LINE
8
BLACK
10
63880.0
20
71180.0
11
63900.0
21
71110.0
0
LINE
8
BLACK
10
63900.0
20
71110.0
11
63900.0
21
70990.0
0
LINE
8
BLACK
10
63550.0
20
69000.0
11
63550.0
21
68720.0
0
LINE
8
BLACK
10
63550.0
20
68860.0
11
63050.0
21
68860.0
0
LINE
8
BLACK
10
63050.0
20
68860.0
11
63120.0
21
68810.0
0
LINE
8
BLACK
10
63120.0
20
68810.0
11
63170.0
21
68760.0
0
LINE
8
BLACK
10
63170.0
20
68760.0
11
63200.0
21
68720.0
0
LINE
8
BLACK
10
66120.0
20
71670.0
11
67300.0
21
71670.0
0
LINE
8
BLACK
10
64510.0
20
71970.0
11
64610.0
21
71970.0
0
LINE
8
BLACK
10
64610.0
20
71970.0
11
64660.0
21
71940.0
0
LINE
8
BLACK
10
64660.0
20
71940.0
11
64700.0
21
71900.0
0
LINE
8
BLACK
10
64700.0
20
71900.0
11
64730.0
21
71800.0
0
LINE
8
BLACK
10
64730.0
20
71800.0
11
64730.0
21
71630.0
0
LINE
8
BLACK
10
64730.0
20
71630.0
11
64700.0
21
71540.0
0
LINE
8
BLACK
10
64700.0
20
71540.0
11
64660.0
21
71490.0
0
LINE
8
BLACK
10
64660.0
20
71490.0
11
64610.0
21
71470.0
0
LINE
8
BLACK
10
64610.0
20
71470.0
11
64510.0
21
71470.0
0
LINE
8
BLACK
10
64510.0
20
71470.0
11
64470.0
21
71490.0
0
LINE
8
BLACK
10
64470.0
20
71490.0
11
64420.0
21
71540.0
0
LINE
8
BLACK
10
64420.0
20
71540.0
11
64400.0
21
71630.0
0
LINE
8
BLACK
10
64400.0
20
71630.0
11
64400.0
21
71800.0
0
LINE
8
BLACK
10
64400.0
20
71800.0
11
64420.0
21
71900.0
0
LINE
8
BLACK
10
64420.0
20
71900.0
11
64470.0
21
71940.0
0
LINE
8
BLACK
10
64470.0
20
71940.0
11
64510.0
21
71970.0
0
LINE
8
BLACK
10
64940.0
20
71970.0
11
64940.0
21
71560.0
0
LINE
8
BLACK
10
64940.0
20
71560.0
11
64960.0
21
71520.0
0
LINE
8
BLACK
10
64960.0
20
71520.0
11
64990.0
21
71490.0
0
LINE
8
BLACK
10
64990.0
20
71490.0
11
65030.0
21
71470.0
0
LINE
8
BLACK
10
65030.0
20
71470.0
11
65130.0
21
71470.0
0
LINE
8
BLACK
10
65130.0
20
71470.0
11
65180.0
21
71490.0
0
LINE
8
BLACK
10
65180.0
20
71490.0
11
65200.0
21
71520.0
0
LINE
8
BLACK
10
65200.0
20
71520.0
11
65220.0
21
71560.0
0
LINE
8
BLACK
10
65220.0
20
71560.0
11
65220.0
21
71970.0
0
LINE
8
BLACK
10
65390.0
20
71970.0
11
65670.0
21
71970.0
0
LINE
8
BLACK
10
65530.0
20
71470.0
11
65530.0
21
71970.0
0
LINE
8
BLACK
10
66570.0
20
72270.0
11
66590.0
21
72290.0
0
LINE
8
BLACK
10
66590.0
20
72290.0
11
66640.0
21
72320.0
0
LINE
8
BLACK
10
66640.0
20
72320.0
11
66760.0
21
72320.0
0
LINE
8
BLACK
10
66760.0
20
72320.0
11
66800.0
21
72290.0
0
LINE
8
BLACK
10
66800.0
20
72290.0
11
66830.0
21
72270.0
0
LINE
8
BLACK
10
66830.0
20
72270.0
11
66850.0
21
72220.0
0
LINE
8
BLACK
10
66850.0
20
72220.0
11
66850.0
21
72170.0
0
LINE
8
BLACK
10
66850.0
20
72170.0
11
66830.0
21
72100.0
0
LINE
8
BLACK
10
66830.0
20
72100.0
11
66540.0
21
71820.0
0
LINE
8
BLACK
10
66540.0
20
71820.0
11
66850.0
21
71820.0
0
LINE
8
BLACK
10
61480.0
20
71670.0
11
60300.0
21
71670.0
0
LINE
8
BLACK
10
62000.0
20
71470.0
11
62000.0
21
71970.0
0
LINE
8
BLACK
10
62240.0
20
71470.0
11
62240.0
21
71970.0
0
LINE
8
BLACK
10
62240.0
20
71970.0
11
62520.0
21
71470.0
0
LINE
8
BLACK
10
62520.0
20
71470.0
11
62520.0
21
71970.0
0
LINE
8
BLACK
10
60720.0
20
72320.0
11
61030.0
21
72320.0
0
LINE
8
BLACK
10
61030.0
20
72320.0
11
60860.0
21
72130.0
0
LINE
8
BLACK
10
60860.0
20
72130.0
11
60940.0
21
72130.0
0
LINE
8
BLACK
10
60940.0
20
72130.0
11
60980.0
21
72100.0
0
LINE
8
BLACK
10
60980.0
20
72100.0
11
61010.0
21
72080.0
0
LINE
8
BLACK
10
61010.0
20
72080.0
11
61030.0
21
72030.0
0
LINE
8
BLACK
10
61030.0
20
72030.0
11
61030.0
21
71910.0
0
LINE
8
BLACK
10
61030.0
20
71910.0
11
61010.0
21
71870.0
0
LINE
8
BLACK
10
61010.0
20
71870.0
11
60980.0
21
71840.0
0
LINE
8
BLACK
10
60980.0
20
71840.0
11
60940.0
21
71820.0
0
LINE
8
BLACK
10
60940.0
20
71820.0
11
60790.0
21
71820.0
0
LINE
8
BLACK
10
60790.0
20
71820.0
11
60750.0
21
71840.0
0
LINE
8
BLACK
10
60750.0
20
71840.0
11
60720.0
21
71870.0
0
LINE
8
BLACK
10
61260.0
20
73660.0
11
61260.0
21
73170.0
0
LINE
8
BLACK
10
61260.0
20
73170.0
11
61290.0
21
73110.0
0
LINE
8
BLACK
10
61290.0
20
73110.0
11
61320.0
21
73090.0
0
LINE
8
BLACK
10
61320.0
20
73090.0
11
61380.0
21
73060.0
0
LINE
8
BLACK
10
61380.0
20
73060.0
11
61490.0
21
73060.0
0
LINE
8
BLACK
10
61490.0
20
73060.0
11
61550.0
21
73090.0
0
LINE
8
BLACK
10
61550.0
20
73090.0
11
61580.0
21
73110.0
0
LINE
8
BLACK
10
61580.0
20
73110.0
11
61610.0
21
73170.0
0
LINE
8
BLACK
10
61610.0
20
73170.0
11
61610.0
21
73660.0
0
LINE
8
BLACK
10
61840.0
20
73660.0
11
62210.0
21
73660.0
0
LINE
8
BLACK
10
62210.0
20
73660.0
11
62010.0
21
73430.0
0
LINE
8
BLACK
10
62010.0
20
73430.0
11
62090.0
21
73430.0
0
LINE
8
BLACK
10
62090.0
20
73430.0
11
62150.0
21
73400.0
0
LINE
8
BLACK
10
62150.0
20
73400.0
11
62180.0
21
73370.0
0
LINE
8
BLACK
10
62180.0
20
73370.0
11
62210.0
21
73310.0
0
LINE
8
BLACK
10
62210.0
20
73310.0
11
62210.0
21
73170.0
0
LINE
8
BLACK
10
62210.0
20
73170.0
11
62180.0
21
73110.0
0
LINE
8
BLACK
10
62180.0
20
73110.0
11
62150.0
21
73090.0
0
LINE
8
BLACK
10
62150.0
20
73090.0
11
62090.0
21
73060.0
0
LINE
8
BLACK
10
62090.0
20
73060.0
11
61920.0
21
73060.0
0
LINE
8
BLACK
10
61920.0
20
73060.0
11
61860.0
21
73090.0
0
LINE
8
BLACK
10
61860.0
20
73090.0
11
61840.0
21
73110.0
0
LINE
8
BLACK
10
62430.0
20
73600.0
11
62460.0
21
73630.0
0
LINE
8
BLACK
10
62460.0
20
73630.0
11
62520.0
21
73660.0
0
LINE
8
BLACK
10
62520.0
20
73660.0
11
62660.0
21
73660.0
0
LINE
8
BLACK
10
62660.0
20
73660.0
11
62720.0
21
73630.0
0
LINE
8
BLACK
10
62720.0
20
73630.0
11
62750.0
21
73600.0
0
LINE
8
BLACK
10
62750.0
20
73600.0
11
62780.0
21
73540.0
0
LINE
8
BLACK
10
62780.0
20
73540.0
11
62780.0
21
73490.0
0
LINE
8
BLACK
10
62780.0
20
73490.0
11
62750.0
21
73400.0
0
LINE
8
BLACK
10
62750.0
20
73400.0
11
62410.0
21
73060.0
0
LINE
8
BLACK
10
62410.0
20
73060.0
11
62780.0
21
73060.0
0
LINE
8
BLACK
10
59190.0
20
68830.0
11
59480.0
21
68830.0
0
LINE
8
BLACK
10
59140.0
20
68660.0
11
59340.0
21
69260.0
0
LINE
8
BLACK
10
59340.0
20
69260.0
11
59540.0
21
68660.0
0
LINE
8
BLACK
10
59730.0
20
68660.0
11
59730.0
21
69260.0
0
LINE
8
BLACK
10
59730.0
20
69260.0
11
59930.0
21
68830.0
0
LINE
8
BLACK
10
59930.0
20
68830.0
11
60130.0
21
69260.0
0
LINE
8
BLACK
10
60130.0
20
69260.0
11
60130.0
21
68660.0
0
LINE
8
BLACK
10
60390.0
20
68690.0
11
60480.0
21
68660.0
0
LINE
8
BLACK
10
60480.0
20
68660.0
11
60620.0
21
68660.0
0
LINE
8
BLACK
10
60620.0
20
68660.0
11
60680.0
21
68690.0
0
LINE
8
BLACK
10
60680.0
20
68690.0
11
60710.0
21
68710.0
0
LINE
8
BLACK
10
60710.0
20
68710.0
11
60740.0
21
68770.0
0
LINE
8
BLACK
10
60740.0
20
68770.0
11
60740.0
21
68830.0
0
LINE
8
BLACK
10
60740.0
20
68830.0
11
60710.0
21
68890.0
0
LINE
8
BLACK
10
60710.0
20
68890.0
11
60680.0
21
68910.0
0
LINE
8
BLACK
10
60680.0
20
68910.0
11
60620.0
21
68940.0
0
LINE
8
BLACK
10
60620.0
20
68940.0
11
60510.0
21
68970.0
0
LINE
8
BLACK
10
60510.0
20
68970.0
11
60450.0
21
69000.0
0
LINE
8
BLACK
10
60450.0
20
69000.0
11
60420.0
21
69030.0
0
LINE
8
BLACK
10
60420.0
20
69030.0
11
60390.0
21
69090.0
0
LINE
8
BLACK
10
60390.0
20
69090.0
11
60390.0
21
69140.0
0
LINE
8
BLACK
10
60390.0
20
69140.0
11
60420.0
21
69200.0
0
LINE
8
BLACK
10
60420.0
20
69200.0
11
60450.0
21
69230.0
0
LINE
8
BLACK
10
60450.0
20
69230.0
11
60510.0
21
69260.0
0
LINE
8
BLACK
10
60510.0
20
69260.0
11
60650.0
21
69260.0
0
LINE
8
BLACK
10
60650.0
20
69260.0
11
60740.0
21
69230.0
0
LINE
8
BLACK
10
61310.0
20
68660.0
11
60960.0
21
68660.0
0
LINE
8
BLACK
10
61140.0
20
68660.0
11
61140.0
21
69260.0
0
LINE
8
BLACK
10
61140.0
20
69260.0
11
61080.0
21
69170.0
0
LINE
8
BLACK
10
61080.0
20
69170.0
11
61020.0
21
69110.0
0
LINE
8
BLACK
10
61020.0
20
69110.0
11
60960.0
21
69090.0
0
LINE
8
BLACK
10
61880.0
20
68660.0
11
61530.0
21
68660.0
0
LINE
8
BLACK
10
61710.0
20
68660.0
11
61710.0
21
69260.0
0
LINE
8
BLACK
10
61710.0
20
69260.0
11
61650.0
21
69170.0
0
LINE
8
BLACK
10
61650.0
20
69170.0
11
61590.0
21
69110.0
0
LINE
8
BLACK
10
61590.0
20
69110.0
11
61530.0
21
69090.0
0
LINE
8
BLACK
10
62450.0
20
68660.0
11
62100.0
21
68660.0
0
LINE
8
BLACK
10
62280.0
20
68660.0
11
62280.0
21
69260.0
0
LINE
8
BLACK
10
62280.0
20
69260.0
11
62220.0
21
69170.0
0
LINE
8
BLACK
10
62220.0
20
69170.0
11
62160.0
21
69110.0
0
LINE
8
BLACK
10
62160.0
20
69110.0
11
62100.0
21
69090.0
0
LINE
8
BLACK
10
62650.0
20
69260.0
11
63050.0
21
69260.0
0
LINE
8
BLACK
10
63050.0
20
69260.0
11
62790.0
21
68660.0
0
LINE
8
BLACK
10
68500.0
20
68670.0
11
69500.0
21
68670.0
0
LINE
8
BLACK
10
68500.0
20
67670.0
11
69000.0
21
68670.0
0
LINE
8
BLACK
10
69000.0
20
68670.0
11
69500.0
21
67670.0
0
LINE
8
BLACK
10
69500.0
20
67670.0
11
68500.0
21
67670.0
0
LINE
8
BLACK
10
69000.0
20
67670.0
11
69000.0
21
66170.0
0
LINE
8
BLACK
10
69000.0
20
68670.0
11
69000.0
21
70170.0
0
LINE
8
BLACK
10
68130.0
20
67880.0
11
67730.0
21
67880.0
0
LINE
8
BLACK
10
67730.0
20
67880.0
11
67730.0
21
67970.0
0
LINE
8
BLACK
10
67730.0
20
67970.0
11
67750.0
21
68030.0
0
LINE
8
BLACK
10
67750.0
20
68030.0
11
67790.0
21
68070.0
0
LINE
8
BLACK
10
67790.0
20
68070.0
11
67830.0
21
68080.0
0
LINE
8
BLACK
10
67830.0
20
68080.0
11
67900.0
21
68100.0
0
LINE
8
BLACK
10
67900.0
20
68100.0
11
67960.0
21
68100.0
0
LINE
8
BLACK
10
67960.0
20
68100.0
11
68040.0
21
68080.0
0
LINE
8
BLACK
10
68040.0
20
68080.0
11
68070.0
21
68070.0
0
LINE
8
BLACK
10
68070.0
20
68070.0
11
68110.0
21
68030.0
0
LINE
8
BLACK
10
68110.0
20
68030.0
11
68130.0
21
67970.0
0
LINE
8
BLACK
10
68130.0
20
67970.0
11
68130.0
21
67880.0
0
LINE
8
BLACK
10
67730.0
20
68470.0
11
67730.0
21
68280.0
0
LINE
8
BLACK
10
67730.0
20
68280.0
11
67920.0
21
68260.0
0
LINE
8
BLACK
10
67920.0
20
68260.0
11
67900.0
21
68280.0
0
LINE
8
BLACK
10
67900.0
20
68280.0
11
67880.0
21
68310.0
0
LINE
8
BLACK
10
67880.0
20
68310.0
11
67880.0
21
68410.0
0
LINE
8
BLACK
10
67880.0
20
68410.0
11
67900.0
21
68450.0
0
LINE
8
BLACK
10
67900.0
20
68450.0
11
67920.0
21
68470.0
0
LINE
8
BLACK
10
67920.0
20
68470.0
11
67960.0
21
68480.0
0
LINE
8
BLACK
10
67960.0
20
68480.0
11
68060.0
21
68480.0
0
LINE
8
BLACK
10
68060.0
20
68480.0
11
68090.0
21
68470.0
0
LINE
8
BLACK
10
68090.0
20
68470.0
11
68110.0
21
68450.0
0
LINE
8
BLACK
10
68110.0
20
68450.0
11
68130.0
21
68410.0
0
LINE
8
BLACK
10
68130.0
20
68410.0
11
68130.0
21
68310.0
0
LINE
8
BLACK
10
68130.0
20
68310.0
11
68110.0
21
68280.0
0
LINE
8
BLACK
10
68110.0
20
68280.0
11
68090.0
21
68260.0
0
LINE
8
BLACK
10
44500.0
20
68670.0
11
45500.0
21
68670.0
0
LINE
8
BLACK
10
44500.0
20
67670.0
11
45000.0
21
68670.0
0
LINE
8
BLACK
10
45000.0
20
68670.0
11
45500.0
21
67670.0
0
LINE
8
BLACK
10
45500.0
20
67670.0
11
44500.0
21
67670.0
0
LINE
8
BLACK
10
45000.0
20
67670.0
11
45000.0
21
66170.0
0
LINE
8
BLACK
10
45000.0
20
68670.0
11
45000.0
21
70170.0
0
LINE
8
BLACK
10
44130.0
20
67880.0
11
43730.0
21
67880.0
0
LINE
8
BLACK
10
43730.0
20
67880.0
11
43730.0
21
67970.0
0
LINE
8
BLACK
10
43730.0
20
67970.0
11
43750.0
21
68030.0
0
LINE
8
BLACK
10
43750.0
20
68030.0
11
43790.0
21
68070.0
0
LINE
8
BLACK
10
43790.0
20
68070.0
11
43830.0
21
68080.0
0
LINE
8
BLACK
10
43830.0
20
68080.0
11
43900.0
21
68100.0
0
LINE
8
BLACK
10
43900.0
20
68100.0
11
43960.0
21
68100.0
0
LINE
8
BLACK
10
43960.0
20
68100.0
11
44040.0
21
68080.0
0
LINE
8
BLACK
10
44040.0
20
68080.0
11
44070.0
21
68070.0
0
LINE
8
BLACK
10
44070.0
20
68070.0
11
44110.0
21
68030.0
0
LINE
8
BLACK
10
44110.0
20
68030.0
11
44130.0
21
67970.0
0
LINE
8
BLACK
10
44130.0
20
67970.0
11
44130.0
21
67880.0
0
LINE
8
BLACK
10
43870.0
20
68450.0
11
44130.0
21
68450.0
0
LINE
8
BLACK
10
43710.0
20
68350.0
11
44000.0
21
68260.0
0
LINE
8
BLACK
10
44000.0
20
68260.0
11
44000.0
21
68500.0
0
LINE
8
BLACK
10
24500.0
20
69670.0
11
25500.0
21
69670.0
0
LINE
8
BLACK
10
24500.0
20
68670.0
11
25000.0
21
69670.0
0
LINE
8
BLACK
10
25000.0
20
69670.0
11
25500.0
21
68670.0
0
LINE
8
BLACK
10
25500.0
20
68670.0
11
24500.0
21
68670.0
0
LINE
8
BLACK
10
25000.0
20
68670.0
11
25000.0
21
67170.0
0
LINE
8
BLACK
10
25000.0
20
69670.0
11
25000.0
21
71170.0
0
LINE
8
BLACK
10
24130.0
20
68880.0
11
23730.0
21
68880.0
0
LINE
8
BLACK
10
23730.0
20
68880.0
11
23730.0
21
68970.0
0
LINE
8
BLACK
10
23730.0
20
68970.0
11
23750.0
21
69030.0
0
LINE
8
BLACK
10
23750.0
20
69030.0
11
23790.0
21
69070.0
0
LINE
8
BLACK
10
23790.0
20
69070.0
11
23830.0
21
69080.0
0
LINE
8
BLACK
10
23830.0
20
69080.0
11
23900.0
21
69100.0
0
LINE
8
BLACK
10
23900.0
20
69100.0
11
23960.0
21
69100.0
0
LINE
8
BLACK
10
23960.0
20
69100.0
11
24040.0
21
69080.0
0
LINE
8
BLACK
10
24040.0
20
69080.0
11
24070.0
21
69070.0
0
LINE
8
BLACK
10
24070.0
20
69070.0
11
24110.0
21
69030.0
0
LINE
8
BLACK
10
24110.0
20
69030.0
11
24130.0
21
68970.0
0
LINE
8
BLACK
10
24130.0
20
68970.0
11
24130.0
21
68880.0
0
LINE
8
BLACK
10
23730.0
20
69240.0
11
23730.0
21
69480.0
0
LINE
8
BLACK
10
23730.0
20
69480.0
11
23880.0
21
69350.0
0
LINE
8
BLACK
10
23880.0
20
69350.0
11
23880.0
21
69410.0
0
LINE
8
BLACK
10
23880.0
20
69410.0
11
23900.0
21
69450.0
0
LINE
8
BLACK
10
23900.0
20
69450.0
11
23920.0
21
69470.0
0
LINE
8
BLACK
10
23920.0
20
69470.0
11
23960.0
21
69480.0
0
LINE
8
BLACK
10
23960.0
20
69480.0
11
24060.0
21
69480.0
0
LINE
8
BLACK
10
24060.0
20
69480.0
11
24090.0
21
69470.0
0
LINE
8
BLACK
10
24090.0
20
69470.0
11
24110.0
21
69450.0
0
LINE
8
BLACK
10
24110.0
20
69450.0
11
24130.0
21
69410.0
0
LINE
8
BLACK
10
24130.0
20
69410.0
11
24130.0
21
69290.0
0
LINE
8
BLACK
10
24130.0
20
69290.0
11
24110.0
21
69260.0
0
LINE
8
BLACK
10
24110.0
20
69260.0
11
24090.0
21
69240.0
0
LINE
8
BLACK
10
77000.0
20
35870.0
11
79000.0
21
35870.0
0
LINE
8
BLACK
10
77000.0
20
36470.0
11
79000.0
21
36470.0
0
LINE
8
BLACK
10
78000.0
20
36470.0
11
78000.0
21
38170.0
0
LINE
8
BLACK
10
78000.0
20
35870.0
11
78000.0
21
34170.0
0
LINE
8
BLACK
10
78900.0
20
37050.0
11
78880.0
21
37020.0
0
LINE
8
BLACK
10
78880.0
20
37020.0
11
78810.0
21
37000.0
0
LINE
8
BLACK
10
78810.0
20
37000.0
11
78760.0
21
37000.0
0
LINE
8
BLACK
10
78760.0
20
37000.0
11
78690.0
21
37020.0
0
LINE
8
BLACK
10
78690.0
20
37020.0
11
78640.0
21
37070.0
0
LINE
8
BLACK
10
78640.0
20
37070.0
11
78620.0
21
37120.0
0
LINE
8
BLACK
10
78620.0
20
37120.0
11
78600.0
21
37210.0
0
LINE
8
BLACK
10
78600.0
20
37210.0
11
78600.0
21
37280.0
0
LINE
8
BLACK
10
78600.0
20
37280.0
11
78620.0
21
37380.0
0
LINE
8
BLACK
10
78620.0
20
37380.0
11
78640.0
21
37430.0
0
LINE
8
BLACK
10
78640.0
20
37430.0
11
78690.0
21
37470.0
0
LINE
8
BLACK
10
78690.0
20
37470.0
11
78760.0
21
37500.0
0
LINE
8
BLACK
10
78760.0
20
37500.0
11
78810.0
21
37500.0
0
LINE
8
BLACK
10
78810.0
20
37500.0
11
78880.0
21
37470.0
0
LINE
8
BLACK
10
78880.0
20
37470.0
11
78900.0
21
37450.0
0
LINE
8
BLACK
10
79380.0
20
37000.0
11
79100.0
21
37000.0
0
LINE
8
BLACK
10
79240.0
20
37000.0
11
79240.0
21
37500.0
0
LINE
8
BLACK
10
79240.0
20
37500.0
11
79190.0
21
37430.0
0
LINE
8
BLACK
10
79190.0
20
37430.0
11
79140.0
21
37380.0
0
LINE
8
BLACK
10
79140.0
20
37380.0
11
79100.0
21
37350.0
0
LINE
8
BLACK
10
79670.0
20
37280.0
11
79620.0
21
37310.0
0
LINE
8
BLACK
10
79620.0
20
37310.0
11
79600.0
21
37330.0
0
LINE
8
BLACK
10
79600.0
20
37330.0
11
79580.0
21
37380.0
0
LINE
8
BLACK
10
79580.0
20
37380.0
11
79580.0
21
37400.0
0
LINE
8
BLACK
10
79580.0
20
37400.0
11
79600.0
21
37450.0
0
LINE
8
BLACK
10
79600.0
20
37450.0
11
79620.0
21
37470.0
0
LINE
8
BLACK
10
79620.0
20
37470.0
11
79670.0
21
37500.0
0
LINE
8
BLACK
10
79670.0
20
37500.0
11
79770.0
21
37500.0
0
LINE
8
BLACK
10
79770.0
20
37500.0
11
79810.0
21
37470.0
0
LINE
8
BLACK
10
79810.0
20
37470.0
11
79840.0
21
37450.0
0
LINE
8
BLACK
10
79840.0
20
37450.0
11
79860.0
21
37400.0
0
LINE
8
BLACK
10
79860.0
20
37400.0
11
79860.0
21
37380.0
0
LINE
8
BLACK
10
79860.0
20
37380.0
11
79840.0
21
37330.0
0
LINE
8
BLACK
10
79840.0
20
37330.0
11
79810.0
21
37310.0
0
LINE
8
BLACK
10
79810.0
20
37310.0
11
79770.0
21
37280.0
0
LINE
8
BLACK
10
79770.0
20
37280.0
11
79670.0
21
37280.0
0
LINE
8
BLACK
10
79670.0
20
37280.0
11
79620.0
21
37260.0
0
LINE
8
BLACK
10
79620.0
20
37260.0
11
79600.0
21
37240.0
0
LINE
8
BLACK
10
79600.0
20
37240.0
11
79580.0
21
37190.0
0
LINE
8
BLACK
10
79580.0
20
37190.0
11
79580.0
21
37090.0
0
LINE
8
BLACK
10
79580.0
20
37090.0
11
79600.0
21
37050.0
0
LINE
8
BLACK
10
79600.0
20
37050.0
11
79620.0
21
37020.0
0
LINE
8
BLACK
10
79620.0
20
37020.0
11
79670.0
21
37000.0
0
LINE
8
BLACK
10
79670.0
20
37000.0
11
79770.0
21
37000.0
0
LINE
8
BLACK
10
79770.0
20
37000.0
11
79810.0
21
37020.0
0
LINE
8
BLACK
10
79810.0
20
37020.0
11
79840.0
21
37050.0
0
LINE
8
BLACK
10
79840.0
20
37050.0
11
79860.0
21
37090.0
0
LINE
8
BLACK
10
79860.0
20
37090.0
11
79860.0
21
37190.0
0
LINE
8
BLACK
10
79860.0
20
37190.0
11
79840.0
21
37240.0
0
LINE
8
BLACK
10
79840.0
20
37240.0
11
79810.0
21
37260.0
0
LINE
8
BLACK
10
79810.0
20
37260.0
11
79770.0
21
37280.0
0
LINE
8
BLACK
10
78710.0
20
35500.0
11
78760.0
21
35500.0
0
LINE
8
BLACK
10
78760.0
20
35500.0
11
78810.0
21
35470.0
0
LINE
8
BLACK
10
78810.0
20
35470.0
11
78830.0
21
35450.0
0
LINE
8
BLACK
10
78830.0
20
35450.0
11
78860.0
21
35400.0
0
LINE
8
BLACK
10
78860.0
20
35400.0
11
78880.0
21
35310.0
0
LINE
8
BLACK
10
78880.0
20
35310.0
11
78880.0
21
35190.0
0
LINE
8
BLACK
10
78880.0
20
35190.0
11
78860.0
21
35090.0
0
LINE
8
BLACK
10
78860.0
20
35090.0
11
78830.0
21
35050.0
0
LINE
8
BLACK
10
78830.0
20
35050.0
11
78810.0
21
35020.0
0
LINE
8
BLACK
10
78810.0
20
35020.0
11
78760.0
21
35000.0
0
LINE
8
BLACK
10
78760.0
20
35000.0
11
78710.0
21
35000.0
0
LINE
8
BLACK
10
78710.0
20
35000.0
11
78670.0
21
35020.0
0
LINE
8
BLACK
10
78670.0
20
35020.0
11
78640.0
21
35050.0
0
LINE
8
BLACK
10
78640.0
20
35050.0
11
78620.0
21
35090.0
0
LINE
8
BLACK
10
78620.0
20
35090.0
11
78600.0
21
35190.0
0
LINE
8
BLACK
10
78600.0
20
35190.0
11
78600.0
21
35310.0
0
LINE
8
BLACK
10
78600.0
20
35310.0
11
78620.0
21
35400.0
0
LINE
8
BLACK
10
78620.0
20
35400.0
11
78640.0
21
35450.0
0
LINE
8
BLACK
10
78640.0
20
35450.0
11
78670.0
21
35470.0
0
LINE
8
BLACK
10
78670.0
20
35470.0
11
78710.0
21
35500.0
0
LINE
8
BLACK
10
79100.0
20
35050.0
11
79120.0
21
35020.0
0
LINE
8
BLACK
10
79120.0
20
35020.0
11
79100.0
21
35000.0
0
LINE
8
BLACK
10
79100.0
20
35000.0
11
79080.0
21
35020.0
0
LINE
8
BLACK
10
79080.0
20
35020.0
11
79100.0
21
35050.0
0
LINE
8
BLACK
10
79100.0
20
35050.0
11
79100.0
21
35000.0
0
LINE
8
BLACK
10
79600.0
20
35000.0
11
79320.0
21
35000.0
0
LINE
8
BLACK
10
79460.0
20
35000.0
11
79460.0
21
35500.0
0
LINE
8
BLACK
10
79460.0
20
35500.0
11
79410.0
21
35430.0
0
LINE
8
BLACK
10
79410.0
20
35430.0
11
79360.0
21
35380.0
0
LINE
8
BLACK
10
79360.0
20
35380.0
11
79320.0
21
35350.0
0
LINE
8
BLACK
10
80030.0
20
35330.0
11
80030.0
21
35000.0
0
LINE
8
BLACK
10
79820.0
20
35330.0
11
79820.0
21
35070.0
0
LINE
8
BLACK
10
79820.0
20
35070.0
11
79840.0
21
35020.0
0
LINE
8
BLACK
10
79840.0
20
35020.0
11
79890.0
21
35000.0
0
LINE
8
BLACK
10
79890.0
20
35000.0
11
79960.0
21
35000.0
0
LINE
8
BLACK
10
79960.0
20
35000.0
11
80010.0
21
35020.0
0
LINE
8
BLACK
10
80010.0
20
35020.0
11
80030.0
21
35050.0
0
LINE
8
BLACK
10
80200.0
20
35330.0
11
80390.0
21
35330.0
0
LINE
8
BLACK
10
80270.0
20
35000.0
11
80270.0
21
35430.0
0
LINE
8
BLACK
10
80270.0
20
35430.0
11
80290.0
21
35470.0
0
LINE
8
BLACK
10
80290.0
20
35470.0
11
80340.0
21
35500.0
0
LINE
8
BLACK
10
80340.0
20
35500.0
11
80390.0
21
35500.0
0
LINE
8
BLACK
10
73500.0
20
35870.0
11
75500.0
21
35870.0
0
LINE
8
BLACK
10
73500.0
20
36470.0
11
75500.0
21
36470.0
0
LINE
8
BLACK
10
74500.0
20
36470.0
11
74500.0
21
38170.0
0
LINE
8
BLACK
10
74500.0
20
35870.0
11
74500.0
21
34170.0
0
LINE
8
BLACK
10
75400.0
20
37050.0
11
75380.0
21
37020.0
0
LINE
8
BLACK
10
75380.0
20
37020.0
11
75310.0
21
37000.0
0
LINE
8
BLACK
10
75310.0
20
37000.0
11
75260.0
21
37000.0
0
LINE
8
BLACK
10
75260.0
20
37000.0
11
75190.0
21
37020.0
0
LINE
8
BLACK
10
75190.0
20
37020.0
11
75140.0
21
37070.0
0
LINE
8
BLACK
10
75140.0
20
37070.0
11
75120.0
21
37120.0
0
LINE
8
BLACK
10
75120.0
20
37120.0
11
75100.0
21
37210.0
0
LINE
8
BLACK
10
75100.0
20
37210.0
11
75100.0
21
37280.0
0
LINE
8
BLACK
10
75100.0
20
37280.0
11
75120.0
21
37380.0
0
LINE
8
BLACK
10
75120.0
20
37380.0
11
75140.0
21
37430.0
0
LINE
8
BLACK
10
75140.0
20
37430.0
11
75190.0
21
37470.0
0
LINE
8
BLACK
10
75190.0
20
37470.0
11
75260.0
21
37500.0
0
LINE
8
BLACK
10
75260.0
20
37500.0
11
75310.0
21
37500.0
0
LINE
8
BLACK
10
75310.0
20
37500.0
11
75380.0
21
37470.0
0
LINE
8
BLACK
10
75380.0
20
37470.0
11
75400.0
21
37450.0
0
LINE
8
BLACK
10
75880.0
20
37000.0
11
75600.0
21
37000.0
0
LINE
8
BLACK
10
75740.0
20
37000.0
11
75740.0
21
37500.0
0
LINE
8
BLACK
10
75740.0
20
37500.0
11
75690.0
21
37430.0
0
LINE
8
BLACK
10
75690.0
20
37430.0
11
75640.0
21
37380.0
0
LINE
8
BLACK
10
75640.0
20
37380.0
11
75600.0
21
37350.0
0
LINE
8
BLACK
10
76050.0
20
37500.0
11
76380.0
21
37500.0
0
LINE
8
BLACK
10
76380.0
20
37500.0
11
76170.0
21
37000.0
0
LINE
8
BLACK
10
75210.0
20
35500.0
11
75260.0
21
35500.0
0
LINE
8
BLACK
10
75260.0
20
35500.0
11
75310.0
21
35470.0
0
LINE
8
BLACK
10
75310.0
20
35470.0
11
75330.0
21
35450.0
0
LINE
8
BLACK
10
75330.0
20
35450.0
11
75360.0
21
35400.0
0
LINE
8
BLACK
10
75360.0
20
35400.0
11
75380.0
21
35310.0
0
LINE
8
BLACK
10
75380.0
20
35310.0
11
75380.0
21
35190.0
0
LINE
8
BLACK
10
75380.0
20
35190.0
11
75360.0
21
35090.0
0
LINE
8
BLACK
10
75360.0
20
35090.0
11
75330.0
21
35050.0
0
LINE
8
BLACK
10
75330.0
20
35050.0
11
75310.0
21
35020.0
0
LINE
8
BLACK
10
75310.0
20
35020.0
11
75260.0
21
35000.0
0
LINE
8
BLACK
10
75260.0
20
35000.0
11
75210.0
21
35000.0
0
LINE
8
BLACK
10
75210.0
20
35000.0
11
75170.0
21
35020.0
0
LINE
8
BLACK
10
75170.0
20
35020.0
11
75140.0
21
35050.0
0
LINE
8
BLACK
10
75140.0
20
35050.0
11
75120.0
21
35090.0
0
LINE
8
BLACK
10
75120.0
20
35090.0
11
75100.0
21
35190.0
0
LINE
8
BLACK
10
75100.0
20
35190.0
11
75100.0
21
35310.0
0
LINE
8
BLACK
10
75100.0
20
35310.0
11
75120.0
21
35400.0
0
LINE
8
BLACK
10
75120.0
20
35400.0
11
75140.0
21
35450.0
0
LINE
8
BLACK
10
75140.0
20
35450.0
11
75170.0
21
35470.0
0
LINE
8
BLACK
10
75170.0
20
35470.0
11
75210.0
21
35500.0
0
LINE
8
BLACK
10
75600.0
20
35050.0
11
75620.0
21
35020.0
0
LINE
8
BLACK
10
75620.0
20
35020.0
11
75600.0
21
35000.0
0
LINE
8
BLACK
10
75600.0
20
35000.0
11
75580.0
21
35020.0
0
LINE
8
BLACK
10
75580.0
20
35020.0
11
75600.0
21
35050.0
0
LINE
8
BLACK
10
75600.0
20
35050.0
11
75600.0
21
35000.0
0
LINE
8
BLACK
10
76100.0
20
35000.0
11
75820.0
21
35000.0
0
LINE
8
BLACK
10
75960.0
20
35000.0
11
75960.0
21
35500.0
0
LINE
8
BLACK
10
75960.0
20
35500.0
11
75910.0
21
35430.0
0
LINE
8
BLACK
10
75910.0
20
35430.0
11
75860.0
21
35380.0
0
LINE
8
BLACK
10
75860.0
20
35380.0
11
75820.0
21
35350.0
0
LINE
8
BLACK
10
76530.0
20
35330.0
11
76530.0
21
35000.0
0
LINE
8
BLACK
10
76320.0
20
35330.0
11
76320.0
21
35070.0
0
LINE
8
BLACK
10
76320.0
20
35070.0
11
76340.0
21
35020.0
0
LINE
8
BLACK
10
76340.0
20
35020.0
11
76390.0
21
35000.0
0
LINE
8
BLACK
10
76390.0
20
35000.0
11
76460.0
21
35000.0
0
LINE
8
BLACK
10
76460.0
20
35000.0
11
76510.0
21
35020.0
0
LINE
8
BLACK
10
76510.0
20
35020.0
11
76530.0
21
35050.0
0
LINE
8
BLACK
10
76700.0
20
35330.0
11
76890.0
21
35330.0
0
LINE
8
BLACK
10
76770.0
20
35000.0
11
76770.0
21
35430.0
0
LINE
8
BLACK
10
76770.0
20
35430.0
11
76790.0
21
35470.0
0
LINE
8
BLACK
10
76790.0
20
35470.0
11
76840.0
21
35500.0
0
LINE
8
BLACK
10
76840.0
20
35500.0
11
76890.0
21
35500.0
0
LINE
8
BLACK
10
68500.0
20
35870.0
11
70500.0
21
35870.0
0
LINE
8
BLACK
10
68500.0
20
36470.0
11
70500.0
21
36470.0
0
LINE
8
BLACK
10
69500.0
20
36470.0
11
69500.0
21
38170.0
0
LINE
8
BLACK
10
69500.0
20
35870.0
11
69500.0
21
34170.0
0
LINE
8
BLACK
10
70400.0
20
37050.0
11
70380.0
21
37020.0
0
LINE
8
BLACK
10
70380.0
20
37020.0
11
70310.0
21
37000.0
0
LINE
8
BLACK
10
70310.0
20
37000.0
11
70260.0
21
37000.0
0
LINE
8
BLACK
10
70260.0
20
37000.0
11
70190.0
21
37020.0
0
LINE
8
BLACK
10
70190.0
20
37020.0
11
70140.0
21
37070.0
0
LINE
8
BLACK
10
70140.0
20
37070.0
11
70120.0
21
37120.0
0
LINE
8
BLACK
10
70120.0
20
37120.0
11
70100.0
21
37210.0
0
LINE
8
BLACK
10
70100.0
20
37210.0
11
70100.0
21
37280.0
0
LINE
8
BLACK
10
70100.0
20
37280.0
11
70120.0
21
37380.0
0
LINE
8
BLACK
10
70120.0
20
37380.0
11
70140.0
21
37430.0
0
LINE
8
BLACK
10
70140.0
20
37430.0
11
70190.0
21
37470.0
0
LINE
8
BLACK
10
70190.0
20
37470.0
11
70260.0
21
37500.0
0
LINE
8
BLACK
10
70260.0
20
37500.0
11
70310.0
21
37500.0
0
LINE
8
BLACK
10
70310.0
20
37500.0
11
70380.0
21
37470.0
0
LINE
8
BLACK
10
70380.0
20
37470.0
11
70400.0
21
37450.0
0
LINE
8
BLACK
10
70880.0
20
37000.0
11
70600.0
21
37000.0
0
LINE
8
BLACK
10
70740.0
20
37000.0
11
70740.0
21
37500.0
0
LINE
8
BLACK
10
70740.0
20
37500.0
11
70690.0
21
37430.0
0
LINE
8
BLACK
10
70690.0
20
37430.0
11
70640.0
21
37380.0
0
LINE
8
BLACK
10
70640.0
20
37380.0
11
70600.0
21
37350.0
0
LINE
8
BLACK
10
71310.0
20
37500.0
11
71220.0
21
37500.0
0
LINE
8
BLACK
10
71220.0
20
37500.0
11
71170.0
21
37470.0
0
LINE
8
BLACK
10
71170.0
20
37470.0
11
71150.0
21
37450.0
0
LINE
8
BLACK
10
71150.0
20
37450.0
11
71100.0
21
37380.0
0
LINE
8
BLACK
10
71100.0
20
37380.0
11
71080.0
21
37280.0
0
LINE
8
BLACK
10
71080.0
20
37280.0
11
71080.0
21
37090.0
0
LINE
8
BLACK
10
71080.0
20
37090.0
11
71100.0
21
37050.0
0
LINE
8
BLACK
10
71100.0
20
37050.0
11
71120.0
21
37020.0
0
LINE
8
BLACK
10
71120.0
20
37020.0
11
71170.0
21
37000.0
0
LINE
8
BLACK
10
71170.0
20
37000.0
11
71270.0
21
37000.0
0
LINE
8
BLACK
10
71270.0
20
37000.0
11
71310.0
21
37020.0
0
LINE
8
BLACK
10
71310.0
20
37020.0
11
71340.0
21
37050.0
0
LINE
8
BLACK
10
71340.0
20
37050.0
11
71360.0
21
37090.0
0
LINE
8
BLACK
10
71360.0
20
37090.0
11
71360.0
21
37210.0
0
LINE
8
BLACK
10
71360.0
20
37210.0
11
71340.0
21
37260.0
0
LINE
8
BLACK
10
71340.0
20
37260.0
11
71310.0
21
37280.0
0
LINE
8
BLACK
10
71310.0
20
37280.0
11
71270.0
21
37310.0
0
LINE
8
BLACK
10
71270.0
20
37310.0
11
71170.0
21
37310.0
0
LINE
8
BLACK
10
71170.0
20
37310.0
11
71120.0
21
37280.0
0
LINE
8
BLACK
10
71120.0
20
37280.0
11
71100.0
21
37260.0
0
LINE
8
BLACK
10
71100.0
20
37260.0
11
71080.0
21
37210.0
0
LINE
8
BLACK
10
70210.0
20
35500.0
11
70260.0
21
35500.0
0
LINE
8
BLACK
10
70260.0
20
35500.0
11
70310.0
21
35470.0
0
LINE
8
BLACK
10
70310.0
20
35470.0
11
70330.0
21
35450.0
0
LINE
8
BLACK
10
70330.0
20
35450.0
11
70360.0
21
35400.0
0
LINE
8
BLACK
10
70360.0
20
35400.0
11
70380.0
21
35310.0
0
LINE
8
BLACK
10
70380.0
20
35310.0
11
70380.0
21
35190.0
0
LINE
8
BLACK
10
70380.0
20
35190.0
11
70360.0
21
35090.0
0
LINE
8
BLACK
10
70360.0
20
35090.0
11
70330.0
21
35050.0
0
LINE
8
BLACK
10
70330.0
20
35050.0
11
70310.0
21
35020.0
0
LINE
8
BLACK
10
70310.0
20
35020.0
11
70260.0
21
35000.0
0
LINE
8
BLACK
10
70260.0
20
35000.0
11
70210.0
21
35000.0
0
LINE
8
BLACK
10
70210.0
20
35000.0
11
70170.0
21
35020.0
0
LINE
8
BLACK
10
70170.0
20
35020.0
11
70140.0
21
35050.0
0
LINE
8
BLACK
10
70140.0
20
35050.0
11
70120.0
21
35090.0
0
LINE
8
BLACK
10
70120.0
20
35090.0
11
70100.0
21
35190.0
0
LINE
8
BLACK
10
70100.0
20
35190.0
11
70100.0
21
35310.0
0
LINE
8
BLACK
10
70100.0
20
35310.0
11
70120.0
21
35400.0
0
LINE
8
BLACK
10
70120.0
20
35400.0
11
70140.0
21
35450.0
0
LINE
8
BLACK
10
70140.0
20
35450.0
11
70170.0
21
35470.0
0
LINE
8
BLACK
10
70170.0
20
35470.0
11
70210.0
21
35500.0
0
LINE
8
BLACK
10
70600.0
20
35050.0
11
70620.0
21
35020.0
0
LINE
8
BLACK
10
70620.0
20
35020.0
11
70600.0
21
35000.0
0
LINE
8
BLACK
10
70600.0
20
35000.0
11
70580.0
21
35020.0
0
LINE
8
BLACK
10
70580.0
20
35020.0
11
70600.0
21
35050.0
0
LINE
8
BLACK
10
70600.0
20
35050.0
11
70600.0
21
35000.0
0
LINE
8
BLACK
10
71100.0
20
35000.0
11
70820.0
21
35000.0
0
LINE
8
BLACK
10
70960.0
20
35000.0
11
70960.0
21
35500.0
0
LINE
8
BLACK
10
70960.0
20
35500.0
11
70910.0
21
35430.0
0
LINE
8
BLACK
10
70910.0
20
35430.0
11
70860.0
21
35380.0
0
LINE
8
BLACK
10
70860.0
20
35380.0
11
70820.0
21
35350.0
0
LINE
8
BLACK
10
71530.0
20
35330.0
11
71530.0
21
35000.0
0
LINE
8
BLACK
10
71320.0
20
35330.0
11
71320.0
21
35070.0
0
LINE
8
BLACK
10
71320.0
20
35070.0
11
71340.0
21
35020.0
0
LINE
8
BLACK
10
71340.0
20
35020.0
11
71390.0
21
35000.0
0
LINE
8
BLACK
10
71390.0
20
35000.0
11
71460.0
21
35000.0
0
LINE
8
BLACK
10
71460.0
20
35000.0
11
71510.0
21
35020.0
0
LINE
8
BLACK
10
71510.0
20
35020.0
11
71530.0
21
35050.0
0
LINE
8
BLACK
10
71700.0
20
35330.0
11
71890.0
21
35330.0
0
LINE
8
BLACK
10
71770.0
20
35000.0
11
71770.0
21
35430.0
0
LINE
8
BLACK
10
71770.0
20
35430.0
11
71790.0
21
35470.0
0
LINE
8
BLACK
10
71790.0
20
35470.0
11
71840.0
21
35500.0
0
LINE
8
BLACK
10
71840.0
20
35500.0
11
71890.0
21
35500.0
0
LINE
8
BLACK
10
63000.0
20
35870.0
11
65000.0
21
35870.0
0
LINE
8
BLACK
10
63000.0
20
36470.0
11
65000.0
21
36470.0
0
LINE
8
BLACK
10
64000.0
20
36470.0
11
64000.0
21
38170.0
0
LINE
8
BLACK
10
64000.0
20
35870.0
11
64000.0
21
34170.0
0
LINE
8
BLACK
10
64900.0
20
37050.0
11
64880.0
21
37020.0
0
LINE
8
BLACK
10
64880.0
20
37020.0
11
64810.0
21
37000.0
0
LINE
8
BLACK
10
64810.0
20
37000.0
11
64760.0
21
37000.0
0
LINE
8
BLACK
10
64760.0
20
37000.0
11
64690.0
21
37020.0
0
LINE
8
BLACK
10
64690.0
20
37020.0
11
64640.0
21
37070.0
0
LINE
8
BLACK
10
64640.0
20
37070.0
11
64620.0
21
37120.0
0
LINE
8
BLACK
10
64620.0
20
37120.0
11
64600.0
21
37210.0
0
LINE
8
BLACK
10
64600.0
20
37210.0
11
64600.0
21
37280.0
0
LINE
8
BLACK
10
64600.0
20
37280.0
11
64620.0
21
37380.0
0
LINE
8
BLACK
10
64620.0
20
37380.0
11
64640.0
21
37430.0
0
LINE
8
BLACK
10
64640.0
20
37430.0
11
64690.0
21
37470.0
0
LINE
8
BLACK
10
64690.0
20
37470.0
11
64760.0
21
37500.0
0
LINE
8
BLACK
10
64760.0
20
37500.0
11
64810.0
21
37500.0
0
LINE
8
BLACK
10
64810.0
20
37500.0
11
64880.0
21
37470.0
0
LINE
8
BLACK
10
64880.0
20
37470.0
11
64900.0
21
37450.0
0
LINE
8
BLACK
10
65380.0
20
37000.0
11
65100.0
21
37000.0
0
LINE
8
BLACK
10
65240.0
20
37000.0
11
65240.0
21
37500.0
0
LINE
8
BLACK
10
65240.0
20
37500.0
11
65190.0
21
37430.0
0
LINE
8
BLACK
10
65190.0
20
37430.0
11
65140.0
21
37380.0
0
LINE
8
BLACK
10
65140.0
20
37380.0
11
65100.0
21
37350.0
0
LINE
8
BLACK
10
65840.0
20
37500.0
11
65600.0
21
37500.0
0
LINE
8
BLACK
10
65600.0
20
37500.0
11
65580.0
21
37260.0
0
LINE
8
BLACK
10
65580.0
20
37260.0
11
65600.0
21
37280.0
0
LINE
8
BLACK
10
65600.0
20
37280.0
11
65650.0
21
37310.0
0
LINE
8
BLACK
10
65650.0
20
37310.0
11
65770.0
21
37310.0
0
LINE
8
BLACK
10
65770.0
20
37310.0
11
65810.0
21
37280.0
0
LINE
8
BLACK
10
65810.0
20
37280.0
11
65840.0
21
37260.0
0
LINE
8
BLACK
10
65840.0
20
37260.0
11
65860.0
21
37210.0
0
LINE
8
BLACK
10
65860.0
20
37210.0
11
65860.0
21
37090.0
0
LINE
8
BLACK
10
65860.0
20
37090.0
11
65840.0
21
37050.0
0
LINE
8
BLACK
10
65840.0
20
37050.0
11
65810.0
21
37020.0
0
LINE
8
BLACK
10
65810.0
20
37020.0
11
65770.0
21
37000.0
0
LINE
8
BLACK
10
65770.0
20
37000.0
11
65650.0
21
37000.0
0
LINE
8
BLACK
10
65650.0
20
37000.0
11
65600.0
21
37020.0
0
LINE
8
BLACK
10
65600.0
20
37020.0
11
65580.0
21
37050.0
0
LINE
8
BLACK
10
64710.0
20
35500.0
11
64760.0
21
35500.0
0
LINE
8
BLACK
10
64760.0
20
35500.0
11
64810.0
21
35470.0
0
LINE
8
BLACK
10
64810.0
20
35470.0
11
64830.0
21
35450.0
0
LINE
8
BLACK
10
64830.0
20
35450.0
11
64860.0
21
35400.0
0
LINE
8
BLACK
10
64860.0
20
35400.0
11
64880.0
21
35310.0
0
LINE
8
BLACK
10
64880.0
20
35310.0
11
64880.0
21
35190.0
0
LINE
8
BLACK
10
64880.0
20
35190.0
11
64860.0
21
35090.0
0
LINE
8
BLACK
10
64860.0
20
35090.0
11
64830.0
21
35050.0
0
LINE
8
BLACK
10
64830.0
20
35050.0
11
64810.0
21
35020.0
0
LINE
8
BLACK
10
64810.0
20
35020.0
11
64760.0
21
35000.0
0
LINE
8
BLACK
10
64760.0
20
35000.0
11
64710.0
21
35000.0
0
LINE
8
BLACK
10
64710.0
20
35000.0
11
64670.0
21
35020.0
0
LINE
8
BLACK
10
64670.0
20
35020.0
11
64640.0
21
35050.0
0
LINE
8
BLACK
10
64640.0
20
35050.0
11
64620.0
21
35090.0
0
LINE
8
BLACK
10
64620.0
20
35090.0
11
64600.0
21
35190.0
0
LINE
8
BLACK
10
64600.0
20
35190.0
11
64600.0
21
35310.0
0
LINE
8
BLACK
10
64600.0
20
35310.0
11
64620.0
21
35400.0
0
LINE
8
BLACK
10
64620.0
20
35400.0
11
64640.0
21
35450.0
0
LINE
8
BLACK
10
64640.0
20
35450.0
11
64670.0
21
35470.0
0
LINE
8
BLACK
10
64670.0
20
35470.0
11
64710.0
21
35500.0
0
LINE
8
BLACK
10
65100.0
20
35050.0
11
65120.0
21
35020.0
0
LINE
8
BLACK
10
65120.0
20
35020.0
11
65100.0
21
35000.0
0
LINE
8
BLACK
10
65100.0
20
35000.0
11
65080.0
21
35020.0
0
LINE
8
BLACK
10
65080.0
20
35020.0
11
65100.0
21
35050.0
0
LINE
8
BLACK
10
65100.0
20
35050.0
11
65100.0
21
35000.0
0
LINE
8
BLACK
10
65600.0
20
35000.0
11
65320.0
21
35000.0
0
LINE
8
BLACK
10
65460.0
20
35000.0
11
65460.0
21
35500.0
0
LINE
8
BLACK
10
65460.0
20
35500.0
11
65410.0
21
35430.0
0
LINE
8
BLACK
10
65410.0
20
35430.0
11
65360.0
21
35380.0
0
LINE
8
BLACK
10
65360.0
20
35380.0
11
65320.0
21
35350.0
0
LINE
8
BLACK
10
66030.0
20
35330.0
11
66030.0
21
35000.0
0
LINE
8
BLACK
10
65820.0
20
35330.0
11
65820.0
21
35070.0
0
LINE
8
BLACK
10
65820.0
20
35070.0
11
65840.0
21
35020.0
0
LINE
8
BLACK
10
65840.0
20
35020.0
11
65890.0
21
35000.0
0
LINE
8
BLACK
10
65890.0
20
35000.0
11
65960.0
21
35000.0
0
LINE
8
BLACK
10
65960.0
20
35000.0
11
66010.0
21
35020.0
0
LINE
8
BLACK
10
66010.0
20
35020.0
11
66030.0
21
35050.0
0
LINE
8
BLACK
10
66200.0
20
35330.0
11
66390.0
21
35330.0
0
LINE
8
BLACK
10
66270.0
20
35000.0
11
66270.0
21
35430.0
0
LINE
8
BLACK
10
66270.0
20
35430.0
11
66290.0
21
35470.0
0
LINE
8
BLACK
10
66290.0
20
35470.0
11
66340.0
21
35500.0
0
LINE
8
BLACK
10
66340.0
20
35500.0
11
66390.0
21
35500.0
0
LINE
8
BLACK
10
58500.0
20
35870.0
11
60500.0
21
35870.0
0
LINE
8
BLACK
10
58500.0
20
36470.0
11
60500.0
21
36470.0
0
LINE
8
BLACK
10
59500.0
20
36470.0
11
59500.0
21
38170.0
0
LINE
8
BLACK
10
59500.0
20
35870.0
11
59500.0
21
34170.0
0
LINE
8
BLACK
10
60400.0
20
37050.0
11
60380.0
21
37020.0
0
LINE
8
BLACK
10
60380.0
20
37020.0
11
60310.0
21
37000.0
0
LINE
8
BLACK
10
60310.0
20
37000.0
11
60260.0
21
37000.0
0
LINE
8
BLACK
10
60260.0
20
37000.0
11
60190.0
21
37020.0
0
LINE
8
BLACK
10
60190.0
20
37020.0
11
60140.0
21
37070.0
0
LINE
8
BLACK
10
60140.0
20
37070.0
11
60120.0
21
37120.0
0
LINE
8
BLACK
10
60120.0
20
37120.0
11
60100.0
21
37210.0
0
LINE
8
BLACK
10
60100.0
20
37210.0
11
60100.0
21
37280.0
0
LINE
8
BLACK
10
60100.0
20
37280.0
11
60120.0
21
37380.0
0
LINE
8
BLACK
10
60120.0
20
37380.0
11
60140.0
21
37430.0
0
LINE
8
BLACK
10
60140.0
20
37430.0
11
60190.0
21
37470.0
0
LINE
8
BLACK
10
60190.0
20
37470.0
11
60260.0
21
37500.0
0
LINE
8
BLACK
10
60260.0
20
37500.0
11
60310.0
21
37500.0
0
LINE
8
BLACK
10
60310.0
20
37500.0
11
60380.0
21
37470.0
0
LINE
8
BLACK
10
60380.0
20
37470.0
11
60400.0
21
37450.0
0
LINE
8
BLACK
10
60880.0
20
37000.0
11
60600.0
21
37000.0
0
LINE
8
BLACK
10
60740.0
20
37000.0
11
60740.0
21
37500.0
0
LINE
8
BLACK
10
60740.0
20
37500.0
11
60690.0
21
37430.0
0
LINE
8
BLACK
10
60690.0
20
37430.0
11
60640.0
21
37380.0
0
LINE
8
BLACK
10
60640.0
20
37380.0
11
60600.0
21
37350.0
0
LINE
8
BLACK
10
61310.0
20
37330.0
11
61310.0
21
37000.0
0
LINE
8
BLACK
10
61190.0
20
37520.0
11
61080.0
21
37160.0
0
LINE
8
BLACK
10
61080.0
20
37160.0
11
61380.0
21
37160.0
0
LINE
8
BLACK
10
60210.0
20
35500.0
11
60260.0
21
35500.0
0
LINE
8
BLACK
10
60260.0
20
35500.0
11
60310.0
21
35470.0
0
LINE
8
BLACK
10
60310.0
20
35470.0
11
60330.0
21
35450.0
0
LINE
8
BLACK
10
60330.0
20
35450.0
11
60360.0
21
35400.0
0
LINE
8
BLACK
10
60360.0
20
35400.0
11
60380.0
21
35310.0
0
LINE
8
BLACK
10
60380.0
20
35310.0
11
60380.0
21
35190.0
0
LINE
8
BLACK
10
60380.0
20
35190.0
11
60360.0
21
35090.0
0
LINE
8
BLACK
10
60360.0
20
35090.0
11
60330.0
21
35050.0
0
LINE
8
BLACK
10
60330.0
20
35050.0
11
60310.0
21
35020.0
0
LINE
8
BLACK
10
60310.0
20
35020.0
11
60260.0
21
35000.0
0
LINE
8
BLACK
10
60260.0
20
35000.0
11
60210.0
21
35000.0
0
LINE
8
BLACK
10
60210.0
20
35000.0
11
60170.0
21
35020.0
0
LINE
8
BLACK
10
60170.0
20
35020.0
11
60140.0
21
35050.0
0
LINE
8
BLACK
10
60140.0
20
35050.0
11
60120.0
21
35090.0
0
LINE
8
BLACK
10
60120.0
20
35090.0
11
60100.0
21
35190.0
0
LINE
8
BLACK
10
60100.0
20
35190.0
11
60100.0
21
35310.0
0
LINE
8
BLACK
10
60100.0
20
35310.0
11
60120.0
21
35400.0
0
LINE
8
BLACK
10
60120.0
20
35400.0
11
60140.0
21
35450.0
0
LINE
8
BLACK
10
60140.0
20
35450.0
11
60170.0
21
35470.0
0
LINE
8
BLACK
10
60170.0
20
35470.0
11
60210.0
21
35500.0
0
LINE
8
BLACK
10
60600.0
20
35050.0
11
60620.0
21
35020.0
0
LINE
8
BLACK
10
60620.0
20
35020.0
11
60600.0
21
35000.0
0
LINE
8
BLACK
10
60600.0
20
35000.0
11
60580.0
21
35020.0
0
LINE
8
BLACK
10
60580.0
20
35020.0
11
60600.0
21
35050.0
0
LINE
8
BLACK
10
60600.0
20
35050.0
11
60600.0
21
35000.0
0
LINE
8
BLACK
10
61100.0
20
35000.0
11
60820.0
21
35000.0
0
LINE
8
BLACK
10
60960.0
20
35000.0
11
60960.0
21
35500.0
0
LINE
8
BLACK
10
60960.0
20
35500.0
11
60910.0
21
35430.0
0
LINE
8
BLACK
10
60910.0
20
35430.0
11
60860.0
21
35380.0
0
LINE
8
BLACK
10
60860.0
20
35380.0
11
60820.0
21
35350.0
0
LINE
8
BLACK
10
61530.0
20
35330.0
11
61530.0
21
35000.0
0
LINE
8
BLACK
10
61320.0
20
35330.0
11
61320.0
21
35070.0
0
LINE
8
BLACK
10
61320.0
20
35070.0
11
61340.0
21
35020.0
0
LINE
8
BLACK
10
61340.0
20
35020.0
11
61390.0
21
35000.0
0
LINE
8
BLACK
10
61390.0
20
35000.0
11
61460.0
21
35000.0
0
LINE
8
BLACK
10
61460.0
20
35000.0
11
61510.0
21
35020.0
0
LINE
8
BLACK
10
61510.0
20
35020.0
11
61530.0
21
35050.0
0
LINE
8
BLACK
10
61700.0
20
35330.0
11
61890.0
21
35330.0
0
LINE
8
BLACK
10
61770.0
20
35000.0
11
61770.0
21
35430.0
0
LINE
8
BLACK
10
61770.0
20
35430.0
11
61790.0
21
35470.0
0
LINE
8
BLACK
10
61790.0
20
35470.0
11
61840.0
21
35500.0
0
LINE
8
BLACK
10
61840.0
20
35500.0
11
61890.0
21
35500.0
0
CIRCLE
8
BLACK
10
59500.0
20
40170.0
40
200
0
LINE
8
BLACK
10
59500.0
20
39670.0
11
59500.0
21
39970.0
0
LINE
8
BLACK
10
59110.0
20
40580.0
11
59340.0
21
40580.0
0
LINE
8
BLACK
10
59230.0
20
40470.0
11
59230.0
21
40700.0
0
LINE
8
BLACK
10
59620.0
20
40770.0
11
59480.0
21
40770.0
0
LINE
8
BLACK
10
59480.0
20
40770.0
11
59470.0
21
40630.0
0
LINE
8
BLACK
10
59470.0
20
40630.0
11
59480.0
21
40640.0
0
LINE
8
BLACK
10
59480.0
20
40640.0
11
59510.0
21
40650.0
0
LINE
8
BLACK
10
59510.0
20
40650.0
11
59580.0
21
40650.0
0
LINE
8
BLACK
10
59580.0
20
40650.0
11
59610.0
21
40640.0
0
LINE
8
BLACK
10
59610.0
20
40640.0
11
59620.0
21
40630.0
0
LINE
8
BLACK
10
59620.0
20
40630.0
11
59640.0
21
40600.0
0
LINE
8
BLACK
10
59640.0
20
40600.0
11
59640.0
21
40530.0
0
LINE
8
BLACK
10
59640.0
20
40530.0
11
59620.0
21
40500.0
0
LINE
8
BLACK
10
59620.0
20
40500.0
11
59610.0
21
40480.0
0
LINE
8
BLACK
10
59610.0
20
40480.0
11
59580.0
21
40470.0
0
LINE
8
BLACK
10
59580.0
20
40470.0
11
59510.0
21
40470.0
0
LINE
8
BLACK
10
59510.0
20
40470.0
11
59480.0
21
40480.0
0
LINE
8
BLACK
10
59480.0
20
40480.0
11
59470.0
21
40500.0
0
LINE
8
BLACK
10
59730.0
20
40770.0
11
59830.0
21
40470.0
0
LINE
8
BLACK
10
59830.0
20
40470.0
11
59930.0
21
40770.0
0
CIRCLE
8
BLACK
10
77500.0
20
52270.0
40
200
0
LINE
8
BLACK
10
77500.0
20
51670.0
11
77500.0
21
52070.0
0
LINE
8
BLACK
10
76900.0
20
52780.0
11
77130.0
21
52780.0
0
LINE
8
BLACK
10
77020.0
20
52670.0
11
77020.0
21
52900.0
0
LINE
8
BLACK
10
77240.0
20
52970.0
11
77430.0
21
52970.0
0
LINE
8
BLACK
10
77430.0
20
52970.0
11
77330.0
21
52850.0
0
LINE
8
BLACK
10
77330.0
20
52850.0
11
77370.0
21
52850.0
0
LINE
8
BLACK
10
77370.0
20
52850.0
11
77400.0
21
52840.0
0
LINE
8
BLACK
10
77400.0
20
52840.0
11
77410.0
21
52830.0
0
LINE
8
BLACK
10
77410.0
20
52830.0
11
77430.0
21
52800.0
0
LINE
8
BLACK
10
77430.0
20
52800.0
11
77430.0
21
52730.0
0
LINE
8
BLACK
10
77430.0
20
52730.0
11
77410.0
21
52700.0
0
LINE
8
BLACK
10
77410.0
20
52700.0
11
77400.0
21
52680.0
0
LINE
8
BLACK
10
77400.0
20
52680.0
11
77370.0
21
52670.0
0
LINE
8
BLACK
10
77370.0
20
52670.0
11
77290.0
21
52670.0
0
LINE
8
BLACK
10
77290.0
20
52670.0
11
77260.0
21
52680.0
0
LINE
8
BLACK
10
77260.0
20
52680.0
11
77240.0
21
52700.0
0
LINE
8
BLACK
10
77560.0
20
52700.0
11
77580.0
21
52680.0
0
LINE
8
BLACK
10
77580.0
20
52680.0
11
77560.0
21
52670.0
0
LINE
8
BLACK
10
77560.0
20
52670.0
11
77550.0
21
52680.0
0
LINE
8
BLACK
10
77550.0
20
52680.0
11
77560.0
21
52700.0
0
LINE
8
BLACK
10
77560.0
20
52700.0
11
77560.0
21
52670.0
0
LINE
8
BLACK
10
77670.0
20
52970.0
11
77860.0
21
52970.0
0
LINE
8
BLACK
10
77860.0
20
52970.0
11
77760.0
21
52850.0
0
LINE
8
BLACK
10
77760.0
20
52850.0
11
77800.0
21
52850.0
0
LINE
8
BLACK
10
77800.0
20
52850.0
11
77830.0
21
52840.0
0
LINE
8
BLACK
10
77830.0
20
52840.0
11
77840.0
21
52830.0
0
LINE
8
BLACK
10
77840.0
20
52830.0
11
77860.0
21
52800.0
0
LINE
8
BLACK
10
77860.0
20
52800.0
11
77860.0
21
52730.0
0
LINE
8
BLACK
10
77860.0
20
52730.0
11
77840.0
21
52700.0
0
LINE
8
BLACK
10
77840.0
20
52700.0
11
77830.0
21
52680.0
0
LINE
8
BLACK
10
77830.0
20
52680.0
11
77800.0
21
52670.0
0
LINE
8
BLACK
10
77800.0
20
52670.0
11
77720.0
21
52670.0
0
LINE
8
BLACK
10
77720.0
20
52670.0
11
77690.0
21
52680.0
0
LINE
8
BLACK
10
77690.0
20
52680.0
11
77670.0
21
52700.0
0
LINE
8
BLACK
10
77950.0
20
52970.0
11
78050.0
21
52670.0
0
LINE
8
BLACK
10
78050.0
20
52670.0
11
78150.0
21
52970.0
0
CIRCLE
8
BLACK
10
63000.0
20
51670.0
40
200
0
LINE
8
BLACK
10
63000.0
20
51170.0
11
63000.0
21
51470.0
0
LINE
8
BLACK
10
62610.0
20
52080.0
11
62840.0
21
52080.0
0
LINE
8
BLACK
10
62730.0
20
51970.0
11
62730.0
21
52200.0
0
LINE
8
BLACK
10
63120.0
20
52270.0
11
62980.0
21
52270.0
0
LINE
8
BLACK
10
62980.0
20
52270.0
11
62970.0
21
52130.0
0
LINE
8
BLACK
10
62970.0
20
52130.0
11
62980.0
21
52140.0
0
LINE
8
BLACK
10
62980.0
20
52140.0
11
63010.0
21
52150.0
0
LINE
8
BLACK
10
63010.0
20
52150.0
11
63080.0
21
52150.0
0
LINE
8
BLACK
10
63080.0
20
52150.0
11
63110.0
21
52140.0
0
LINE
8
BLACK
10
63110.0
20
52140.0
11
63120.0
21
52130.0
0
LINE
8
BLACK
10
63120.0
20
52130.0
11
63140.0
21
52100.0
0
LINE
8
BLACK
10
63140.0
20
52100.0
11
63140.0
21
52030.0
0
LINE
8
BLACK
10
63140.0
20
52030.0
11
63120.0
21
52000.0
0
LINE
8
BLACK
10
63120.0
20
52000.0
11
63110.0
21
51980.0
0
LINE
8
BLACK
10
63110.0
20
51980.0
11
63080.0
21
51970.0
0
LINE
8
BLACK
10
63080.0
20
51970.0
11
63010.0
21
51970.0
0
LINE
8
BLACK
10
63010.0
20
51970.0
11
62980.0
21
51980.0
0
LINE
8
BLACK
10
62980.0
20
51980.0
11
62970.0
21
52000.0
0
LINE
8
BLACK
10
63230.0
20
52270.0
11
63330.0
21
51970.0
0
LINE
8
BLACK
10
63330.0
20
51970.0
11
63430.0
21
52270.0
0
CIRCLE
8
BLACK
10
76000.0
20
60770.0
40
200
0
LINE
8
BLACK
10
76000.0
20
60170.0
11
76000.0
21
60570.0
0
LINE
8
BLACK
10
75470.0
20
61180.0
11
75700.0
21
61180.0
0
LINE
8
BLACK
10
75590.0
20
61070.0
11
75590.0
21
61300.0
0
LINE
8
BLACK
10
76000.0
20
61070.0
11
75830.0
21
61070.0
0
LINE
8
BLACK
10
75910.0
20
61070.0
11
75910.0
21
61370.0
0
LINE
8
BLACK
10
75910.0
20
61370.0
11
75880.0
21
61330.0
0
LINE
8
BLACK
10
75880.0
20
61330.0
11
75860.0
21
61300.0
0
LINE
8
BLACK
10
75860.0
20
61300.0
11
75830.0
21
61280.0
0
LINE
8
BLACK
10
76120.0
20
61340.0
11
76130.0
21
61350.0
0
LINE
8
BLACK
10
76130.0
20
61350.0
11
76160.0
21
61370.0
0
LINE
8
BLACK
10
76160.0
20
61370.0
11
76230.0
21
61370.0
0
LINE
8
BLACK
10
76230.0
20
61370.0
11
76260.0
21
61350.0
0
LINE
8
BLACK
10
76260.0
20
61350.0
11
76270.0
21
61340.0
0
LINE
8
BLACK
10
76270.0
20
61340.0
11
76290.0
21
61310.0
0
LINE
8
BLACK
10
76290.0
20
61310.0
11
76290.0
21
61280.0
0
LINE
8
BLACK
10
76290.0
20
61280.0
11
76270.0
21
61240.0
0
LINE
8
BLACK
10
76270.0
20
61240.0
11
76100.0
21
61070.0
0
LINE
8
BLACK
10
76100.0
20
61070.0
11
76290.0
21
61070.0
0
LINE
8
BLACK
10
76380.0
20
61370.0
11
76480.0
21
61070.0
0
LINE
8
BLACK
10
76480.0
20
61070.0
11
76580.0
21
61370.0
0
LINE
8
BLACK
10
80500.0
20
51170.0
11
80500.0
21
47170.0
0
LINE
8
BLACK
10
80500.0
20
47170.0
11
82500.0
21
47170.0
0
LINE
8
BLACK
10
82500.0
20
47170.0
11
82500.0
21
51170.0
0
LINE
8
BLACK
10
82500.0
20
51170.0
11
80500.0
21
51170.0
0
CIRCLE
8
BLACK
10
80150.0
20
50670.0
40
350
0
LINE
8
BLACK
10
79800.0
20
50670.0
11
78000.0
21
50670.0
0
LINE
8
BLACK
10
79390.0
20
50820.0
11
79110.0
21
50820.0
0
LINE
8
BLACK
10
79250.0
20
50820.0
11
79250.0
21
51320.0
0
LINE
8
BLACK
10
79250.0
20
51320.0
11
79200.0
21
51250.0
0
LINE
8
BLACK
10
79200.0
20
51250.0
11
79150.0
21
51200.0
0
LINE
8
BLACK
10
79150.0
20
51200.0
11
79110.0
21
51170.0
0
CIRCLE
8
BLACK
10
80150.0
20
49670.0
40
350
0
LINE
8
BLACK
10
79800.0
20
49670.0
11
78000.0
21
49670.0
0
LINE
8
BLACK
10
79110.0
20
50270.0
11
79130.0
21
50290.0
0
LINE
8
BLACK
10
79130.0
20
50290.0
11
79180.0
21
50320.0
0
LINE
8
BLACK
10
79180.0
20
50320.0
11
79300.0
21
50320.0
0
LINE
8
BLACK
10
79300.0
20
50320.0
11
79340.0
21
50290.0
0
LINE
8
BLACK
10
79340.0
20
50290.0
11
79370.0
21
50270.0
0
LINE
8
BLACK
10
79370.0
20
50270.0
11
79390.0
21
50220.0
0
LINE
8
BLACK
10
79390.0
20
50220.0
11
79390.0
21
50170.0
0
LINE
8
BLACK
10
79390.0
20
50170.0
11
79370.0
21
50100.0
0
LINE
8
BLACK
10
79370.0
20
50100.0
11
79080.0
21
49820.0
0
LINE
8
BLACK
10
79080.0
20
49820.0
11
79390.0
21
49820.0
0
CIRCLE
8
BLACK
10
80150.0
20
48670.0
40
350
0
LINE
8
BLACK
10
79800.0
20
48670.0
11
78000.0
21
48670.0
0
LINE
8
BLACK
10
79080.0
20
49320.0
11
79390.0
21
49320.0
0
LINE
8
BLACK
10
79390.0
20
49320.0
11
79220.0
21
49130.0
0
LINE
8
BLACK
10
79220.0
20
49130.0
11
79300.0
21
49130.0
0
LINE
8
BLACK
10
79300.0
20
49130.0
11
79340.0
21
49100.0
0
LINE
8
BLACK
10
79340.0
20
49100.0
11
79370.0
21
49080.0
0
LINE
8
BLACK
10
79370.0
20
49080.0
11
79390.0
21
49030.0
0
LINE
8
BLACK
10
79390.0
20
49030.0
11
79390.0
21
48910.0
0
LINE
8
BLACK
10
79390.0
20
48910.0
11
79370.0
21
48870.0
0
LINE
8
BLACK
10
79370.0
20
48870.0
11
79340.0
21
48840.0
0
LINE
8
BLACK
10
79340.0
20
48840.0
11
79300.0
21
48820.0
0
LINE
8
BLACK
10
79300.0
20
48820.0
11
79150.0
21
48820.0
0
LINE
8
BLACK
10
79150.0
20
48820.0
11
79110.0
21
48840.0
0
LINE
8
BLACK
10
79110.0
20
48840.0
11
79080.0
21
48870.0
0
CIRCLE
8
BLACK
10
80150.0
20
47670.0
40
350
0
LINE
8
BLACK
10
79800.0
20
47670.0
11
78000.0
21
47670.0
0
LINE
8
BLACK
10
79340.0
20
48150.0
11
79340.0
21
47820.0
0
LINE
8
BLACK
10
79220.0
20
48340.0
11
79110.0
21
47980.0
0
LINE
8
BLACK
10
79110.0
20
47980.0
11
79410.0
21
47980.0
0
LINE
8
BLACK
10
81170.0
20
48560.0
11
80670.0
21
48560.0
0
LINE
8
BLACK
10
80670.0
20
48560.0
11
80670.0
21
48750.0
0
LINE
8
BLACK
10
80670.0
20
48750.0
11
80700.0
21
48800.0
0
LINE
8
BLACK
10
80700.0
20
48800.0
11
80720.0
21
48820.0
0
LINE
8
BLACK
10
80720.0
20
48820.0
11
80770.0
21
48840.0
0
LINE
8
BLACK
10
80770.0
20
48840.0
11
80840.0
21
48840.0
0
LINE
8
BLACK
10
80840.0
20
48840.0
11
80890.0
21
48820.0
0
LINE
8
BLACK
10
80890.0
20
48820.0
11
80910.0
21
48800.0
0
LINE
8
BLACK
10
80910.0
20
48800.0
11
80930.0
21
48750.0
0
LINE
8
BLACK
10
80930.0
20
48750.0
11
80930.0
21
48560.0
0
LINE
8
BLACK
10
81170.0
20
49320.0
11
81170.0
21
49040.0
0
LINE
8
BLACK
10
81170.0
20
49180.0
11
80670.0
21
49180.0
0
LINE
8
BLACK
10
80670.0
20
49180.0
11
80740.0
21
49130.0
0
LINE
8
BLACK
10
80740.0
20
49130.0
11
80790.0
21
49080.0
0
LINE
8
BLACK
10
80790.0
20
49080.0
11
80820.0
21
49040.0
0
LINE
8
BLACK
10
81170.0
20
49800.0
11
81170.0
21
49520.0
0
LINE
8
BLACK
10
81170.0
20
49660.0
11
80670.0
21
49660.0
0
LINE
8
BLACK
10
80670.0
20
49660.0
11
80740.0
21
49610.0
0
LINE
8
BLACK
10
80740.0
20
49610.0
11
80790.0
21
49560.0
0
LINE
8
BLACK
10
80790.0
20
49560.0
11
80820.0
21
49520.0
0
LINE
8
BLACK
10
82120.0
20
48110.0
11
82150.0
21
48090.0
0
LINE
8
BLACK
10
82150.0
20
48090.0
11
82170.0
21
48020.0
0
LINE
8
BLACK
10
82170.0
20
48020.0
11
82170.0
21
47970.0
0
LINE
8
BLACK
10
82170.0
20
47970.0
11
82150.0
21
47900.0
0
LINE
8
BLACK
10
82150.0
20
47900.0
11
82100.0
21
47850.0
0
LINE
8
BLACK
10
82100.0
20
47850.0
11
82050.0
21
47830.0
0
LINE
8
BLACK
10
82050.0
20
47830.0
11
81960.0
21
47810.0
0
LINE
8
BLACK
10
81960.0
20
47810.0
11
81890.0
21
47810.0
0
LINE
8
BLACK
10
81890.0
20
47810.0
11
81790.0
21
47830.0
0
LINE
8
BLACK
10
81790.0
20
47830.0
11
81740.0
21
47850.0
0
LINE
8
BLACK
10
81740.0
20
47850.0
11
81700.0
21
47900.0
0
LINE
8
BLACK
10
81700.0
20
47900.0
11
81670.0
21
47970.0
0
LINE
8
BLACK
10
81670.0
20
47970.0
11
81670.0
21
48020.0
0
LINE
8
BLACK
10
81670.0
20
48020.0
11
81700.0
21
48090.0
0
LINE
8
BLACK
10
81700.0
20
48090.0
11
81720.0
21
48110.0
0
LINE
8
BLACK
10
81670.0
20
48420.0
11
81670.0
21
48520.0
0
LINE
8
BLACK
10
81670.0
20
48520.0
11
81700.0
21
48570.0
0
LINE
8
BLACK
10
81700.0
20
48570.0
11
81740.0
21
48610.0
0
LINE
8
BLACK
10
81740.0
20
48610.0
11
81840.0
21
48640.0
0
LINE
8
BLACK
10
81840.0
20
48640.0
11
82010.0
21
48640.0
0
LINE
8
BLACK
10
82010.0
20
48640.0
11
82100.0
21
48610.0
0
LINE
8
BLACK
10
82100.0
20
48610.0
11
82150.0
21
48570.0
0
LINE
8
BLACK
10
82150.0
20
48570.0
11
82170.0
21
48520.0
0
LINE
8
BLACK
10
82170.0
20
48520.0
11
82170.0
21
48420.0
0
LINE
8
BLACK
10
82170.0
20
48420.0
11
82150.0
21
48380.0
0
LINE
8
BLACK
10
82150.0
20
48380.0
11
82100.0
21
48330.0
0
LINE
8
BLACK
10
82100.0
20
48330.0
11
82010.0
21
48310.0
0
LINE
8
BLACK
10
82010.0
20
48310.0
11
81840.0
21
48310.0
0
LINE
8
BLACK
10
81840.0
20
48310.0
11
81740.0
21
48330.0
0
LINE
8
BLACK
10
81740.0
20
48330.0
11
81700.0
21
48380.0
0
LINE
8
BLACK
10
81700.0
20
48380.0
11
81670.0
21
48420.0
0
LINE
8
BLACK
10
82170.0
20
48850.0
11
81670.0
21
48850.0
0
LINE
8
BLACK
10
81670.0
20
48850.0
11
82170.0
21
49130.0
0
LINE
8
BLACK
10
82170.0
20
49130.0
11
81670.0
21
49130.0
0
LINE
8
BLACK
10
82170.0
20
49370.0
11
81670.0
21
49370.0
0
LINE
8
BLACK
10
81670.0
20
49370.0
11
82170.0
21
49650.0
0
LINE
8
BLACK
10
82170.0
20
49650.0
11
81670.0
21
49650.0
0
LINE
8
BLACK
10
82220.0
20
49770.0
11
82220.0
21
50150.0
0
LINE
8
BLACK
10
81840.0
20
50480.0
11
82170.0
21
50480.0
0
LINE
8
BLACK
10
81650.0
20
50360.0
11
82010.0
21
50250.0
0
LINE
8
BLACK
10
82010.0
20
50250.0
11
82010.0
21
50550.0
0
LINE
8
BLACK
10
67000.0
20
51170.0
11
67000.0
21
47170.0
0
LINE
8
BLACK
10
67000.0
20
47170.0
11
69000.0
21
47170.0
0
LINE
8
BLACK
10
69000.0
20
47170.0
11
69000.0
21
51170.0
0
LINE
8
BLACK
10
69000.0
20
51170.0
11
67000.0
21
51170.0
0
CIRCLE
8
BLACK
10
66650.0
20
50670.0
40
350
0
LINE
8
BLACK
10
66300.0
20
50670.0
11
64500.0
21
50670.0
0
LINE
8
BLACK
10
65890.0
20
50820.0
11
65610.0
21
50820.0
0
LINE
8
BLACK
10
65750.0
20
50820.0
11
65750.0
21
51320.0
0
LINE
8
BLACK
10
65750.0
20
51320.0
11
65700.0
21
51250.0
0
LINE
8
BLACK
10
65700.0
20
51250.0
11
65650.0
21
51200.0
0
LINE
8
BLACK
10
65650.0
20
51200.0
11
65610.0
21
51170.0
0
CIRCLE
8
BLACK
10
66650.0
20
49670.0
40
350
0
LINE
8
BLACK
10
66300.0
20
49670.0
11
64500.0
21
49670.0
0
LINE
8
BLACK
10
65610.0
20
50270.0
11
65630.0
21
50290.0
0
LINE
8
BLACK
10
65630.0
20
50290.0
11
65680.0
21
50320.0
0
LINE
8
BLACK
10
65680.0
20
50320.0
11
65800.0
21
50320.0
0
LINE
8
BLACK
10
65800.0
20
50320.0
11
65840.0
21
50290.0
0
LINE
8
BLACK
10
65840.0
20
50290.0
11
65870.0
21
50270.0
0
LINE
8
BLACK
10
65870.0
20
50270.0
11
65890.0
21
50220.0
0
LINE
8
BLACK
10
65890.0
20
50220.0
11
65890.0
21
50170.0
0
LINE
8
BLACK
10
65890.0
20
50170.0
11
65870.0
21
50100.0
0
LINE
8
BLACK
10
65870.0
20
50100.0
11
65580.0
21
49820.0
0
LINE
8
BLACK
10
65580.0
20
49820.0
11
65890.0
21
49820.0
0
CIRCLE
8
BLACK
10
66650.0
20
48670.0
40
350
0
LINE
8
BLACK
10
66300.0
20
48670.0
11
64500.0
21
48670.0
0
LINE
8
BLACK
10
65580.0
20
49320.0
11
65890.0
21
49320.0
0
LINE
8
BLACK
10
65890.0
20
49320.0
11
65720.0
21
49130.0
0
LINE
8
BLACK
10
65720.0
20
49130.0
11
65800.0
21
49130.0
0
LINE
8
BLACK
10
65800.0
20
49130.0
11
65840.0
21
49100.0
0
LINE
8
BLACK
10
65840.0
20
49100.0
11
65870.0
21
49080.0
0
LINE
8
BLACK
10
65870.0
20
49080.0
11
65890.0
21
49030.0
0
LINE
8
BLACK
10
65890.0
20
49030.0
11
65890.0
21
48910.0
0
LINE
8
BLACK
10
65890.0
20
48910.0
11
65870.0
21
48870.0
0
LINE
8
BLACK
10
65870.0
20
48870.0
11
65840.0
21
48840.0
0
LINE
8
BLACK
10
65840.0
20
48840.0
11
65800.0
21
48820.0
0
LINE
8
BLACK
10
65800.0
20
48820.0
11
65650.0
21
48820.0
0
LINE
8
BLACK
10
65650.0
20
48820.0
11
65610.0
21
48840.0
0
LINE
8
BLACK
10
65610.0
20
48840.0
11
65580.0
21
48870.0
0
CIRCLE
8
BLACK
10
66650.0
20
47670.0
40
350
0
LINE
8
BLACK
10
66300.0
20
47670.0
11
64500.0
21
47670.0
0
LINE
8
BLACK
10
65840.0
20
48150.0
11
65840.0
21
47820.0
0
LINE
8
BLACK
10
65720.0
20
48340.0
11
65610.0
21
47980.0
0
LINE
8
BLACK
10
65610.0
20
47980.0
11
65910.0
21
47980.0
0
LINE
8
BLACK
10
67670.0
20
48560.0
11
67170.0
21
48560.0
0
LINE
8
BLACK
10
67170.0
20
48560.0
11
67170.0
21
48750.0
0
LINE
8
BLACK
10
67170.0
20
48750.0
11
67200.0
21
48800.0
0
LINE
8
BLACK
10
67200.0
20
48800.0
11
67220.0
21
48820.0
0
LINE
8
BLACK
10
67220.0
20
48820.0
11
67270.0
21
48840.0
0
LINE
8
BLACK
10
67270.0
20
48840.0
11
67340.0
21
48840.0
0
LINE
8
BLACK
10
67340.0
20
48840.0
11
67390.0
21
48820.0
0
LINE
8
BLACK
10
67390.0
20
48820.0
11
67410.0
21
48800.0
0
LINE
8
BLACK
10
67410.0
20
48800.0
11
67430.0
21
48750.0
0
LINE
8
BLACK
10
67430.0
20
48750.0
11
67430.0
21
48560.0
0
LINE
8
BLACK
10
67670.0
20
49320.0
11
67670.0
21
49040.0
0
LINE
8
BLACK
10
67670.0
20
49180.0
11
67170.0
21
49180.0
0
LINE
8
BLACK
10
67170.0
20
49180.0
11
67240.0
21
49130.0
0
LINE
8
BLACK
10
67240.0
20
49130.0
11
67290.0
21
49080.0
0
LINE
8
BLACK
10
67290.0
20
49080.0
11
67320.0
21
49040.0
0
LINE
8
BLACK
10
67170.0
20
49630.0
11
67170.0
21
49680.0
0
LINE
8
BLACK
10
67170.0
20
49680.0
11
67200.0
21
49730.0
0
LINE
8
BLACK
10
67200.0
20
49730.0
11
67220.0
21
49750.0
0
LINE
8
BLACK
10
67220.0
20
49750.0
11
67270.0
21
49780.0
0
LINE
8
BLACK
10
67270.0
20
49780.0
11
67360.0
21
49800.0
0
LINE
8
BLACK
10
67360.0
20
49800.0
11
67480.0
21
49800.0
0
LINE
8
BLACK
10
67480.0
20
49800.0
11
67580.0
21
49780.0
0
LINE
8
BLACK
10
67580.0
20
49780.0
11
67620.0
21
49750.0
0
LINE
8
BLACK
10
67620.0
20
49750.0
11
67650.0
21
49730.0
0
LINE
8
BLACK
10
67650.0
20
49730.0
11
67670.0
21
49680.0
0
LINE
8
BLACK
10
67670.0
20
49680.0
11
67670.0
21
49630.0
0
LINE
8
BLACK
10
67670.0
20
49630.0
11
67650.0
21
49590.0
0
LINE
8
BLACK
10
67650.0
20
49590.0
11
67620.0
21
49560.0
0
LINE
8
BLACK
10
67620.0
20
49560.0
11
67580.0
21
49540.0
0
LINE
8
BLACK
10
67580.0
20
49540.0
11
67480.0
21
49520.0
0
LINE
8
BLACK
10
67480.0
20
49520.0
11
67360.0
21
49520.0
0
LINE
8
BLACK
10
67360.0
20
49520.0
11
67270.0
21
49540.0
0
LINE
8
BLACK
10
67270.0
20
49540.0
11
67220.0
21
49560.0
0
LINE
8
BLACK
10
67220.0
20
49560.0
11
67200.0
21
49590.0
0
LINE
8
BLACK
10
67200.0
20
49590.0
11
67170.0
21
49630.0
0
LINE
8
BLACK
10
68620.0
20
48110.0
11
68650.0
21
48090.0
0
LINE
8
BLACK
10
68650.0
20
48090.0
11
68670.0
21
48020.0
0
LINE
8
BLACK
10
68670.0
20
48020.0
11
68670.0
21
47970.0
0
LINE
8
BLACK
10
68670.0
20
47970.0
11
68650.0
21
47900.0
0
LINE
8
BLACK
10
68650.0
20
47900.0
11
68600.0
21
47850.0
0
LINE
8
BLACK
10
68600.0
20
47850.0
11
68550.0
21
47830.0
0
LINE
8
BLACK
10
68550.0
20
47830.0
11
68460.0
21
47810.0
0
LINE
8
BLACK
10
68460.0
20
47810.0
11
68390.0
21
47810.0
0
LINE
8
BLACK
10
68390.0
20
47810.0
11
68290.0
21
47830.0
0
LINE
8
BLACK
10
68290.0
20
47830.0
11
68240.0
21
47850.0
0
LINE
8
BLACK
10
68240.0
20
47850.0
11
68200.0
21
47900.0
0
LINE
8
BLACK
10
68200.0
20
47900.0
11
68170.0
21
47970.0
0
LINE
8
BLACK
10
68170.0
20
47970.0
11
68170.0
21
48020.0
0
LINE
8
BLACK
10
68170.0
20
48020.0
11
68200.0
21
48090.0
0
LINE
8
BLACK
10
68200.0
20
48090.0
11
68220.0
21
48110.0
0
LINE
8
BLACK
10
68170.0
20
48420.0
11
68170.0
21
48520.0
0
LINE
8
BLACK
10
68170.0
20
48520.0
11
68200.0
21
48570.0
0
LINE
8
BLACK
10
68200.0
20
48570.0
11
68240.0
21
48610.0
0
LINE
8
BLACK
10
68240.0
20
48610.0
11
68340.0
21
48640.0
0
LINE
8
BLACK
10
68340.0
20
48640.0
11
68510.0
21
48640.0
0
LINE
8
BLACK
10
68510.0
20
48640.0
11
68600.0
21
48610.0
0
LINE
8
BLACK
10
68600.0
20
48610.0
11
68650.0
21
48570.0
0
LINE
8
BLACK
10
68650.0
20
48570.0
11
68670.0
21
48520.0
0
LINE
8
BLACK
10
68670.0
20
48520.0
11
68670.0
21
48420.0
0
LINE
8
BLACK
10
68670.0
20
48420.0
11
68650.0
21
48380.0
0
LINE
8
BLACK
10
68650.0
20
48380.0
11
68600.0
21
48330.0
0
LINE
8
BLACK
10
68600.0
20
48330.0
11
68510.0
21
48310.0
0
LINE
8
BLACK
10
68510.0
20
48310.0
11
68340.0
21
48310.0
0
LINE
8
BLACK
10
68340.0
20
48310.0
11
68240.0
21
48330.0
0
LINE
8
BLACK
10
68240.0
20
48330.0
11
68200.0
21
48380.0
0
LINE
8
BLACK
10
68200.0
20
48380.0
11
68170.0
21
48420.0
0
LINE
8
BLACK
10
68670.0
20
48850.0
11
68170.0
21
48850.0
0
LINE
8
BLACK
10
68170.0
20
48850.0
11
68670.0
21
49130.0
0
LINE
8
BLACK
10
68670.0
20
49130.0
11
68170.0
21
49130.0
0
LINE
8
BLACK
10
68670.0
20
49370.0
11
68170.0
21
49370.0
0
LINE
8
BLACK
10
68170.0
20
49370.0
11
68670.0
21
49650.0
0
LINE
8
BLACK
10
68670.0
20
49650.0
11
68170.0
21
49650.0
0
LINE
8
BLACK
10
68720.0
20
49770.0
11
68720.0
21
50150.0
0
LINE
8
BLACK
10
68340.0
20
50480.0
11
68670.0
21
50480.0
0
LINE
8
BLACK
10
68150.0
20
50360.0
11
68510.0
21
50250.0
0
LINE
8
BLACK
10
68510.0
20
50250.0
11
68510.0
21
50550.0
0
LINE
8
BLACK
10
80500.0
20
59670.0
11
80500.0
21
55670.0
0
LINE
8
BLACK
10
80500.0
20
55670.0
11
82500.0
21
55670.0
0
LINE
8
BLACK
10
82500.0
20
55670.0
11
82500.0
21
59670.0
0
LINE
8
BLACK
10
82500.0
20
59670.0
11
80500.0
21
59670.0
0
CIRCLE
8
BLACK
10
80150.0
20
59170.0
40
350
0
LINE
8
BLACK
10
79800.0
20
59170.0
11
78000.0
21
59170.0
0
LINE
8
BLACK
10
79390.0
20
59320.0
11
79110.0
21
59320.0
0
LINE
8
BLACK
10
79250.0
20
59320.0
11
79250.0
21
59820.0
0
LINE
8
BLACK
10
79250.0
20
59820.0
11
79200.0
21
59750.0
0
LINE
8
BLACK
10
79200.0
20
59750.0
11
79150.0
21
59700.0
0
LINE
8
BLACK
10
79150.0
20
59700.0
11
79110.0
21
59670.0
0
CIRCLE
8
BLACK
10
80150.0
20
58170.0
40
350
0
LINE
8
BLACK
10
79800.0
20
58170.0
11
78000.0
21
58170.0
0
LINE
8
BLACK
10
79110.0
20
58770.0
11
79130.0
21
58790.0
0
LINE
8
BLACK
10
79130.0
20
58790.0
11
79180.0
21
58820.0
0
LINE
8
BLACK
10
79180.0
20
58820.0
11
79300.0
21
58820.0
0
LINE
8
BLACK
10
79300.0
20
58820.0
11
79340.0
21
58790.0
0
LINE
8
BLACK
10
79340.0
20
58790.0
11
79370.0
21
58770.0
0
LINE
8
BLACK
10
79370.0
20
58770.0
11
79390.0
21
58720.0
0
LINE
8
BLACK
10
79390.0
20
58720.0
11
79390.0
21
58670.0
0
LINE
8
BLACK
10
79390.0
20
58670.0
11
79370.0
21
58600.0
0
LINE
8
BLACK
10
79370.0
20
58600.0
11
79080.0
21
58320.0
0
LINE
8
BLACK
10
79080.0
20
58320.0
11
79390.0
21
58320.0
0
CIRCLE
8
BLACK
10
80150.0
20
57170.0
40
350
0
LINE
8
BLACK
10
79800.0
20
57170.0
11
78000.0
21
57170.0
0
LINE
8
BLACK
10
79080.0
20
57820.0
11
79390.0
21
57820.0
0
LINE
8
BLACK
10
79390.0
20
57820.0
11
79220.0
21
57630.0
0
LINE
8
BLACK
10
79220.0
20
57630.0
11
79300.0
21
57630.0
0
LINE
8
BLACK
10
79300.0
20
57630.0
11
79340.0
21
57600.0
0
LINE
8
BLACK
10
79340.0
20
57600.0
11
79370.0
21
57580.0
0
LINE
8
BLACK
10
79370.0
20
57580.0
11
79390.0
21
57530.0
0
LINE
8
BLACK
10
79390.0
20
57530.0
11
79390.0
21
57410.0
0
LINE
8
BLACK
10
79390.0
20
57410.0
11
79370.0
21
57370.0
0
LINE
8
BLACK
10
79370.0
20
57370.0
11
79340.0
21
57340.0
0
LINE
8
BLACK
10
79340.0
20
57340.0
11
79300.0
21
57320.0
0
LINE
8
BLACK
10
79300.0
20
57320.0
11
79150.0
21
57320.0
0
LINE
8
BLACK
10
79150.0
20
57320.0
11
79110.0
21
57340.0
0
LINE
8
BLACK
10
79110.0
20
57340.0
11
79080.0
21
57370.0
0
CIRCLE
8
BLACK
10
80150.0
20
56170.0
40
350
0
LINE
8
BLACK
10
79800.0
20
56170.0
11
78000.0
21
56170.0
0
LINE
8
BLACK
10
79340.0
20
56650.0
11
79340.0
21
56320.0
0
LINE
8
BLACK
10
79220.0
20
56840.0
11
79110.0
21
56480.0
0
LINE
8
BLACK
10
79110.0
20
56480.0
11
79410.0
21
56480.0
0
LINE
8
BLACK
10
81170.0
20
57300.0
11
80670.0
21
57300.0
0
LINE
8
BLACK
10
80670.0
20
57300.0
11
80670.0
21
57490.0
0
LINE
8
BLACK
10
80670.0
20
57490.0
11
80700.0
21
57540.0
0
LINE
8
BLACK
10
80700.0
20
57540.0
11
80720.0
21
57560.0
0
LINE
8
BLACK
10
80720.0
20
57560.0
11
80770.0
21
57580.0
0
LINE
8
BLACK
10
80770.0
20
57580.0
11
80840.0
21
57580.0
0
LINE
8
BLACK
10
80840.0
20
57580.0
11
80890.0
21
57560.0
0
LINE
8
BLACK
10
80890.0
20
57560.0
11
80910.0
21
57540.0
0
LINE
8
BLACK
10
80910.0
20
57540.0
11
80930.0
21
57490.0
0
LINE
8
BLACK
10
80930.0
20
57490.0
11
80930.0
21
57300.0
0
LINE
8
BLACK
10
81170.0
20
57820.0
11
81170.0
21
57920.0
0
LINE
8
BLACK
10
81170.0
20
57920.0
11
81150.0
21
57970.0
0
LINE
8
BLACK
10
81150.0
20
57970.0
11
81120.0
21
57990.0
0
LINE
8
BLACK
10
81120.0
20
57990.0
11
81050.0
21
58040.0
0
LINE
8
BLACK
10
81050.0
20
58040.0
11
80960.0
21
58060.0
0
LINE
8
BLACK
10
80960.0
20
58060.0
11
80770.0
21
58060.0
0
LINE
8
BLACK
10
80770.0
20
58060.0
11
80720.0
21
58040.0
0
LINE
8
BLACK
10
80720.0
20
58040.0
11
80700.0
21
58010.0
0
LINE
8
BLACK
10
80700.0
20
58010.0
11
80670.0
21
57970.0
0
LINE
8
BLACK
10
80670.0
20
57970.0
11
80670.0
21
57870.0
0
LINE
8
BLACK
10
80670.0
20
57870.0
11
80700.0
21
57820.0
0
LINE
8
BLACK
10
80700.0
20
57820.0
11
80720.0
21
57800.0
0
LINE
8
BLACK
10
80720.0
20
57800.0
11
80770.0
21
57780.0
0
LINE
8
BLACK
10
80770.0
20
57780.0
11
80890.0
21
57780.0
0
LINE
8
BLACK
10
80890.0
20
57780.0
11
80930.0
21
57800.0
0
LINE
8
BLACK
10
80930.0
20
57800.0
11
80960.0
21
57820.0
0
LINE
8
BLACK
10
80960.0
20
57820.0
11
80980.0
21
57870.0
0
LINE
8
BLACK
10
80980.0
20
57870.0
11
80980.0
21
57970.0
0
LINE
8
BLACK
10
80980.0
20
57970.0
11
80960.0
21
58010.0
0
LINE
8
BLACK
10
80960.0
20
58010.0
11
80930.0
21
58040.0
0
LINE
8
BLACK
10
80930.0
20
58040.0
11
80890.0
21
58060.0
0
LINE
8
BLACK
10
82120.0
20
56610.0
11
82150.0
21
56590.0
0
LINE
8
BLACK
10
82150.0
20
56590.0
11
82170.0
21
56520.0
0
LINE
8
BLACK
10
82170.0
20
56520.0
11
82170.0
21
56470.0
0
LINE
8
BLACK
10
82170.0
20
56470.0
11
82150.0
21
56400.0
0
LINE
8
BLACK
10
82150.0
20
56400.0
11
82100.0
21
56350.0
0
LINE
8
BLACK
10
82100.0
20
56350.0
11
82050.0
21
56330.0
0
LINE
8
BLACK
10
82050.0
20
56330.0
11
81960.0
21
56310.0
0
LINE
8
BLACK
10
81960.0
20
56310.0
11
81890.0
21
56310.0
0
LINE
8
BLACK
10
81890.0
20
56310.0
11
81790.0
21
56330.0
0
LINE
8
BLACK
10
81790.0
20
56330.0
11
81740.0
21
56350.0
0
LINE
8
BLACK
10
81740.0
20
56350.0
11
81700.0
21
56400.0
0
LINE
8
BLACK
10
81700.0
20
56400.0
11
81670.0
21
56470.0
0
LINE
8
BLACK
10
81670.0
20
56470.0
11
81670.0
21
56520.0
0
LINE
8
BLACK
10
81670.0
20
56520.0
11
81700.0
21
56590.0
0
LINE
8
BLACK
10
81700.0
20
56590.0
11
81720.0
21
56610.0
0
LINE
8
BLACK
10
81670.0
20
56920.0
11
81670.0
21
57020.0
0
LINE
8
BLACK
10
81670.0
20
57020.0
11
81700.0
21
57070.0
0
LINE
8
BLACK
10
81700.0
20
57070.0
11
81740.0
21
57110.0
0
LINE
8
BLACK
10
81740.0
20
57110.0
11
81840.0
21
57140.0
0
LINE
8
BLACK
10
81840.0
20
57140.0
11
82010.0
21
57140.0
0
LINE
8
BLACK
10
82010.0
20
57140.0
11
82100.0
21
57110.0
0
LINE
8
BLACK
10
82100.0
20
57110.0
11
82150.0
21
57070.0
0
LINE
8
BLACK
10
82150.0
20
57070.0
11
82170.0
21
57020.0
0
LINE
8
BLACK
10
82170.0
20
57020.0
11
82170.0
21
56920.0
0
LINE
8
BLACK
10
82170.0
20
56920.0
11
82150.0
21
56880.0
0
LINE
8
BLACK
10
82150.0
20
56880.0
11
82100.0
21
56830.0
0
LINE
8
BLACK
10
82100.0
20
56830.0
11
82010.0
21
56810.0
0
LINE
8
BLACK
10
82010.0
20
56810.0
11
81840.0
21
56810.0
0
LINE
8
BLACK
10
81840.0
20
56810.0
11
81740.0
21
56830.0
0
LINE
8
BLACK
10
81740.0
20
56830.0
11
81700.0
21
56880.0
0
LINE
8
BLACK
10
81700.0
20
56880.0
11
81670.0
21
56920.0
0
LINE
8
BLACK
10
82170.0
20
57350.0
11
81670.0
21
57350.0
0
LINE
8
BLACK
10
81670.0
20
57350.0
11
82170.0
21
57630.0
0
LINE
8
BLACK
10
82170.0
20
57630.0
11
81670.0
21
57630.0
0
LINE
8
BLACK
10
82170.0
20
57870.0
11
81670.0
21
57870.0
0
LINE
8
BLACK
10
81670.0
20
57870.0
11
82170.0
21
58150.0
0
LINE
8
BLACK
10
82170.0
20
58150.0
11
81670.0
21
58150.0
0
LINE
8
BLACK
10
82220.0
20
58270.0
11
82220.0
21
58650.0
0
LINE
8
BLACK
10
81840.0
20
58980.0
11
82170.0
21
58980.0
0
LINE
8
BLACK
10
81650.0
20
58860.0
11
82010.0
21
58750.0
0
LINE
8
BLACK
10
82010.0
20
58750.0
11
82010.0
21
59050.0
0
LINE
8
BLACK
10
67000.0
20
59670.0
11
67000.0
21
55670.0
0
LINE
8
BLACK
10
67000.0
20
55670.0
11
69000.0
21
55670.0
0
LINE
8
BLACK
10
69000.0
20
55670.0
11
69000.0
21
59670.0
0
LINE
8
BLACK
10
69000.0
20
59670.0
11
67000.0
21
59670.0
0
CIRCLE
8
BLACK
10
66650.0
20
59170.0
40
350
0
LINE
8
BLACK
10
66300.0
20
59170.0
11
64500.0
21
59170.0
0
LINE
8
BLACK
10
65890.0
20
59320.0
11
65610.0
21
59320.0
0
LINE
8
BLACK
10
65750.0
20
59320.0
11
65750.0
21
59820.0
0
LINE
8
BLACK
10
65750.0
20
59820.0
11
65700.0
21
59750.0
0
LINE
8
BLACK
10
65700.0
20
59750.0
11
65650.0
21
59700.0
0
LINE
8
BLACK
10
65650.0
20
59700.0
11
65610.0
21
59670.0
0
CIRCLE
8
BLACK
10
66650.0
20
58170.0
40
350
0
LINE
8
BLACK
10
66300.0
20
58170.0
11
64500.0
21
58170.0
0
LINE
8
BLACK
10
65610.0
20
58770.0
11
65630.0
21
58790.0
0
LINE
8
BLACK
10
65630.0
20
58790.0
11
65680.0
21
58820.0
0
LINE
8
BLACK
10
65680.0
20
58820.0
11
65800.0
21
58820.0
0
LINE
8
BLACK
10
65800.0
20
58820.0
11
65840.0
21
58790.0
0
LINE
8
BLACK
10
65840.0
20
58790.0
11
65870.0
21
58770.0
0
LINE
8
BLACK
10
65870.0
20
58770.0
11
65890.0
21
58720.0
0
LINE
8
BLACK
10
65890.0
20
58720.0
11
65890.0
21
58670.0
0
LINE
8
BLACK
10
65890.0
20
58670.0
11
65870.0
21
58600.0
0
LINE
8
BLACK
10
65870.0
20
58600.0
11
65580.0
21
58320.0
0
LINE
8
BLACK
10
65580.0
20
58320.0
11
65890.0
21
58320.0
0
CIRCLE
8
BLACK
10
66650.0
20
57170.0
40
350
0
LINE
8
BLACK
10
66300.0
20
57170.0
11
64500.0
21
57170.0
0
LINE
8
BLACK
10
65580.0
20
57820.0
11
65890.0
21
57820.0
0
LINE
8
BLACK
10
65890.0
20
57820.0
11
65720.0
21
57630.0
0
LINE
8
BLACK
10
65720.0
20
57630.0
11
65800.0
21
57630.0
0
LINE
8
BLACK
10
65800.0
20
57630.0
11
65840.0
21
57600.0
0
LINE
8
BLACK
10
65840.0
20
57600.0
11
65870.0
21
57580.0
0
LINE
8
BLACK
10
65870.0
20
57580.0
11
65890.0
21
57530.0
0
LINE
8
BLACK
10
65890.0
20
57530.0
11
65890.0
21
57410.0
0
LINE
8
BLACK
10
65890.0
20
57410.0
11
65870.0
21
57370.0
0
LINE
8
BLACK
10
65870.0
20
57370.0
11
65840.0
21
57340.0
0
LINE
8
BLACK
10
65840.0
20
57340.0
11
65800.0
21
57320.0
0
LINE
8
BLACK
10
65800.0
20
57320.0
11
65650.0
21
57320.0
0
LINE
8
BLACK
10
65650.0
20
57320.0
11
65610.0
21
57340.0
0
LINE
8
BLACK
10
65610.0
20
57340.0
11
65580.0
21
57370.0
0
CIRCLE
8
BLACK
10
66650.0
20
56170.0
40
350
0
LINE
8
BLACK
10
66300.0
20
56170.0
11
64500.0
21
56170.0
0
LINE
8
BLACK
10
65840.0
20
56650.0
11
65840.0
21
56320.0
0
LINE
8
BLACK
10
65720.0
20
56840.0
11
65610.0
21
56480.0
0
LINE
8
BLACK
10
65610.0
20
56480.0
11
65910.0
21
56480.0
0
LINE
8
BLACK
10
67670.0
20
57300.0
11
67170.0
21
57300.0
0
LINE
8
BLACK
10
67170.0
20
57300.0
11
67170.0
21
57490.0
0
LINE
8
BLACK
10
67170.0
20
57490.0
11
67200.0
21
57540.0
0
LINE
8
BLACK
10
67200.0
20
57540.0
11
67220.0
21
57560.0
0
LINE
8
BLACK
10
67220.0
20
57560.0
11
67270.0
21
57580.0
0
LINE
8
BLACK
10
67270.0
20
57580.0
11
67340.0
21
57580.0
0
LINE
8
BLACK
10
67340.0
20
57580.0
11
67390.0
21
57560.0
0
LINE
8
BLACK
10
67390.0
20
57560.0
11
67410.0
21
57540.0
0
LINE
8
BLACK
10
67410.0
20
57540.0
11
67430.0
21
57490.0
0
LINE
8
BLACK
10
67430.0
20
57490.0
11
67430.0
21
57300.0
0
LINE
8
BLACK
10
67390.0
20
57870.0
11
67360.0
21
57820.0
0
LINE
8
BLACK
10
67360.0
20
57820.0
11
67340.0
21
57800.0
0
LINE
8
BLACK
10
67340.0
20
57800.0
11
67290.0
21
57780.0
0
LINE
8
BLACK
10
67290.0
20
57780.0
11
67270.0
21
57780.0
0
LINE
8
BLACK
10
67270.0
20
57780.0
11
67220.0
21
57800.0
0
LINE
8
BLACK
10
67220.0
20
57800.0
11
67200.0
21
57820.0
0
LINE
8
BLACK
10
67200.0
20
57820.0
11
67170.0
21
57870.0
0
LINE
8
BLACK
10
67170.0
20
57870.0
11
67170.0
21
57970.0
0
LINE
8
BLACK
10
67170.0
20
57970.0
11
67200.0
21
58010.0
0
LINE
8
BLACK
10
67200.0
20
58010.0
11
67220.0
21
58040.0
0
LINE
8
BLACK
10
67220.0
20
58040.0
11
67270.0
21
58060.0
0
LINE
8
BLACK
10
67270.0
20
58060.0
11
67290.0
21
58060.0
0
LINE
8
BLACK
10
67290.0
20
58060.0
11
67340.0
21
58040.0
0
LINE
8
BLACK
10
67340.0
20
58040.0
11
67360.0
21
58010.0
0
LINE
8
BLACK
10
67360.0
20
58010.0
11
67390.0
21
57970.0
0
LINE
8
BLACK
10
67390.0
20
57970.0
11
67390.0
21
57870.0
0
LINE
8
BLACK
10
67390.0
20
57870.0
11
67410.0
21
57820.0
0
LINE
8
BLACK
10
67410.0
20
57820.0
11
67430.0
21
57800.0
0
LINE
8
BLACK
10
67430.0
20
57800.0
11
67480.0
21
57780.0
0
LINE
8
BLACK
10
67480.0
20
57780.0
11
67580.0
21
57780.0
0
LINE
8
BLACK
10
67580.0
20
57780.0
11
67620.0
21
57800.0
0
LINE
8
BLACK
10
67620.0
20
57800.0
11
67650.0
21
57820.0
0
LINE
8
BLACK
10
67650.0
20
57820.0
11
67670.0
21
57870.0
0
LINE
8
BLACK
10
67670.0
20
57870.0
11
67670.0
21
57970.0
0
LINE
8
BLACK
10
67670.0
20
57970.0
11
67650.0
21
58010.0
0
LINE
8
BLACK
10
67650.0
20
58010.0
11
67620.0
21
58040.0
0
LINE
8
BLACK
10
67620.0
20
58040.0
11
67580.0
21
58060.0
0
LINE
8
BLACK
10
67580.0
20
58060.0
11
67480.0
21
58060.0
0
LINE
8
BLACK
10
67480.0
20
58060.0
11
67430.0
21
58040.0
0
LINE
8
BLACK
10
67430.0
20
58040.0
11
67410.0
21
58010.0
0
LINE
8
BLACK
10
67410.0
20
58010.0
11
67390.0
21
57970.0
0
LINE
8
BLACK
10
68620.0
20
56610.0
11
68650.0
21
56590.0
0
LINE
8
BLACK
10
68650.0
20
56590.0
11
68670.0
21
56520.0
0
LINE
8
BLACK
10
68670.0
20
56520.0
11
68670.0
21
56470.0
0
LINE
8
BLACK
10
68670.0
20
56470.0
11
68650.0
21
56400.0
0
LINE
8
BLACK
10
68650.0
20
56400.0
11
68600.0
21
56350.0
0
LINE
8
BLACK
10
68600.0
20
56350.0
11
68550.0
21
56330.0
0
LINE
8
BLACK
10
68550.0
20
56330.0
11
68460.0
21
56310.0
0
LINE
8
BLACK
10
68460.0
20
56310.0
11
68390.0
21
56310.0
0
LINE
8
BLACK
10
68390.0
20
56310.0
11
68290.0
21
56330.0
0
LINE
8
BLACK
10
68290.0
20
56330.0
11
68240.0
21
56350.0
0
LINE
8
BLACK
10
68240.0
20
56350.0
11
68200.0
21
56400.0
0
LINE
8
BLACK
10
68200.0
20
56400.0
11
68170.0
21
56470.0
0
LINE
8
BLACK
10
68170.0
20
56470.0
11
68170.0
21
56520.0
0
LINE
8
BLACK
10
68170.0
20
56520.0
11
68200.0
21
56590.0
0
LINE
8
BLACK
10
68200.0
20
56590.0
11
68220.0
21
56610.0
0
LINE
8
BLACK
10
68170.0
20
56920.0
11
68170.0
21
57020.0
0
LINE
8
BLACK
10
68170.0
20
57020.0
11
68200.0
21
57070.0
0
LINE
8
BLACK
10
68200.0
20
57070.0
11
68240.0
21
57110.0
0
LINE
8
BLACK
10
68240.0
20
57110.0
11
68340.0
21
57140.0
0
LINE
8
BLACK
10
68340.0
20
57140.0
11
68510.0
21
57140.0
0
LINE
8
BLACK
10
68510.0
20
57140.0
11
68600.0
21
57110.0
0
LINE
8
BLACK
10
68600.0
20
57110.0
11
68650.0
21
57070.0
0
LINE
8
BLACK
10
68650.0
20
57070.0
11
68670.0
21
57020.0
0
LINE
8
BLACK
10
68670.0
20
57020.0
11
68670.0
21
56920.0
0
LINE
8
BLACK
10
68670.0
20
56920.0
11
68650.0
21
56880.0
0
LINE
8
BLACK
10
68650.0
20
56880.0
11
68600.0
21
56830.0
0
LINE
8
BLACK
10
68600.0
20
56830.0
11
68510.0
21
56810.0
0
LINE
8
BLACK
10
68510.0
20
56810.0
11
68340.0
21
56810.0
0
LINE
8
BLACK
10
68340.0
20
56810.0
11
68240.0
21
56830.0
0
LINE
8
BLACK
10
68240.0
20
56830.0
11
68200.0
21
56880.0
0
LINE
8
BLACK
10
68200.0
20
56880.0
11
68170.0
21
56920.0
0
LINE
8
BLACK
10
68670.0
20
57350.0
11
68170.0
21
57350.0
0
LINE
8
BLACK
10
68170.0
20
57350.0
11
68670.0
21
57630.0
0
LINE
8
BLACK
10
68670.0
20
57630.0
11
68170.0
21
57630.0
0
LINE
8
BLACK
10
68670.0
20
57870.0
11
68170.0
21
57870.0
0
LINE
8
BLACK
10
68170.0
20
57870.0
11
68670.0
21
58150.0
0
LINE
8
BLACK
10
68670.0
20
58150.0
11
68170.0
21
58150.0
0
LINE
8
BLACK
10
68720.0
20
58270.0
11
68720.0
21
58650.0
0
LINE
8
BLACK
10
68340.0
20
58980.0
11
68670.0
21
58980.0
0
LINE
8
BLACK
10
68150.0
20
58860.0
11
68510.0
21
58750.0
0
LINE
8
BLACK
10
68510.0
20
58750.0
11
68510.0
21
59050.0
0
CIRCLE
8
BLACK
10
52500.0
20
59270.0
40
200
0
LINE
8
BLACK
10
52500.0
20
58670.0
11
52500.0
21
59070.0
0
LINE
8
BLACK
10
51900.0
20
59780.0
11
52130.0
21
59780.0
0
LINE
8
BLACK
10
52020.0
20
59670.0
11
52020.0
21
59900.0
0
LINE
8
BLACK
10
52240.0
20
59970.0
11
52430.0
21
59970.0
0
LINE
8
BLACK
10
52430.0
20
59970.0
11
52330.0
21
59850.0
0
LINE
8
BLACK
10
52330.0
20
59850.0
11
52370.0
21
59850.0
0
LINE
8
BLACK
10
52370.0
20
59850.0
11
52400.0
21
59840.0
0
LINE
8
BLACK
10
52400.0
20
59840.0
11
52410.0
21
59830.0
0
LINE
8
BLACK
10
52410.0
20
59830.0
11
52430.0
21
59800.0
0
LINE
8
BLACK
10
52430.0
20
59800.0
11
52430.0
21
59730.0
0
LINE
8
BLACK
10
52430.0
20
59730.0
11
52410.0
21
59700.0
0
LINE
8
BLACK
10
52410.0
20
59700.0
11
52400.0
21
59680.0
0
LINE
8
BLACK
10
52400.0
20
59680.0
11
52370.0
21
59670.0
0
LINE
8
BLACK
10
52370.0
20
59670.0
11
52290.0
21
59670.0
0
LINE
8
BLACK
10
52290.0
20
59670.0
11
52260.0
21
59680.0
0
LINE
8
BLACK
10
52260.0
20
59680.0
11
52240.0
21
59700.0
0
LINE
8
BLACK
10
52560.0
20
59700.0
11
52580.0
21
59680.0
0
LINE
8
BLACK
10
52580.0
20
59680.0
11
52560.0
21
59670.0
0
LINE
8
BLACK
10
52560.0
20
59670.0
11
52550.0
21
59680.0
0
LINE
8
BLACK
10
52550.0
20
59680.0
11
52560.0
21
59700.0
0
LINE
8
BLACK
10
52560.0
20
59700.0
11
52560.0
21
59670.0
0
LINE
8
BLACK
10
52670.0
20
59970.0
11
52860.0
21
59970.0
0
LINE
8
BLACK
10
52860.0
20
59970.0
11
52760.0
21
59850.0
0
LINE
8
BLACK
10
52760.0
20
59850.0
11
52800.0
21
59850.0
0
LINE
8
BLACK
10
52800.0
20
59850.0
11
52830.0
21
59840.0
0
LINE
8
BLACK
10
52830.0
20
59840.0
11
52840.0
21
59830.0
0
LINE
8
BLACK
10
52840.0
20
59830.0
11
52860.0
21
59800.0
0
LINE
8
BLACK
10
52860.0
20
59800.0
11
52860.0
21
59730.0
0
LINE
8
BLACK
10
52860.0
20
59730.0
11
52840.0
21
59700.0
0
LINE
8
BLACK
10
52840.0
20
59700.0
11
52830.0
21
59680.0
0
LINE
8
BLACK
10
52830.0
20
59680.0
11
52800.0
21
59670.0
0
LINE
8
BLACK
10
52800.0
20
59670.0
11
52720.0
21
59670.0
0
LINE
8
BLACK
10
52720.0
20
59670.0
11
52690.0
21
59680.0
0
LINE
8
BLACK
10
52690.0
20
59680.0
11
52670.0
21
59700.0
0
LINE
8
BLACK
10
52950.0
20
59970.0
11
53050.0
21
59670.0
0
LINE
8
BLACK
10
53050.0
20
59670.0
11
53150.0
21
59970.0
0
CIRCLE
8
BLACK
10
44500.0
20
59170.0
40
200
0
LINE
8
BLACK
10
44500.0
20
58670.0
11
44500.0
21
58970.0
0
LINE
8
BLACK
10
44110.0
20
59580.0
11
44340.0
21
59580.0
0
LINE
8
BLACK
10
44230.0
20
59470.0
11
44230.0
21
59700.0
0
LINE
8
BLACK
10
44620.0
20
59770.0
11
44480.0
21
59770.0
0
LINE
8
BLACK
10
44480.0
20
59770.0
11
44470.0
21
59630.0
0
LINE
8
BLACK
10
44470.0
20
59630.0
11
44480.0
21
59640.0
0
LINE
8
BLACK
10
44480.0
20
59640.0
11
44510.0
21
59650.0
0
LINE
8
BLACK
10
44510.0
20
59650.0
11
44580.0
21
59650.0
0
LINE
8
BLACK
10
44580.0
20
59650.0
11
44610.0
21
59640.0
0
LINE
8
BLACK
10
44610.0
20
59640.0
11
44620.0
21
59630.0
0
LINE
8
BLACK
10
44620.0
20
59630.0
11
44640.0
21
59600.0
0
LINE
8
BLACK
10
44640.0
20
59600.0
11
44640.0
21
59530.0
0
LINE
8
BLACK
10
44640.0
20
59530.0
11
44620.0
21
59500.0
0
LINE
8
BLACK
10
44620.0
20
59500.0
11
44610.0
21
59480.0
0
LINE
8
BLACK
10
44610.0
20
59480.0
11
44580.0
21
59470.0
0
LINE
8
BLACK
10
44580.0
20
59470.0
11
44510.0
21
59470.0
0
LINE
8
BLACK
10
44510.0
20
59470.0
11
44480.0
21
59480.0
0
LINE
8
BLACK
10
44480.0
20
59480.0
11
44470.0
21
59500.0
0
LINE
8
BLACK
10
44730.0
20
59770.0
11
44830.0
21
59470.0
0
LINE
8
BLACK
10
44830.0
20
59470.0
11
44930.0
21
59770.0
0
LINE
8
BLACK
10
53000.0
20
49170.0
11
52000.0
21
49170.0
0
LINE
8
BLACK
10
53000.0
20
50170.0
11
52500.0
21
49170.0
0
LINE
8
BLACK
10
52500.0
20
49170.0
11
52000.0
21
50170.0
0
LINE
8
BLACK
10
52000.0
20
50170.0
11
53000.0
21
50170.0
0
LINE
8
BLACK
10
52100.0
20
49020.0
11
51700.0
21
48570.0
0
LINE
8
BLACK
10
51700.0
20
48570.0
11
51950.0
21
48620.0
0
LINE
8
BLACK
10
52250.0
20
48870.0
11
51850.0
21
48420.0
0
LINE
8
BLACK
10
51850.0
20
48420.0
11
52100.0
21
48470.0
0
LINE
8
BLACK
10
52500.0
20
50170.0
11
52500.0
21
51670.0
0
LINE
8
BLACK
10
52360.0
20
51030.0
11
52360.0
21
50810.0
0
LINE
8
BLACK
10
52360.0
20
50920.0
11
51960.0
21
50920.0
0
LINE
8
BLACK
10
51960.0
20
50920.0
11
52020.0
21
50880.0
0
LINE
8
BLACK
10
52020.0
20
50880.0
11
52060.0
21
50840.0
0
LINE
8
BLACK
10
52060.0
20
50840.0
11
52080.0
21
50810.0
0
LINE
8
BLACK
10
52500.0
20
49170.0
11
52500.0
21
47670.0
0
LINE
8
BLACK
10
52000.0
20
48310.0
11
51980.0
21
48330.0
0
LINE
8
BLACK
10
51980.0
20
48330.0
11
51960.0
21
48360.0
0
LINE
8
BLACK
10
51960.0
20
48360.0
11
51960.0
21
48460.0
0
LINE
8
BLACK
10
51960.0
20
48460.0
11
51980.0
21
48500.0
0
LINE
8
BLACK
10
51980.0
20
48500.0
11
52000.0
21
48520.0
0
LINE
8
BLACK
10
52000.0
20
48520.0
11
52040.0
21
48530.0
0
LINE
8
BLACK
10
52040.0
20
48530.0
11
52080.0
21
48530.0
0
LINE
8
BLACK
10
52080.0
20
48530.0
11
52130.0
21
48520.0
0
LINE
8
BLACK
10
52130.0
20
48520.0
11
52360.0
21
48290.0
0
LINE
8
BLACK
10
52360.0
20
48290.0
11
52360.0
21
48530.0
0
LINE
8
BLACK
10
53730.0
20
49300.0
11
53230.0
21
49300.0
0
LINE
8
BLACK
10
53230.0
20
49300.0
11
53230.0
21
49420.0
0
LINE
8
BLACK
10
53230.0
20
49420.0
11
53260.0
21
49490.0
0
LINE
8
BLACK
10
53260.0
20
49490.0
11
53300.0
21
49540.0
0
LINE
8
BLACK
10
53300.0
20
49540.0
11
53350.0
21
49560.0
0
LINE
8
BLACK
10
53350.0
20
49560.0
11
53450.0
21
49580.0
0
LINE
8
BLACK
10
53450.0
20
49580.0
11
53520.0
21
49580.0
0
LINE
8
BLACK
10
53520.0
20
49580.0
11
53610.0
21
49560.0
0
LINE
8
BLACK
10
53610.0
20
49560.0
11
53660.0
21
49540.0
0
LINE
8
BLACK
10
53660.0
20
49540.0
11
53710.0
21
49490.0
0
LINE
8
BLACK
10
53710.0
20
49490.0
11
53730.0
21
49420.0
0
LINE
8
BLACK
10
53730.0
20
49420.0
11
53730.0
21
49300.0
0
LINE
8
BLACK
10
53450.0
20
49870.0
11
53420.0
21
49820.0
0
LINE
8
BLACK
10
53420.0
20
49820.0
11
53400.0
21
49800.0
0
LINE
8
BLACK
10
53400.0
20
49800.0
11
53350.0
21
49780.0
0
LINE
8
BLACK
10
53350.0
20
49780.0
11
53330.0
21
49780.0
0
LINE
8
BLACK
10
53330.0
20
49780.0
11
53280.0
21
49800.0
0
LINE
8
BLACK
10
53280.0
20
49800.0
11
53260.0
21
49820.0
0
LINE
8
BLACK
10
53260.0
20
49820.0
11
53230.0
21
49870.0
0
LINE
8
BLACK
10
53230.0
20
49870.0
11
53230.0
21
49970.0
0
LINE
8
BLACK
10
53230.0
20
49970.0
11
53260.0
21
50010.0
0
LINE
8
BLACK
10
53260.0
20
50010.0
11
53280.0
21
50040.0
0
LINE
8
BLACK
10
53280.0
20
50040.0
11
53330.0
21
50060.0
0
LINE
8
BLACK
10
53330.0
20
50060.0
11
53350.0
21
50060.0
0
LINE
8
BLACK
10
53350.0
20
50060.0
11
53400.0
21
50040.0
0
LINE
8
BLACK
10
53400.0
20
50040.0
11
53420.0
21
50010.0
0
LINE
8
BLACK
10
53420.0
20
50010.0
11
53450.0
21
49970.0
0
LINE
8
BLACK
10
53450.0
20
49970.0
11
53450.0
21
49870.0
0
LINE
8
BLACK
10
53450.0
20
49870.0
11
53470.0
21
49820.0
0
LINE
8
BLACK
10
53470.0
20
49820.0
11
53490.0
21
49800.0
0
LINE
8
BLACK
10
53490.0
20
49800.0
11
53540.0
21
49780.0
0
LINE
8
BLACK
10
53540.0
20
49780.0
11
53640.0
21
49780.0
0
LINE
8
BLACK
10
53640.0
20
49780.0
11
53680.0
21
49800.0
0
LINE
8
BLACK
10
53680.0
20
49800.0
11
53710.0
21
49820.0
0
LINE
8
BLACK
10
53710.0
20
49820.0
11
53730.0
21
49870.0
0
LINE
8
BLACK
10
53730.0
20
49870.0
11
53730.0
21
49970.0
0
LINE
8
BLACK
10
53730.0
20
49970.0
11
53710.0
21
50010.0
0
LINE
8
BLACK
10
53710.0
20
50010.0
11
53680.0
21
50040.0
0
LINE
8
BLACK
10
53680.0
20
50040.0
11
53640.0
21
50060.0
0
LINE
8
BLACK
10
53640.0
20
50060.0
11
53540.0
21
50060.0
0
LINE
8
BLACK
10
53540.0
20
50060.0
11
53490.0
21
50040.0
0
LINE
8
BLACK
10
53490.0
20
50040.0
11
53470.0
21
50010.0
0
LINE
8
BLACK
10
53470.0
20
50010.0
11
53450.0
21
49970.0
0
LINE
8
BLACK
10
51730.0
20
49360.0
11
51730.0
21
49120.0
0
LINE
8
BLACK
10
51730.0
20
49120.0
11
51230.0
21
49120.0
0
LINE
8
BLACK
10
51470.0
20
49520.0
11
51470.0
21
49690.0
0
LINE
8
BLACK
10
51730.0
20
49760.0
11
51730.0
21
49520.0
0
LINE
8
BLACK
10
51730.0
20
49520.0
11
51230.0
21
49520.0
0
LINE
8
BLACK
10
51230.0
20
49520.0
11
51230.0
21
49760.0
0
LINE
8
BLACK
10
51730.0
20
49970.0
11
51230.0
21
49970.0
0
LINE
8
BLACK
10
51230.0
20
49970.0
11
51230.0
21
50090.0
0
LINE
8
BLACK
10
51230.0
20
50090.0
11
51260.0
21
50160.0
0
LINE
8
BLACK
10
51260.0
20
50160.0
11
51300.0
21
50210.0
0
LINE
8
BLACK
10
51300.0
20
50210.0
11
51350.0
21
50230.0
0
LINE
8
BLACK
10
51350.0
20
50230.0
11
51450.0
21
50250.0
0
LINE
8
BLACK
10
51450.0
20
50250.0
11
51520.0
21
50250.0
0
LINE
8
BLACK
10
51520.0
20
50250.0
11
51610.0
21
50230.0
0
LINE
8
BLACK
10
51610.0
20
50230.0
11
51660.0
21
50210.0
0
LINE
8
BLACK
10
51660.0
20
50210.0
11
51710.0
21
50160.0
0
LINE
8
BLACK
10
51710.0
20
50160.0
11
51730.0
21
50090.0
0
LINE
8
BLACK
10
51730.0
20
50090.0
11
51730.0
21
49970.0
0
LINE
8
BLACK
10
52900.0
20
53670.0
11
52900.0
21
56670.0
0
LINE
8
BLACK
10
52900.0
20
56670.0
11
52100.0
21
56670.0
0
LINE
8
BLACK
10
52100.0
20
56670.0
11
52100.0
21
53670.0
0
LINE
8
BLACK
10
52100.0
20
53670.0
11
52900.0
21
53670.0
0
LINE
8
BLACK
10
52500.0
20
53670.0
11
52500.0
21
52670.0
0
LINE
8
BLACK
10
52500.0
20
56670.0
11
52500.0
21
57670.0
0
LINE
8
BLACK
10
51930.0
20
54840.0
11
51690.0
21
54680.0
0
LINE
8
BLACK
10
51930.0
20
54560.0
11
51430.0
21
54560.0
0
LINE
8
BLACK
10
51430.0
20
54560.0
11
51430.0
21
54750.0
0
LINE
8
BLACK
10
51430.0
20
54750.0
11
51460.0
21
54800.0
0
LINE
8
BLACK
10
51460.0
20
54800.0
11
51480.0
21
54820.0
0
LINE
8
BLACK
10
51480.0
20
54820.0
11
51530.0
21
54840.0
0
LINE
8
BLACK
10
51530.0
20
54840.0
11
51600.0
21
54840.0
0
LINE
8
BLACK
10
51600.0
20
54840.0
11
51650.0
21
54820.0
0
LINE
8
BLACK
10
51650.0
20
54820.0
11
51670.0
21
54800.0
0
LINE
8
BLACK
10
51670.0
20
54800.0
11
51690.0
21
54750.0
0
LINE
8
BLACK
10
51690.0
20
54750.0
11
51690.0
21
54560.0
0
LINE
8
BLACK
10
51430.0
20
55270.0
11
51430.0
21
55180.0
0
LINE
8
BLACK
10
51430.0
20
55180.0
11
51460.0
21
55130.0
0
LINE
8
BLACK
10
51460.0
20
55130.0
11
51480.0
21
55110.0
0
LINE
8
BLACK
10
51480.0
20
55110.0
11
51550.0
21
55060.0
0
LINE
8
BLACK
10
51550.0
20
55060.0
11
51650.0
21
55040.0
0
LINE
8
BLACK
10
51650.0
20
55040.0
11
51840.0
21
55040.0
0
LINE
8
BLACK
10
51840.0
20
55040.0
11
51880.0
21
55060.0
0
LINE
8
BLACK
10
51880.0
20
55060.0
11
51910.0
21
55080.0
0
LINE
8
BLACK
10
51910.0
20
55080.0
11
51930.0
21
55130.0
0
LINE
8
BLACK
10
51930.0
20
55130.0
11
51930.0
21
55230.0
0
LINE
8
BLACK
10
51930.0
20
55230.0
11
51910.0
21
55270.0
0
LINE
8
BLACK
10
51910.0
20
55270.0
11
51880.0
21
55300.0
0
LINE
8
BLACK
10
51880.0
20
55300.0
11
51840.0
21
55320.0
0
LINE
8
BLACK
10
51840.0
20
55320.0
11
51720.0
21
55320.0
0
LINE
8
BLACK
10
51720.0
20
55320.0
11
51670.0
21
55300.0
0
LINE
8
BLACK
10
51670.0
20
55300.0
11
51650.0
21
55270.0
0
LINE
8
BLACK
10
51650.0
20
55270.0
11
51620.0
21
55230.0
0
LINE
8
BLACK
10
51620.0
20
55230.0
11
51620.0
21
55130.0
0
LINE
8
BLACK
10
51620.0
20
55130.0
11
51650.0
21
55080.0
0
LINE
8
BLACK
10
51650.0
20
55080.0
11
51670.0
21
55060.0
0
LINE
8
BLACK
10
51670.0
20
55060.0
11
51720.0
21
55040.0
0
LINE
8
BLACK
10
51430.0
20
55750.0
11
51430.0
21
55660.0
0
LINE
8
BLACK
10
51430.0
20
55660.0
11
51460.0
21
55610.0
0
LINE
8
BLACK
10
51460.0
20
55610.0
11
51480.0
21
55590.0
0
LINE
8
BLACK
10
51480.0
20
55590.0
11
51550.0
21
55540.0
0
LINE
8
BLACK
10
51550.0
20
55540.0
11
51650.0
21
55520.0
0
LINE
8
BLACK
10
51650.0
20
55520.0
11
51840.0
21
55520.0
0
LINE
8
BLACK
10
51840.0
20
55520.0
11
51880.0
21
55540.0
0
LINE
8
BLACK
10
51880.0
20
55540.0
11
51910.0
21
55560.0
0
LINE
8
BLACK
10
51910.0
20
55560.0
11
51930.0
21
55610.0
0
LINE
8
BLACK
10
51930.0
20
55610.0
11
51930.0
21
55710.0
0
LINE
8
BLACK
10
51930.0
20
55710.0
11
51910.0
21
55750.0
0
LINE
8
BLACK
10
51910.0
20
55750.0
11
51880.0
21
55780.0
0
LINE
8
BLACK
10
51880.0
20
55780.0
11
51840.0
21
55800.0
0
LINE
8
BLACK
10
51840.0
20
55800.0
11
51720.0
21
55800.0
0
LINE
8
BLACK
10
51720.0
20
55800.0
11
51670.0
21
55780.0
0
LINE
8
BLACK
10
51670.0
20
55780.0
11
51650.0
21
55750.0
0
LINE
8
BLACK
10
51650.0
20
55750.0
11
51620.0
21
55710.0
0
LINE
8
BLACK
10
51620.0
20
55710.0
11
51620.0
21
55610.0
0
LINE
8
BLACK
10
51620.0
20
55610.0
11
51650.0
21
55560.0
0
LINE
8
BLACK
10
51650.0
20
55560.0
11
51670.0
21
55540.0
0
LINE
8
BLACK
10
51670.0
20
55540.0
11
51720.0
21
55520.0
0
LINE
8
BLACK
10
52280.0
20
54420.0
11
52260.0
21
54440.0
0
LINE
8
BLACK
10
52260.0
20
54440.0
11
52230.0
21
54490.0
0
LINE
8
BLACK
10
52230.0
20
54490.0
11
52230.0
21
54610.0
0
LINE
8
BLACK
10
52230.0
20
54610.0
11
52260.0
21
54650.0
0
LINE
8
BLACK
10
52260.0
20
54650.0
11
52280.0
21
54680.0
0
LINE
8
BLACK
10
52280.0
20
54680.0
11
52330.0
21
54700.0
0
LINE
8
BLACK
10
52330.0
20
54700.0
11
52380.0
21
54700.0
0
LINE
8
BLACK
10
52380.0
20
54700.0
11
52450.0
21
54680.0
0
LINE
8
BLACK
10
52450.0
20
54680.0
11
52730.0
21
54390.0
0
LINE
8
BLACK
10
52730.0
20
54390.0
11
52730.0
21
54700.0
0
LINE
8
BLACK
10
52680.0
20
54920.0
11
52710.0
21
54940.0
0
LINE
8
BLACK
10
52710.0
20
54940.0
11
52730.0
21
54920.0
0
LINE
8
BLACK
10
52730.0
20
54920.0
11
52710.0
21
54900.0
0
LINE
8
BLACK
10
52710.0
20
54900.0
11
52680.0
21
54920.0
0
LINE
8
BLACK
10
52680.0
20
54920.0
11
52730.0
21
54920.0
0
LINE
8
BLACK
10
52280.0
20
55140.0
11
52260.0
21
55160.0
0
LINE
8
BLACK
10
52260.0
20
55160.0
11
52230.0
21
55210.0
0
LINE
8
BLACK
10
52230.0
20
55210.0
11
52230.0
21
55330.0
0
LINE
8
BLACK
10
52230.0
20
55330.0
11
52260.0
21
55370.0
0
LINE
8
BLACK
10
52260.0
20
55370.0
11
52280.0
21
55400.0
0
LINE
8
BLACK
10
52280.0
20
55400.0
11
52330.0
21
55420.0
0
LINE
8
BLACK
10
52330.0
20
55420.0
11
52380.0
21
55420.0
0
LINE
8
BLACK
10
52380.0
20
55420.0
11
52450.0
21
55400.0
0
LINE
8
BLACK
10
52450.0
20
55400.0
11
52730.0
21
55110.0
0
LINE
8
BLACK
10
52730.0
20
55110.0
11
52730.0
21
55420.0
0
LINE
8
BLACK
10
52730.0
20
55640.0
11
52230.0
21
55640.0
0
LINE
8
BLACK
10
52730.0
20
55920.0
11
52450.0
21
55710.0
0
LINE
8
BLACK
10
52230.0
20
55920.0
11
52520.0
21
55640.0
0
LINE
8
BLACK
10
44900.0
20
53670.0
11
44900.0
21
56670.0
0
LINE
8
BLACK
10
44900.0
20
56670.0
11
44100.0
21
56670.0
0
LINE
8
BLACK
10
44100.0
20
56670.0
11
44100.0
21
53670.0
0
LINE
8
BLACK
10
44100.0
20
53670.0
11
44900.0
21
53670.0
0
LINE
8
BLACK
10
44500.0
20
53670.0
11
44500.0
21
52670.0
0
LINE
8
BLACK
10
44500.0
20
56670.0
11
44500.0
21
57670.0
0
LINE
8
BLACK
10
43930.0
20
54840.0
11
43690.0
21
54680.0
0
LINE
8
BLACK
10
43930.0
20
54560.0
11
43430.0
21
54560.0
0
LINE
8
BLACK
10
43430.0
20
54560.0
11
43430.0
21
54750.0
0
LINE
8
BLACK
10
43430.0
20
54750.0
11
43460.0
21
54800.0
0
LINE
8
BLACK
10
43460.0
20
54800.0
11
43480.0
21
54820.0
0
LINE
8
BLACK
10
43480.0
20
54820.0
11
43530.0
21
54840.0
0
LINE
8
BLACK
10
43530.0
20
54840.0
11
43600.0
21
54840.0
0
LINE
8
BLACK
10
43600.0
20
54840.0
11
43650.0
21
54820.0
0
LINE
8
BLACK
10
43650.0
20
54820.0
11
43670.0
21
54800.0
0
LINE
8
BLACK
10
43670.0
20
54800.0
11
43690.0
21
54750.0
0
LINE
8
BLACK
10
43690.0
20
54750.0
11
43690.0
21
54560.0
0
LINE
8
BLACK
10
43430.0
20
55270.0
11
43430.0
21
55180.0
0
LINE
8
BLACK
10
43430.0
20
55180.0
11
43460.0
21
55130.0
0
LINE
8
BLACK
10
43460.0
20
55130.0
11
43480.0
21
55110.0
0
LINE
8
BLACK
10
43480.0
20
55110.0
11
43550.0
21
55060.0
0
LINE
8
BLACK
10
43550.0
20
55060.0
11
43650.0
21
55040.0
0
LINE
8
BLACK
10
43650.0
20
55040.0
11
43840.0
21
55040.0
0
LINE
8
BLACK
10
43840.0
20
55040.0
11
43880.0
21
55060.0
0
LINE
8
BLACK
10
43880.0
20
55060.0
11
43910.0
21
55080.0
0
LINE
8
BLACK
10
43910.0
20
55080.0
11
43930.0
21
55130.0
0
LINE
8
BLACK
10
43930.0
20
55130.0
11
43930.0
21
55230.0
0
LINE
8
BLACK
10
43930.0
20
55230.0
11
43910.0
21
55270.0
0
LINE
8
BLACK
10
43910.0
20
55270.0
11
43880.0
21
55300.0
0
LINE
8
BLACK
10
43880.0
20
55300.0
11
43840.0
21
55320.0
0
LINE
8
BLACK
10
43840.0
20
55320.0
11
43720.0
21
55320.0
0
LINE
8
BLACK
10
43720.0
20
55320.0
11
43670.0
21
55300.0
0
LINE
8
BLACK
10
43670.0
20
55300.0
11
43650.0
21
55270.0
0
LINE
8
BLACK
10
43650.0
20
55270.0
11
43620.0
21
55230.0
0
LINE
8
BLACK
10
43620.0
20
55230.0
11
43620.0
21
55130.0
0
LINE
8
BLACK
10
43620.0
20
55130.0
11
43650.0
21
55080.0
0
LINE
8
BLACK
10
43650.0
20
55080.0
11
43670.0
21
55060.0
0
LINE
8
BLACK
10
43670.0
20
55060.0
11
43720.0
21
55040.0
0
LINE
8
BLACK
10
43430.0
20
55780.0
11
43430.0
21
55540.0
0
LINE
8
BLACK
10
43430.0
20
55540.0
11
43670.0
21
55520.0
0
LINE
8
BLACK
10
43670.0
20
55520.0
11
43650.0
21
55540.0
0
LINE
8
BLACK
10
43650.0
20
55540.0
11
43620.0
21
55590.0
0
LINE
8
BLACK
10
43620.0
20
55590.0
11
43620.0
21
55710.0
0
LINE
8
BLACK
10
43620.0
20
55710.0
11
43650.0
21
55750.0
0
LINE
8
BLACK
10
43650.0
20
55750.0
11
43670.0
21
55780.0
0
LINE
8
BLACK
10
43670.0
20
55780.0
11
43720.0
21
55800.0
0
LINE
8
BLACK
10
43720.0
20
55800.0
11
43840.0
21
55800.0
0
LINE
8
BLACK
10
43840.0
20
55800.0
11
43880.0
21
55780.0
0
LINE
8
BLACK
10
43880.0
20
55780.0
11
43910.0
21
55750.0
0
LINE
8
BLACK
10
43910.0
20
55750.0
11
43930.0
21
55710.0
0
LINE
8
BLACK
10
43930.0
20
55710.0
11
43930.0
21
55590.0
0
LINE
8
BLACK
10
43930.0
20
55590.0
11
43910.0
21
55540.0
0
LINE
8
BLACK
10
43910.0
20
55540.0
11
43880.0
21
55520.0
0
LINE
8
BLACK
10
44280.0
20
54420.0
11
44260.0
21
54440.0
0
LINE
8
BLACK
10
44260.0
20
54440.0
11
44230.0
21
54490.0
0
LINE
8
BLACK
10
44230.0
20
54490.0
11
44230.0
21
54610.0
0
LINE
8
BLACK
10
44230.0
20
54610.0
11
44260.0
21
54650.0
0
LINE
8
BLACK
10
44260.0
20
54650.0
11
44280.0
21
54680.0
0
LINE
8
BLACK
10
44280.0
20
54680.0
11
44330.0
21
54700.0
0
LINE
8
BLACK
10
44330.0
20
54700.0
11
44380.0
21
54700.0
0
LINE
8
BLACK
10
44380.0
20
54700.0
11
44450.0
21
54680.0
0
LINE
8
BLACK
10
44450.0
20
54680.0
11
44730.0
21
54390.0
0
LINE
8
BLACK
10
44730.0
20
54390.0
11
44730.0
21
54700.0
0
LINE
8
BLACK
10
44680.0
20
54920.0
11
44710.0
21
54940.0
0
LINE
8
BLACK
10
44710.0
20
54940.0
11
44730.0
21
54920.0
0
LINE
8
BLACK
10
44730.0
20
54920.0
11
44710.0
21
54900.0
0
LINE
8
BLACK
10
44710.0
20
54900.0
11
44680.0
21
54920.0
0
LINE
8
BLACK
10
44680.0
20
54920.0
11
44730.0
21
54920.0
0
LINE
8
BLACK
10
44280.0
20
55140.0
11
44260.0
21
55160.0
0
LINE
8
BLACK
10
44260.0
20
55160.0
11
44230.0
21
55210.0
0
LINE
8
BLACK
10
44230.0
20
55210.0
11
44230.0
21
55330.0
0
LINE
8
BLACK
10
44230.0
20
55330.0
11
44260.0
21
55370.0
0
LINE
8
BLACK
10
44260.0
20
55370.0
11
44280.0
21
55400.0
0
LINE
8
BLACK
10
44280.0
20
55400.0
11
44330.0
21
55420.0
0
LINE
8
BLACK
10
44330.0
20
55420.0
11
44380.0
21
55420.0
0
LINE
8
BLACK
10
44380.0
20
55420.0
11
44450.0
21
55400.0
0
LINE
8
BLACK
10
44450.0
20
55400.0
11
44730.0
21
55110.0
0
LINE
8
BLACK
10
44730.0
20
55110.0
11
44730.0
21
55420.0
0
LINE
8
BLACK
10
44730.0
20
55640.0
11
44230.0
21
55640.0
0
LINE
8
BLACK
10
44730.0
20
55920.0
11
44450.0
21
55710.0
0
LINE
8
BLACK
10
44230.0
20
55920.0
11
44520.0
21
55640.0
0
LINE
8
BLACK
10
45000.0
20
49170.0
11
44000.0
21
49170.0
0
LINE
8
BLACK
10
45000.0
20
50170.0
11
44500.0
21
49170.0
0
LINE
8
BLACK
10
44500.0
20
49170.0
11
44000.0
21
50170.0
0
LINE
8
BLACK
10
44000.0
20
50170.0
11
45000.0
21
50170.0
0
LINE
8
BLACK
10
44100.0
20
49020.0
11
43700.0
21
48570.0
0
LINE
8
BLACK
10
43700.0
20
48570.0
11
43950.0
21
48620.0
0
LINE
8
BLACK
10
44250.0
20
48870.0
11
43850.0
21
48420.0
0
LINE
8
BLACK
10
43850.0
20
48420.0
11
44100.0
21
48470.0
0
LINE
8
BLACK
10
44500.0
20
50170.0
11
44500.0
21
51670.0
0
LINE
8
BLACK
10
44360.0
20
51030.0
11
44360.0
21
50810.0
0
LINE
8
BLACK
10
44360.0
20
50920.0
11
43960.0
21
50920.0
0
LINE
8
BLACK
10
43960.0
20
50920.0
11
44020.0
21
50880.0
0
LINE
8
BLACK
10
44020.0
20
50880.0
11
44060.0
21
50840.0
0
LINE
8
BLACK
10
44060.0
20
50840.0
11
44080.0
21
50810.0
0
LINE
8
BLACK
10
44500.0
20
49170.0
11
44500.0
21
47670.0
0
LINE
8
BLACK
10
44000.0
20
48310.0
11
43980.0
21
48330.0
0
LINE
8
BLACK
10
43980.0
20
48330.0
11
43960.0
21
48360.0
0
LINE
8
BLACK
10
43960.0
20
48360.0
11
43960.0
21
48460.0
0
LINE
8
BLACK
10
43960.0
20
48460.0
11
43980.0
21
48500.0
0
LINE
8
BLACK
10
43980.0
20
48500.0
11
44000.0
21
48520.0
0
LINE
8
BLACK
10
44000.0
20
48520.0
11
44040.0
21
48530.0
0
LINE
8
BLACK
10
44040.0
20
48530.0
11
44080.0
21
48530.0
0
LINE
8
BLACK
10
44080.0
20
48530.0
11
44130.0
21
48520.0
0
LINE
8
BLACK
10
44130.0
20
48520.0
11
44360.0
21
48290.0
0
LINE
8
BLACK
10
44360.0
20
48290.0
11
44360.0
21
48530.0
0
LINE
8
BLACK
10
45730.0
20
49300.0
11
45230.0
21
49300.0
0
LINE
8
BLACK
10
45230.0
20
49300.0
11
45230.0
21
49420.0
0
LINE
8
BLACK
10
45230.0
20
49420.0
11
45260.0
21
49490.0
0
LINE
8
BLACK
10
45260.0
20
49490.0
11
45300.0
21
49540.0
0
LINE
8
BLACK
10
45300.0
20
49540.0
11
45350.0
21
49560.0
0
LINE
8
BLACK
10
45350.0
20
49560.0
11
45450.0
21
49580.0
0
LINE
8
BLACK
10
45450.0
20
49580.0
11
45520.0
21
49580.0
0
LINE
8
BLACK
10
45520.0
20
49580.0
11
45610.0
21
49560.0
0
LINE
8
BLACK
10
45610.0
20
49560.0
11
45660.0
21
49540.0
0
LINE
8
BLACK
10
45660.0
20
49540.0
11
45710.0
21
49490.0
0
LINE
8
BLACK
10
45710.0
20
49490.0
11
45730.0
21
49420.0
0
LINE
8
BLACK
10
45730.0
20
49420.0
11
45730.0
21
49300.0
0
LINE
8
BLACK
10
45230.0
20
49750.0
11
45230.0
21
50080.0
0
LINE
8
BLACK
10
45230.0
20
50080.0
11
45730.0
21
49870.0
0
LINE
8
BLACK
10
43730.0
20
49360.0
11
43730.0
21
49120.0
0
LINE
8
BLACK
10
43730.0
20
49120.0
11
43230.0
21
49120.0
0
LINE
8
BLACK
10
43470.0
20
49520.0
11
43470.0
21
49690.0
0
LINE
8
BLACK
10
43730.0
20
49760.0
11
43730.0
21
49520.0
0
LINE
8
BLACK
10
43730.0
20
49520.0
11
43230.0
21
49520.0
0
LINE
8
BLACK
10
43230.0
20
49520.0
11
43230.0
21
49760.0
0
LINE
8
BLACK
10
43730.0
20
49970.0
11
43230.0
21
49970.0
0
LINE
8
BLACK
10
43230.0
20
49970.0
11
43230.0
21
50090.0
0
LINE
8
BLACK
10
43230.0
20
50090.0
11
43260.0
21
50160.0
0
LINE
8
BLACK
10
43260.0
20
50160.0
11
43300.0
21
50210.0
0
LINE
8
BLACK
10
43300.0
20
50210.0
11
43350.0
21
50230.0
0
LINE
8
BLACK
10
43350.0
20
50230.0
11
43450.0
21
50250.0
0
LINE
8
BLACK
10
43450.0
20
50250.0
11
43520.0
21
50250.0
0
LINE
8
BLACK
10
43520.0
20
50250.0
11
43610.0
21
50230.0
0
LINE
8
BLACK
10
43610.0
20
50230.0
11
43660.0
21
50210.0
0
LINE
8
BLACK
10
43660.0
20
50210.0
11
43710.0
21
50160.0
0
LINE
8
BLACK
10
43710.0
20
50160.0
11
43730.0
21
50090.0
0
LINE
8
BLACK
10
43730.0
20
50090.0
11
43730.0
21
49970.0
0
LINE
8
BLACK
10
38500.0
20
49170.0
11
37500.0
21
49170.0
0
LINE
8
BLACK
10
38500.0
20
50170.0
11
38000.0
21
49170.0
0
LINE
8
BLACK
10
38000.0
20
49170.0
11
37500.0
21
50170.0
0
LINE
8
BLACK
10
37500.0
20
50170.0
11
38500.0
21
50170.0
0
LINE
8
BLACK
10
37600.0
20
49020.0
11
37200.0
21
48570.0
0
LINE
8
BLACK
10
37200.0
20
48570.0
11
37450.0
21
48620.0
0
LINE
8
BLACK
10
37750.0
20
48870.0
11
37350.0
21
48420.0
0
LINE
8
BLACK
10
37350.0
20
48420.0
11
37600.0
21
48470.0
0
LINE
8
BLACK
10
38000.0
20
50170.0
11
38000.0
21
51670.0
0
LINE
8
BLACK
10
37860.0
20
51030.0
11
37860.0
21
50810.0
0
LINE
8
BLACK
10
37860.0
20
50920.0
11
37460.0
21
50920.0
0
LINE
8
BLACK
10
37460.0
20
50920.0
11
37520.0
21
50880.0
0
LINE
8
BLACK
10
37520.0
20
50880.0
11
37560.0
21
50840.0
0
LINE
8
BLACK
10
37560.0
20
50840.0
11
37580.0
21
50810.0
0
LINE
8
BLACK
10
38000.0
20
49170.0
11
38000.0
21
47670.0
0
LINE
8
BLACK
10
37500.0
20
48310.0
11
37480.0
21
48330.0
0
LINE
8
BLACK
10
37480.0
20
48330.0
11
37460.0
21
48360.0
0
LINE
8
BLACK
10
37460.0
20
48360.0
11
37460.0
21
48460.0
0
LINE
8
BLACK
10
37460.0
20
48460.0
11
37480.0
21
48500.0
0
LINE
8
BLACK
10
37480.0
20
48500.0
11
37500.0
21
48520.0
0
LINE
8
BLACK
10
37500.0
20
48520.0
11
37540.0
21
48530.0
0
LINE
8
BLACK
10
37540.0
20
48530.0
11
37580.0
21
48530.0
0
LINE
8
BLACK
10
37580.0
20
48530.0
11
37630.0
21
48520.0
0
LINE
8
BLACK
10
37630.0
20
48520.0
11
37860.0
21
48290.0
0
LINE
8
BLACK
10
37860.0
20
48290.0
11
37860.0
21
48530.0
0
LINE
8
BLACK
10
39230.0
20
49300.0
11
38730.0
21
49300.0
0
LINE
8
BLACK
10
38730.0
20
49300.0
11
38730.0
21
49420.0
0
LINE
8
BLACK
10
38730.0
20
49420.0
11
38760.0
21
49490.0
0
LINE
8
BLACK
10
38760.0
20
49490.0
11
38800.0
21
49540.0
0
LINE
8
BLACK
10
38800.0
20
49540.0
11
38850.0
21
49560.0
0
LINE
8
BLACK
10
38850.0
20
49560.0
11
38950.0
21
49580.0
0
LINE
8
BLACK
10
38950.0
20
49580.0
11
39020.0
21
49580.0
0
LINE
8
BLACK
10
39020.0
20
49580.0
11
39110.0
21
49560.0
0
LINE
8
BLACK
10
39110.0
20
49560.0
11
39160.0
21
49540.0
0
LINE
8
BLACK
10
39160.0
20
49540.0
11
39210.0
21
49490.0
0
LINE
8
BLACK
10
39210.0
20
49490.0
11
39230.0
21
49420.0
0
LINE
8
BLACK
10
39230.0
20
49420.0
11
39230.0
21
49300.0
0
LINE
8
BLACK
10
38730.0
20
50010.0
11
38730.0
21
49920.0
0
LINE
8
BLACK
10
38730.0
20
49920.0
11
38760.0
21
49870.0
0
LINE
8
BLACK
10
38760.0
20
49870.0
11
38780.0
21
49850.0
0
LINE
8
BLACK
10
38780.0
20
49850.0
11
38850.0
21
49800.0
0
LINE
8
BLACK
10
38850.0
20
49800.0
11
38950.0
21
49780.0
0
LINE
8
BLACK
10
38950.0
20
49780.0
11
39140.0
21
49780.0
0
LINE
8
BLACK
10
39140.0
20
49780.0
11
39180.0
21
49800.0
0
LINE
8
BLACK
10
39180.0
20
49800.0
11
39210.0
21
49820.0
0
LINE
8
BLACK
10
39210.0
20
49820.0
11
39230.0
21
49870.0
0
LINE
8
BLACK
10
39230.0
20
49870.0
11
39230.0
21
49970.0
0
LINE
8
BLACK
10
39230.0
20
49970.0
11
39210.0
21
50010.0
0
LINE
8
BLACK
10
39210.0
20
50010.0
11
39180.0
21
50040.0
0
LINE
8
BLACK
10
39180.0
20
50040.0
11
39140.0
21
50060.0
0
LINE
8
BLACK
10
39140.0
20
50060.0
11
39020.0
21
50060.0
0
LINE
8
BLACK
10
39020.0
20
50060.0
11
38970.0
21
50040.0
0
LINE
8
BLACK
10
38970.0
20
50040.0
11
38950.0
21
50010.0
0
LINE
8
BLACK
10
38950.0
20
50010.0
11
38920.0
21
49970.0
0
LINE
8
BLACK
10
38920.0
20
49970.0
11
38920.0
21
49870.0
0
LINE
8
BLACK
10
38920.0
20
49870.0
11
38950.0
21
49820.0
0
LINE
8
BLACK
10
38950.0
20
49820.0
11
38970.0
21
49800.0
0
LINE
8
BLACK
10
38970.0
20
49800.0
11
39020.0
21
49780.0
0
LINE
8
BLACK
10
37230.0
20
49360.0
11
37230.0
21
49120.0
0
LINE
8
BLACK
10
37230.0
20
49120.0
11
36730.0
21
49120.0
0
LINE
8
BLACK
10
36970.0
20
49520.0
11
36970.0
21
49690.0
0
LINE
8
BLACK
10
37230.0
20
49760.0
11
37230.0
21
49520.0
0
LINE
8
BLACK
10
37230.0
20
49520.0
11
36730.0
21
49520.0
0
LINE
8
BLACK
10
36730.0
20
49520.0
11
36730.0
21
49760.0
0
LINE
8
BLACK
10
37230.0
20
49970.0
11
36730.0
21
49970.0
0
LINE
8
BLACK
10
36730.0
20
49970.0
11
36730.0
21
50090.0
0
LINE
8
BLACK
10
36730.0
20
50090.0
11
36760.0
21
50160.0
0
LINE
8
BLACK
10
36760.0
20
50160.0
11
36800.0
21
50210.0
0
LINE
8
BLACK
10
36800.0
20
50210.0
11
36850.0
21
50230.0
0
LINE
8
BLACK
10
36850.0
20
50230.0
11
36950.0
21
50250.0
0
LINE
8
BLACK
10
36950.0
20
50250.0
11
37020.0
21
50250.0
0
LINE
8
BLACK
10
37020.0
20
50250.0
11
37110.0
21
50230.0
0
LINE
8
BLACK
10
37110.0
20
50230.0
11
37160.0
21
50210.0
0
LINE
8
BLACK
10
37160.0
20
50210.0
11
37210.0
21
50160.0
0
LINE
8
BLACK
10
37210.0
20
50160.0
11
37230.0
21
50090.0
0
LINE
8
BLACK
10
37230.0
20
50090.0
11
37230.0
21
49970.0
0
LINE
8
BLACK
10
38400.0
20
53670.0
11
38400.0
21
56670.0
0
LINE
8
BLACK
10
38400.0
20
56670.0
11
37600.0
21
56670.0
0
LINE
8
BLACK
10
37600.0
20
56670.0
11
37600.0
21
53670.0
0
LINE
8
BLACK
10
37600.0
20
53670.0
11
38400.0
21
53670.0
0
LINE
8
BLACK
10
38000.0
20
53670.0
11
38000.0
21
52670.0
0
LINE
8
BLACK
10
38000.0
20
56670.0
11
38000.0
21
57670.0
0
LINE
8
BLACK
10
37430.0
20
54840.0
11
37190.0
21
54680.0
0
LINE
8
BLACK
10
37430.0
20
54560.0
11
36930.0
21
54560.0
0
LINE
8
BLACK
10
36930.0
20
54560.0
11
36930.0
21
54750.0
0
LINE
8
BLACK
10
36930.0
20
54750.0
11
36960.0
21
54800.0
0
LINE
8
BLACK
10
36960.0
20
54800.0
11
36980.0
21
54820.0
0
LINE
8
BLACK
10
36980.0
20
54820.0
11
37030.0
21
54840.0
0
LINE
8
BLACK
10
37030.0
20
54840.0
11
37100.0
21
54840.0
0
LINE
8
BLACK
10
37100.0
20
54840.0
11
37150.0
21
54820.0
0
LINE
8
BLACK
10
37150.0
20
54820.0
11
37170.0
21
54800.0
0
LINE
8
BLACK
10
37170.0
20
54800.0
11
37190.0
21
54750.0
0
LINE
8
BLACK
10
37190.0
20
54750.0
11
37190.0
21
54560.0
0
LINE
8
BLACK
10
36930.0
20
55270.0
11
36930.0
21
55180.0
0
LINE
8
BLACK
10
36930.0
20
55180.0
11
36960.0
21
55130.0
0
LINE
8
BLACK
10
36960.0
20
55130.0
11
36980.0
21
55110.0
0
LINE
8
BLACK
10
36980.0
20
55110.0
11
37050.0
21
55060.0
0
LINE
8
BLACK
10
37050.0
20
55060.0
11
37150.0
21
55040.0
0
LINE
8
BLACK
10
37150.0
20
55040.0
11
37340.0
21
55040.0
0
LINE
8
BLACK
10
37340.0
20
55040.0
11
37380.0
21
55060.0
0
LINE
8
BLACK
10
37380.0
20
55060.0
11
37410.0
21
55080.0
0
LINE
8
BLACK
10
37410.0
20
55080.0
11
37430.0
21
55130.0
0
LINE
8
BLACK
10
37430.0
20
55130.0
11
37430.0
21
55230.0
0
LINE
8
BLACK
10
37430.0
20
55230.0
11
37410.0
21
55270.0
0
LINE
8
BLACK
10
37410.0
20
55270.0
11
37380.0
21
55300.0
0
LINE
8
BLACK
10
37380.0
20
55300.0
11
37340.0
21
55320.0
0
LINE
8
BLACK
10
37340.0
20
55320.0
11
37220.0
21
55320.0
0
LINE
8
BLACK
10
37220.0
20
55320.0
11
37170.0
21
55300.0
0
LINE
8
BLACK
10
37170.0
20
55300.0
11
37150.0
21
55270.0
0
LINE
8
BLACK
10
37150.0
20
55270.0
11
37120.0
21
55230.0
0
LINE
8
BLACK
10
37120.0
20
55230.0
11
37120.0
21
55130.0
0
LINE
8
BLACK
10
37120.0
20
55130.0
11
37150.0
21
55080.0
0
LINE
8
BLACK
10
37150.0
20
55080.0
11
37170.0
21
55060.0
0
LINE
8
BLACK
10
37170.0
20
55060.0
11
37220.0
21
55040.0
0
LINE
8
BLACK
10
37100.0
20
55750.0
11
37430.0
21
55750.0
0
LINE
8
BLACK
10
36910.0
20
55630.0
11
37270.0
21
55520.0
0
LINE
8
BLACK
10
37270.0
20
55520.0
11
37270.0
21
55820.0
0
LINE
8
BLACK
10
38230.0
20
54820.0
11
38230.0
21
54540.0
0
LINE
8
BLACK
10
38230.0
20
54680.0
11
37730.0
21
54680.0
0
LINE
8
BLACK
10
37730.0
20
54680.0
11
37800.0
21
54630.0
0
LINE
8
BLACK
10
37800.0
20
54630.0
11
37850.0
21
54580.0
0
LINE
8
BLACK
10
37850.0
20
54580.0
11
37880.0
21
54540.0
0
LINE
8
BLACK
10
37730.0
20
55130.0
11
37730.0
21
55180.0
0
LINE
8
BLACK
10
37730.0
20
55180.0
11
37760.0
21
55230.0
0
LINE
8
BLACK
10
37760.0
20
55230.0
11
37780.0
21
55250.0
0
LINE
8
BLACK
10
37780.0
20
55250.0
11
37830.0
21
55280.0
0
LINE
8
BLACK
10
37830.0
20
55280.0
11
37920.0
21
55300.0
0
LINE
8
BLACK
10
37920.0
20
55300.0
11
38040.0
21
55300.0
0
LINE
8
BLACK
10
38040.0
20
55300.0
11
38140.0
21
55280.0
0
LINE
8
BLACK
10
38140.0
20
55280.0
11
38180.0
21
55250.0
0
LINE
8
BLACK
10
38180.0
20
55250.0
11
38210.0
21
55230.0
0
LINE
8
BLACK
10
38210.0
20
55230.0
11
38230.0
21
55180.0
0
LINE
8
BLACK
10
38230.0
20
55180.0
11
38230.0
21
55130.0
0
LINE
8
BLACK
10
38230.0
20
55130.0
11
38210.0
21
55090.0
0
LINE
8
BLACK
10
38210.0
20
55090.0
11
38180.0
21
55060.0
0
LINE
8
BLACK
10
38180.0
20
55060.0
11
38140.0
21
55040.0
0
LINE
8
BLACK
10
38140.0
20
55040.0
11
38040.0
21
55020.0
0
LINE
8
BLACK
10
38040.0
20
55020.0
11
37920.0
21
55020.0
0
LINE
8
BLACK
10
37920.0
20
55020.0
11
37830.0
21
55040.0
0
LINE
8
BLACK
10
37830.0
20
55040.0
11
37780.0
21
55060.0
0
LINE
8
BLACK
10
37780.0
20
55060.0
11
37760.0
21
55090.0
0
LINE
8
BLACK
10
37760.0
20
55090.0
11
37730.0
21
55130.0
0
LINE
8
BLACK
10
38230.0
20
55520.0
11
37730.0
21
55520.0
0
LINE
8
BLACK
10
38230.0
20
55800.0
11
37950.0
21
55590.0
0
LINE
8
BLACK
10
37730.0
20
55800.0
11
38020.0
21
55520.0
0
CIRCLE
8
BLACK
10
38000.0
20
59270.0
40
200
0
LINE
8
BLACK
10
38000.0
20
58670.0
11
38000.0
21
59070.0
0
LINE
8
BLACK
10
37470.0
20
59680.0
11
37700.0
21
59680.0
0
LINE
8
BLACK
10
37590.0
20
59570.0
11
37590.0
21
59800.0
0
LINE
8
BLACK
10
38000.0
20
59570.0
11
37830.0
21
59570.0
0
LINE
8
BLACK
10
37910.0
20
59570.0
11
37910.0
21
59870.0
0
LINE
8
BLACK
10
37910.0
20
59870.0
11
37880.0
21
59830.0
0
LINE
8
BLACK
10
37880.0
20
59830.0
11
37860.0
21
59800.0
0
LINE
8
BLACK
10
37860.0
20
59800.0
11
37830.0
21
59780.0
0
LINE
8
BLACK
10
38120.0
20
59840.0
11
38130.0
21
59850.0
0
LINE
8
BLACK
10
38130.0
20
59850.0
11
38160.0
21
59870.0
0
LINE
8
BLACK
10
38160.0
20
59870.0
11
38230.0
21
59870.0
0
LINE
8
BLACK
10
38230.0
20
59870.0
11
38260.0
21
59850.0
0
LINE
8
BLACK
10
38260.0
20
59850.0
11
38270.0
21
59840.0
0
LINE
8
BLACK
10
38270.0
20
59840.0
11
38290.0
21
59810.0
0
LINE
8
BLACK
10
38290.0
20
59810.0
11
38290.0
21
59780.0
0
LINE
8
BLACK
10
38290.0
20
59780.0
11
38270.0
21
59740.0
0
LINE
8
BLACK
10
38270.0
20
59740.0
11
38100.0
21
59570.0
0
LINE
8
BLACK
10
38100.0
20
59570.0
11
38290.0
21
59570.0
0
LINE
8
BLACK
10
38380.0
20
59870.0
11
38480.0
21
59570.0
0
LINE
8
BLACK
10
38480.0
20
59570.0
11
38580.0
21
59870.0
0
LINE
8
BLACK
10
31300.0
20
68970.0
11
33300.0
21
68970.0
0
LINE
8
BLACK
10
31300.0
20
69570.0
11
33300.0
21
69570.0
0
LINE
8
BLACK
10
32300.0
20
69570.0
11
32300.0
21
71270.0
0
LINE
8
BLACK
10
32300.0
20
68970.0
11
32300.0
21
67270.0
0
LINE
8
BLACK
10
33200.0
20
70150.0
11
33180.0
21
70120.0
0
LINE
8
BLACK
10
33180.0
20
70120.0
11
33110.0
21
70100.0
0
LINE
8
BLACK
10
33110.0
20
70100.0
11
33060.0
21
70100.0
0
LINE
8
BLACK
10
33060.0
20
70100.0
11
32990.0
21
70120.0
0
LINE
8
BLACK
10
32990.0
20
70120.0
11
32940.0
21
70170.0
0
LINE
8
BLACK
10
32940.0
20
70170.0
11
32920.0
21
70220.0
0
LINE
8
BLACK
10
32920.0
20
70220.0
11
32900.0
21
70310.0
0
LINE
8
BLACK
10
32900.0
20
70310.0
11
32900.0
21
70380.0
0
LINE
8
BLACK
10
32900.0
20
70380.0
11
32920.0
21
70480.0
0
LINE
8
BLACK
10
32920.0
20
70480.0
11
32940.0
21
70530.0
0
LINE
8
BLACK
10
32940.0
20
70530.0
11
32990.0
21
70570.0
0
LINE
8
BLACK
10
32990.0
20
70570.0
11
33060.0
21
70600.0
0
LINE
8
BLACK
10
33060.0
20
70600.0
11
33110.0
21
70600.0
0
LINE
8
BLACK
10
33110.0
20
70600.0
11
33180.0
21
70570.0
0
LINE
8
BLACK
10
33180.0
20
70570.0
11
33200.0
21
70550.0
0
LINE
8
BLACK
10
33370.0
20
70600.0
11
33700.0
21
70600.0
0
LINE
8
BLACK
10
33700.0
20
70600.0
11
33490.0
21
70100.0
0
LINE
8
BLACK
10
33180.0
20
68100.0
11
32900.0
21
68100.0
0
LINE
8
BLACK
10
33040.0
20
68100.0
11
33040.0
21
68600.0
0
LINE
8
BLACK
10
33040.0
20
68600.0
11
32990.0
21
68530.0
0
LINE
8
BLACK
10
32990.0
20
68530.0
11
32940.0
21
68480.0
0
LINE
8
BLACK
10
32940.0
20
68480.0
11
32900.0
21
68450.0
0
LINE
8
BLACK
10
33490.0
20
68600.0
11
33540.0
21
68600.0
0
LINE
8
BLACK
10
33540.0
20
68600.0
11
33590.0
21
68570.0
0
LINE
8
BLACK
10
33590.0
20
68570.0
11
33610.0
21
68550.0
0
LINE
8
BLACK
10
33610.0
20
68550.0
11
33640.0
21
68500.0
0
LINE
8
BLACK
10
33640.0
20
68500.0
11
33660.0
21
68410.0
0
LINE
8
BLACK
10
33660.0
20
68410.0
11
33660.0
21
68290.0
0
LINE
8
BLACK
10
33660.0
20
68290.0
11
33640.0
21
68190.0
0
LINE
8
BLACK
10
33640.0
20
68190.0
11
33610.0
21
68150.0
0
LINE
8
BLACK
10
33610.0
20
68150.0
11
33590.0
21
68120.0
0
LINE
8
BLACK
10
33590.0
20
68120.0
11
33540.0
21
68100.0
0
LINE
8
BLACK
10
33540.0
20
68100.0
11
33490.0
21
68100.0
0
LINE
8
BLACK
10
33490.0
20
68100.0
11
33450.0
21
68120.0
0
LINE
8
BLACK
10
33450.0
20
68120.0
11
33420.0
21
68150.0
0
LINE
8
BLACK
10
33420.0
20
68150.0
11
33400.0
21
68190.0
0
LINE
8
BLACK
10
33400.0
20
68190.0
11
33380.0
21
68290.0
0
LINE
8
BLACK
10
33380.0
20
68290.0
11
33380.0
21
68410.0
0
LINE
8
BLACK
10
33380.0
20
68410.0
11
33400.0
21
68500.0
0
LINE
8
BLACK
10
33400.0
20
68500.0
11
33420.0
21
68550.0
0
LINE
8
BLACK
10
33420.0
20
68550.0
11
33450.0
21
68570.0
0
LINE
8
BLACK
10
33450.0
20
68570.0
11
33490.0
21
68600.0
0
LINE
8
BLACK
10
33970.0
20
68600.0
11
34020.0
21
68600.0
0
LINE
8
BLACK
10
34020.0
20
68600.0
11
34070.0
21
68570.0
0
LINE
8
BLACK
10
34070.0
20
68570.0
11
34090.0
21
68550.0
0
LINE
8
BLACK
10
34090.0
20
68550.0
11
34120.0
21
68500.0
0
LINE
8
BLACK
10
34120.0
20
68500.0
11
34140.0
21
68410.0
0
LINE
8
BLACK
10
34140.0
20
68410.0
11
34140.0
21
68290.0
0
LINE
8
BLACK
10
34140.0
20
68290.0
11
34120.0
21
68190.0
0
LINE
8
BLACK
10
34120.0
20
68190.0
11
34090.0
21
68150.0
0
LINE
8
BLACK
10
34090.0
20
68150.0
11
34070.0
21
68120.0
0
LINE
8
BLACK
10
34070.0
20
68120.0
11
34020.0
21
68100.0
0
LINE
8
BLACK
10
34020.0
20
68100.0
11
33970.0
21
68100.0
0
LINE
8
BLACK
10
33970.0
20
68100.0
11
33930.0
21
68120.0
0
LINE
8
BLACK
10
33930.0
20
68120.0
11
33900.0
21
68150.0
0
LINE
8
BLACK
10
33900.0
20
68150.0
11
33880.0
21
68190.0
0
LINE
8
BLACK
10
33880.0
20
68190.0
11
33860.0
21
68290.0
0
LINE
8
BLACK
10
33860.0
20
68290.0
11
33860.0
21
68410.0
0
LINE
8
BLACK
10
33860.0
20
68410.0
11
33880.0
21
68500.0
0
LINE
8
BLACK
10
33880.0
20
68500.0
11
33900.0
21
68550.0
0
LINE
8
BLACK
10
33900.0
20
68550.0
11
33930.0
21
68570.0
0
LINE
8
BLACK
10
33930.0
20
68570.0
11
33970.0
21
68600.0
0
LINE
8
BLACK
10
34570.0
20
68430.0
11
34570.0
21
68100.0
0
LINE
8
BLACK
10
34360.0
20
68430.0
11
34360.0
21
68170.0
0
LINE
8
BLACK
10
34360.0
20
68170.0
11
34380.0
21
68120.0
0
LINE
8
BLACK
10
34380.0
20
68120.0
11
34430.0
21
68100.0
0
LINE
8
BLACK
10
34430.0
20
68100.0
11
34500.0
21
68100.0
0
LINE
8
BLACK
10
34500.0
20
68100.0
11
34550.0
21
68120.0
0
LINE
8
BLACK
10
34550.0
20
68120.0
11
34570.0
21
68150.0
0
LINE
8
BLACK
10
34740.0
20
68430.0
11
34930.0
21
68430.0
0
LINE
8
BLACK
10
34810.0
20
68100.0
11
34810.0
21
68530.0
0
LINE
8
BLACK
10
34810.0
20
68530.0
11
34830.0
21
68570.0
0
LINE
8
BLACK
10
34830.0
20
68570.0
11
34880.0
21
68600.0
0
LINE
8
BLACK
10
34880.0
20
68600.0
11
34930.0
21
68600.0
0
LINE
8
BLACK
10
82600.0
20
67470.0
11
84600.0
21
67470.0
0
LINE
8
BLACK
10
82600.0
20
68070.0
11
84600.0
21
68070.0
0
LINE
8
BLACK
10
83600.0
20
68070.0
11
83600.0
21
69770.0
0
LINE
8
BLACK
10
83600.0
20
67470.0
11
83600.0
21
65770.0
0
LINE
8
BLACK
10
84500.0
20
68650.0
11
84480.0
21
68620.0
0
LINE
8
BLACK
10
84480.0
20
68620.0
11
84410.0
21
68600.0
0
LINE
8
BLACK
10
84410.0
20
68600.0
11
84360.0
21
68600.0
0
LINE
8
BLACK
10
84360.0
20
68600.0
11
84290.0
21
68620.0
0
LINE
8
BLACK
10
84290.0
20
68620.0
11
84240.0
21
68670.0
0
LINE
8
BLACK
10
84240.0
20
68670.0
11
84220.0
21
68720.0
0
LINE
8
BLACK
10
84220.0
20
68720.0
11
84200.0
21
68810.0
0
LINE
8
BLACK
10
84200.0
20
68810.0
11
84200.0
21
68880.0
0
LINE
8
BLACK
10
84200.0
20
68880.0
11
84220.0
21
68980.0
0
LINE
8
BLACK
10
84220.0
20
68980.0
11
84240.0
21
69030.0
0
LINE
8
BLACK
10
84240.0
20
69030.0
11
84290.0
21
69070.0
0
LINE
8
BLACK
10
84290.0
20
69070.0
11
84360.0
21
69100.0
0
LINE
8
BLACK
10
84360.0
20
69100.0
11
84410.0
21
69100.0
0
LINE
8
BLACK
10
84410.0
20
69100.0
11
84480.0
21
69070.0
0
LINE
8
BLACK
10
84480.0
20
69070.0
11
84500.0
21
69050.0
0
LINE
8
BLACK
10
84980.0
20
68600.0
11
84700.0
21
68600.0
0
LINE
8
BLACK
10
84840.0
20
68600.0
11
84840.0
21
69100.0
0
LINE
8
BLACK
10
84840.0
20
69100.0
11
84790.0
21
69030.0
0
LINE
8
BLACK
10
84790.0
20
69030.0
11
84740.0
21
68980.0
0
LINE
8
BLACK
10
84740.0
20
68980.0
11
84700.0
21
68950.0
0
LINE
8
BLACK
10
85150.0
20
69100.0
11
85460.0
21
69100.0
0
LINE
8
BLACK
10
85460.0
20
69100.0
11
85290.0
21
68910.0
0
LINE
8
BLACK
10
85290.0
20
68910.0
11
85370.0
21
68910.0
0
LINE
8
BLACK
10
85370.0
20
68910.0
11
85410.0
21
68880.0
0
LINE
8
BLACK
10
85410.0
20
68880.0
11
85440.0
21
68860.0
0
LINE
8
BLACK
10
85440.0
20
68860.0
11
85460.0
21
68810.0
0
LINE
8
BLACK
10
85460.0
20
68810.0
11
85460.0
21
68690.0
0
LINE
8
BLACK
10
85460.0
20
68690.0
11
85440.0
21
68650.0
0
LINE
8
BLACK
10
85440.0
20
68650.0
11
85410.0
21
68620.0
0
LINE
8
BLACK
10
85410.0
20
68620.0
11
85370.0
21
68600.0
0
LINE
8
BLACK
10
85370.0
20
68600.0
11
85220.0
21
68600.0
0
LINE
8
BLACK
10
85220.0
20
68600.0
11
85180.0
21
68620.0
0
LINE
8
BLACK
10
85180.0
20
68620.0
11
85150.0
21
68650.0
0
LINE
8
BLACK
10
84480.0
20
66600.0
11
84200.0
21
66600.0
0
LINE
8
BLACK
10
84340.0
20
66600.0
11
84340.0
21
67100.0
0
LINE
8
BLACK
10
84340.0
20
67100.0
11
84290.0
21
67030.0
0
LINE
8
BLACK
10
84290.0
20
67030.0
11
84240.0
21
66980.0
0
LINE
8
BLACK
10
84240.0
20
66980.0
11
84200.0
21
66950.0
0
LINE
8
BLACK
10
84910.0
20
66930.0
11
84910.0
21
66600.0
0
LINE
8
BLACK
10
84700.0
20
66930.0
11
84700.0
21
66670.0
0
LINE
8
BLACK
10
84700.0
20
66670.0
11
84720.0
21
66620.0
0
LINE
8
BLACK
10
84720.0
20
66620.0
11
84770.0
21
66600.0
0
LINE
8
BLACK
10
84770.0
20
66600.0
11
84840.0
21
66600.0
0
LINE
8
BLACK
10
84840.0
20
66600.0
11
84890.0
21
66620.0
0
LINE
8
BLACK
10
84890.0
20
66620.0
11
84910.0
21
66650.0
0
LINE
8
BLACK
10
85080.0
20
66930.0
11
85270.0
21
66930.0
0
LINE
8
BLACK
10
85150.0
20
66600.0
11
85150.0
21
67030.0
0
LINE
8
BLACK
10
85150.0
20
67030.0
11
85170.0
21
67070.0
0
LINE
8
BLACK
10
85170.0
20
67070.0
11
85220.0
21
67100.0
0
LINE
8
BLACK
10
85220.0
20
67100.0
11
85270.0
21
67100.0
0
LINE
8
BLACK
10
77800.0
20
67470.0
11
79800.0
21
67470.0
0
LINE
8
BLACK
10
77800.0
20
68070.0
11
79800.0
21
68070.0
0
LINE
8
BLACK
10
78800.0
20
68070.0
11
78800.0
21
69770.0
0
LINE
8
BLACK
10
78800.0
20
67470.0
11
78800.0
21
65770.0
0
LINE
8
BLACK
10
79700.0
20
68650.0
11
79680.0
21
68620.0
0
LINE
8
BLACK
10
79680.0
20
68620.0
11
79610.0
21
68600.0
0
LINE
8
BLACK
10
79610.0
20
68600.0
11
79560.0
21
68600.0
0
LINE
8
BLACK
10
79560.0
20
68600.0
11
79490.0
21
68620.0
0
LINE
8
BLACK
10
79490.0
20
68620.0
11
79440.0
21
68670.0
0
LINE
8
BLACK
10
79440.0
20
68670.0
11
79420.0
21
68720.0
0
LINE
8
BLACK
10
79420.0
20
68720.0
11
79400.0
21
68810.0
0
LINE
8
BLACK
10
79400.0
20
68810.0
11
79400.0
21
68880.0
0
LINE
8
BLACK
10
79400.0
20
68880.0
11
79420.0
21
68980.0
0
LINE
8
BLACK
10
79420.0
20
68980.0
11
79440.0
21
69030.0
0
LINE
8
BLACK
10
79440.0
20
69030.0
11
79490.0
21
69070.0
0
LINE
8
BLACK
10
79490.0
20
69070.0
11
79560.0
21
69100.0
0
LINE
8
BLACK
10
79560.0
20
69100.0
11
79610.0
21
69100.0
0
LINE
8
BLACK
10
79610.0
20
69100.0
11
79680.0
21
69070.0
0
LINE
8
BLACK
10
79680.0
20
69070.0
11
79700.0
21
69050.0
0
LINE
8
BLACK
10
80180.0
20
68600.0
11
79900.0
21
68600.0
0
LINE
8
BLACK
10
80040.0
20
68600.0
11
80040.0
21
69100.0
0
LINE
8
BLACK
10
80040.0
20
69100.0
11
79990.0
21
69030.0
0
LINE
8
BLACK
10
79990.0
20
69030.0
11
79940.0
21
68980.0
0
LINE
8
BLACK
10
79940.0
20
68980.0
11
79900.0
21
68950.0
0
LINE
8
BLACK
10
80380.0
20
69050.0
11
80400.0
21
69070.0
0
LINE
8
BLACK
10
80400.0
20
69070.0
11
80450.0
21
69100.0
0
LINE
8
BLACK
10
80450.0
20
69100.0
11
80570.0
21
69100.0
0
LINE
8
BLACK
10
80570.0
20
69100.0
11
80610.0
21
69070.0
0
LINE
8
BLACK
10
80610.0
20
69070.0
11
80640.0
21
69050.0
0
LINE
8
BLACK
10
80640.0
20
69050.0
11
80660.0
21
69000.0
0
LINE
8
BLACK
10
80660.0
20
69000.0
11
80660.0
21
68950.0
0
LINE
8
BLACK
10
80660.0
20
68950.0
11
80640.0
21
68880.0
0
LINE
8
BLACK
10
80640.0
20
68880.0
11
80350.0
21
68600.0
0
LINE
8
BLACK
10
80350.0
20
68600.0
11
80660.0
21
68600.0
0
LINE
8
BLACK
10
79680.0
20
66600.0
11
79400.0
21
66600.0
0
LINE
8
BLACK
10
79540.0
20
66600.0
11
79540.0
21
67100.0
0
LINE
8
BLACK
10
79540.0
20
67100.0
11
79490.0
21
67030.0
0
LINE
8
BLACK
10
79490.0
20
67030.0
11
79440.0
21
66980.0
0
LINE
8
BLACK
10
79440.0
20
66980.0
11
79400.0
21
66950.0
0
LINE
8
BLACK
10
79990.0
20
67100.0
11
80040.0
21
67100.0
0
LINE
8
BLACK
10
80040.0
20
67100.0
11
80090.0
21
67070.0
0
LINE
8
BLACK
10
80090.0
20
67070.0
11
80110.0
21
67050.0
0
LINE
8
BLACK
10
80110.0
20
67050.0
11
80140.0
21
67000.0
0
LINE
8
BLACK
10
80140.0
20
67000.0
11
80160.0
21
66910.0
0
LINE
8
BLACK
10
80160.0
20
66910.0
11
80160.0
21
66790.0
0
LINE
8
BLACK
10
80160.0
20
66790.0
11
80140.0
21
66690.0
0
LINE
8
BLACK
10
80140.0
20
66690.0
11
80110.0
21
66650.0
0
LINE
8
BLACK
10
80110.0
20
66650.0
11
80090.0
21
66620.0
0
LINE
8
BLACK
10
80090.0
20
66620.0
11
80040.0
21
66600.0
0
LINE
8
BLACK
10
80040.0
20
66600.0
11
79990.0
21
66600.0
0
LINE
8
BLACK
10
79990.0
20
66600.0
11
79950.0
21
66620.0
0
LINE
8
BLACK
10
79950.0
20
66620.0
11
79920.0
21
66650.0
0
LINE
8
BLACK
10
79920.0
20
66650.0
11
79900.0
21
66690.0
0
LINE
8
BLACK
10
79900.0
20
66690.0
11
79880.0
21
66790.0
0
LINE
8
BLACK
10
79880.0
20
66790.0
11
79880.0
21
66910.0
0
LINE
8
BLACK
10
79880.0
20
66910.0
11
79900.0
21
67000.0
0
LINE
8
BLACK
10
79900.0
20
67000.0
11
79920.0
21
67050.0
0
LINE
8
BLACK
10
79920.0
20
67050.0
11
79950.0
21
67070.0
0
LINE
8
BLACK
10
79950.0
20
67070.0
11
79990.0
21
67100.0
0
LINE
8
BLACK
10
80470.0
20
67100.0
11
80520.0
21
67100.0
0
LINE
8
BLACK
10
80520.0
20
67100.0
11
80570.0
21
67070.0
0
LINE
8
BLACK
10
80570.0
20
67070.0
11
80590.0
21
67050.0
0
LINE
8
BLACK
10
80590.0
20
67050.0
11
80620.0
21
67000.0
0
LINE
8
BLACK
10
80620.0
20
67000.0
11
80640.0
21
66910.0
0
LINE
8
BLACK
10
80640.0
20
66910.0
11
80640.0
21
66790.0
0
LINE
8
BLACK
10
80640.0
20
66790.0
11
80620.0
21
66690.0
0
LINE
8
BLACK
10
80620.0
20
66690.0
11
80590.0
21
66650.0
0
LINE
8
BLACK
10
80590.0
20
66650.0
11
80570.0
21
66620.0
0
LINE
8
BLACK
10
80570.0
20
66620.0
11
80520.0
21
66600.0
0
LINE
8
BLACK
10
80520.0
20
66600.0
11
80470.0
21
66600.0
0
LINE
8
BLACK
10
80470.0
20
66600.0
11
80430.0
21
66620.0
0
LINE
8
BLACK
10
80430.0
20
66620.0
11
80400.0
21
66650.0
0
LINE
8
BLACK
10
80400.0
20
66650.0
11
80380.0
21
66690.0
0
LINE
8
BLACK
10
80380.0
20
66690.0
11
80360.0
21
66790.0
0
LINE
8
BLACK
10
80360.0
20
66790.0
11
80360.0
21
66910.0
0
LINE
8
BLACK
10
80360.0
20
66910.0
11
80380.0
21
67000.0
0
LINE
8
BLACK
10
80380.0
20
67000.0
11
80400.0
21
67050.0
0
LINE
8
BLACK
10
80400.0
20
67050.0
11
80430.0
21
67070.0
0
LINE
8
BLACK
10
80430.0
20
67070.0
11
80470.0
21
67100.0
0
LINE
8
BLACK
10
81070.0
20
66930.0
11
81070.0
21
66600.0
0
LINE
8
BLACK
10
80860.0
20
66930.0
11
80860.0
21
66670.0
0
LINE
8
BLACK
10
80860.0
20
66670.0
11
80880.0
21
66620.0
0
LINE
8
BLACK
10
80880.0
20
66620.0
11
80930.0
21
66600.0
0
LINE
8
BLACK
10
80930.0
20
66600.0
11
81000.0
21
66600.0
0
LINE
8
BLACK
10
81000.0
20
66600.0
11
81050.0
21
66620.0
0
LINE
8
BLACK
10
81050.0
20
66620.0
11
81070.0
21
66650.0
0
LINE
8
BLACK
10
81240.0
20
66930.0
11
81430.0
21
66930.0
0
LINE
8
BLACK
10
81310.0
20
66600.0
11
81310.0
21
67030.0
0
LINE
8
BLACK
10
81310.0
20
67030.0
11
81330.0
21
67070.0
0
LINE
8
BLACK
10
81330.0
20
67070.0
11
81380.0
21
67100.0
0
LINE
8
BLACK
10
81380.0
20
67100.0
11
81430.0
21
67100.0
0
LINE
8
BLACK
10
73500.0
20
67570.0
11
75500.0
21
67570.0
0
LINE
8
BLACK
10
73500.0
20
68170.0
11
75500.0
21
68170.0
0
LINE
8
BLACK
10
74500.0
20
68170.0
11
74500.0
21
69870.0
0
LINE
8
BLACK
10
74500.0
20
67570.0
11
74500.0
21
65870.0
0
LINE
8
BLACK
10
75400.0
20
68750.0
11
75380.0
21
68720.0
0
LINE
8
BLACK
10
75380.0
20
68720.0
11
75310.0
21
68700.0
0
LINE
8
BLACK
10
75310.0
20
68700.0
11
75260.0
21
68700.0
0
LINE
8
BLACK
10
75260.0
20
68700.0
11
75190.0
21
68720.0
0
LINE
8
BLACK
10
75190.0
20
68720.0
11
75140.0
21
68770.0
0
LINE
8
BLACK
10
75140.0
20
68770.0
11
75120.0
21
68820.0
0
LINE
8
BLACK
10
75120.0
20
68820.0
11
75100.0
21
68910.0
0
LINE
8
BLACK
10
75100.0
20
68910.0
11
75100.0
21
68980.0
0
LINE
8
BLACK
10
75100.0
20
68980.0
11
75120.0
21
69080.0
0
LINE
8
BLACK
10
75120.0
20
69080.0
11
75140.0
21
69130.0
0
LINE
8
BLACK
10
75140.0
20
69130.0
11
75190.0
21
69170.0
0
LINE
8
BLACK
10
75190.0
20
69170.0
11
75260.0
21
69200.0
0
LINE
8
BLACK
10
75260.0
20
69200.0
11
75310.0
21
69200.0
0
LINE
8
BLACK
10
75310.0
20
69200.0
11
75380.0
21
69170.0
0
LINE
8
BLACK
10
75380.0
20
69170.0
11
75400.0
21
69150.0
0
LINE
8
BLACK
10
75880.0
20
68700.0
11
75600.0
21
68700.0
0
LINE
8
BLACK
10
75740.0
20
68700.0
11
75740.0
21
69200.0
0
LINE
8
BLACK
10
75740.0
20
69200.0
11
75690.0
21
69130.0
0
LINE
8
BLACK
10
75690.0
20
69130.0
11
75640.0
21
69080.0
0
LINE
8
BLACK
10
75640.0
20
69080.0
11
75600.0
21
69050.0
0
LINE
8
BLACK
10
76360.0
20
68700.0
11
76080.0
21
68700.0
0
LINE
8
BLACK
10
76220.0
20
68700.0
11
76220.0
21
69200.0
0
LINE
8
BLACK
10
76220.0
20
69200.0
11
76170.0
21
69130.0
0
LINE
8
BLACK
10
76170.0
20
69130.0
11
76120.0
21
69080.0
0
LINE
8
BLACK
10
76120.0
20
69080.0
11
76080.0
21
69050.0
0
LINE
8
BLACK
10
75380.0
20
66700.0
11
75100.0
21
66700.0
0
LINE
8
BLACK
10
75240.0
20
66700.0
11
75240.0
21
67200.0
0
LINE
8
BLACK
10
75240.0
20
67200.0
11
75190.0
21
67130.0
0
LINE
8
BLACK
10
75190.0
20
67130.0
11
75140.0
21
67080.0
0
LINE
8
BLACK
10
75140.0
20
67080.0
11
75100.0
21
67050.0
0
LINE
8
BLACK
10
75690.0
20
67200.0
11
75740.0
21
67200.0
0
LINE
8
BLACK
10
75740.0
20
67200.0
11
75790.0
21
67170.0
0
LINE
8
BLACK
10
75790.0
20
67170.0
11
75810.0
21
67150.0
0
LINE
8
BLACK
10
75810.0
20
67150.0
11
75840.0
21
67100.0
0
LINE
8
BLACK
10
75840.0
20
67100.0
11
75860.0
21
67010.0
0
LINE
8
BLACK
10
75860.0
20
67010.0
11
75860.0
21
66890.0
0
LINE
8
BLACK
10
75860.0
20
66890.0
11
75840.0
21
66790.0
0
LINE
8
BLACK
10
75840.0
20
66790.0
11
75810.0
21
66750.0
0
LINE
8
BLACK
10
75810.0
20
66750.0
11
75790.0
21
66720.0
0
LINE
8
BLACK
10
75790.0
20
66720.0
11
75740.0
21
66700.0
0
LINE
8
BLACK
10
75740.0
20
66700.0
11
75690.0
21
66700.0
0
LINE
8
BLACK
10
75690.0
20
66700.0
11
75650.0
21
66720.0
0
LINE
8
BLACK
10
75650.0
20
66720.0
11
75620.0
21
66750.0
0
LINE
8
BLACK
10
75620.0
20
66750.0
11
75600.0
21
66790.0
0
LINE
8
BLACK
10
75600.0
20
66790.0
11
75580.0
21
66890.0
0
LINE
8
BLACK
10
75580.0
20
66890.0
11
75580.0
21
67010.0
0
LINE
8
BLACK
10
75580.0
20
67010.0
11
75600.0
21
67100.0
0
LINE
8
BLACK
10
75600.0
20
67100.0
11
75620.0
21
67150.0
0
LINE
8
BLACK
10
75620.0
20
67150.0
11
75650.0
21
67170.0
0
LINE
8
BLACK
10
75650.0
20
67170.0
11
75690.0
21
67200.0
0
LINE
8
BLACK
10
76290.0
20
67030.0
11
76290.0
21
66700.0
0
LINE
8
BLACK
10
76080.0
20
67030.0
11
76080.0
21
66770.0
0
LINE
8
BLACK
10
76080.0
20
66770.0
11
76100.0
21
66720.0
0
LINE
8
BLACK
10
76100.0
20
66720.0
11
76150.0
21
66700.0
0
LINE
8
BLACK
10
76150.0
20
66700.0
11
76220.0
21
66700.0
0
LINE
8
BLACK
10
76220.0
20
66700.0
11
76270.0
21
66720.0
0
LINE
8
BLACK
10
76270.0
20
66720.0
11
76290.0
21
66750.0
0
LINE
8
BLACK
10
76460.0
20
67030.0
11
76650.0
21
67030.0
0
LINE
8
BLACK
10
76530.0
20
66700.0
11
76530.0
21
67130.0
0
LINE
8
BLACK
10
76530.0
20
67130.0
11
76550.0
21
67170.0
0
LINE
8
BLACK
10
76550.0
20
67170.0
11
76600.0
21
67200.0
0
LINE
8
BLACK
10
76600.0
20
67200.0
11
76650.0
21
67200.0
0
LINE
8
BLACK
10
56000.0
20
67770.0
11
58000.0
21
67770.0
0
LINE
8
BLACK
10
56000.0
20
68370.0
11
58000.0
21
68370.0
0
LINE
8
BLACK
10
57000.0
20
68370.0
11
57000.0
21
70070.0
0
LINE
8
BLACK
10
57000.0
20
67770.0
11
57000.0
21
66070.0
0
LINE
8
BLACK
10
57900.0
20
68950.0
11
57880.0
21
68920.0
0
LINE
8
BLACK
10
57880.0
20
68920.0
11
57810.0
21
68900.0
0
LINE
8
BLACK
10
57810.0
20
68900.0
11
57760.0
21
68900.0
0
LINE
8
BLACK
10
57760.0
20
68900.0
11
57690.0
21
68920.0
0
LINE
8
BLACK
10
57690.0
20
68920.0
11
57640.0
21
68970.0
0
LINE
8
BLACK
10
57640.0
20
68970.0
11
57620.0
21
69020.0
0
LINE
8
BLACK
10
57620.0
20
69020.0
11
57600.0
21
69110.0
0
LINE
8
BLACK
10
57600.0
20
69110.0
11
57600.0
21
69180.0
0
LINE
8
BLACK
10
57600.0
20
69180.0
11
57620.0
21
69280.0
0
LINE
8
BLACK
10
57620.0
20
69280.0
11
57640.0
21
69330.0
0
LINE
8
BLACK
10
57640.0
20
69330.0
11
57690.0
21
69370.0
0
LINE
8
BLACK
10
57690.0
20
69370.0
11
57760.0
21
69400.0
0
LINE
8
BLACK
10
57760.0
20
69400.0
11
57810.0
21
69400.0
0
LINE
8
BLACK
10
57810.0
20
69400.0
11
57880.0
21
69370.0
0
LINE
8
BLACK
10
57880.0
20
69370.0
11
57900.0
21
69350.0
0
LINE
8
BLACK
10
58380.0
20
68900.0
11
58100.0
21
68900.0
0
LINE
8
BLACK
10
58240.0
20
68900.0
11
58240.0
21
69400.0
0
LINE
8
BLACK
10
58240.0
20
69400.0
11
58190.0
21
69330.0
0
LINE
8
BLACK
10
58190.0
20
69330.0
11
58140.0
21
69280.0
0
LINE
8
BLACK
10
58140.0
20
69280.0
11
58100.0
21
69250.0
0
LINE
8
BLACK
10
58690.0
20
69400.0
11
58740.0
21
69400.0
0
LINE
8
BLACK
10
58740.0
20
69400.0
11
58790.0
21
69370.0
0
LINE
8
BLACK
10
58790.0
20
69370.0
11
58810.0
21
69350.0
0
LINE
8
BLACK
10
58810.0
20
69350.0
11
58840.0
21
69300.0
0
LINE
8
BLACK
10
58840.0
20
69300.0
11
58860.0
21
69210.0
0
LINE
8
BLACK
10
58860.0
20
69210.0
11
58860.0
21
69090.0
0
LINE
8
BLACK
10
58860.0
20
69090.0
11
58840.0
21
68990.0
0
LINE
8
BLACK
10
58840.0
20
68990.0
11
58810.0
21
68950.0
0
LINE
8
BLACK
10
58810.0
20
68950.0
11
58790.0
21
68920.0
0
LINE
8
BLACK
10
58790.0
20
68920.0
11
58740.0
21
68900.0
0
LINE
8
BLACK
10
58740.0
20
68900.0
11
58690.0
21
68900.0
0
LINE
8
BLACK
10
58690.0
20
68900.0
11
58650.0
21
68920.0
0
LINE
8
BLACK
10
58650.0
20
68920.0
11
58620.0
21
68950.0
0
LINE
8
BLACK
10
58620.0
20
68950.0
11
58600.0
21
68990.0
0
LINE
8
BLACK
10
58600.0
20
68990.0
11
58580.0
21
69090.0
0
LINE
8
BLACK
10
58580.0
20
69090.0
11
58580.0
21
69210.0
0
LINE
8
BLACK
10
58580.0
20
69210.0
11
58600.0
21
69300.0
0
LINE
8
BLACK
10
58600.0
20
69300.0
11
58620.0
21
69350.0
0
LINE
8
BLACK
10
58620.0
20
69350.0
11
58650.0
21
69370.0
0
LINE
8
BLACK
10
58650.0
20
69370.0
11
58690.0
21
69400.0
0
LINE
8
BLACK
10
57880.0
20
66900.0
11
57600.0
21
66900.0
0
LINE
8
BLACK
10
57740.0
20
66900.0
11
57740.0
21
67400.0
0
LINE
8
BLACK
10
57740.0
20
67400.0
11
57690.0
21
67330.0
0
LINE
8
BLACK
10
57690.0
20
67330.0
11
57640.0
21
67280.0
0
LINE
8
BLACK
10
57640.0
20
67280.0
11
57600.0
21
67250.0
0
LINE
8
BLACK
10
58310.0
20
67230.0
11
58310.0
21
66900.0
0
LINE
8
BLACK
10
58100.0
20
67230.0
11
58100.0
21
66970.0
0
LINE
8
BLACK
10
58100.0
20
66970.0
11
58120.0
21
66920.0
0
LINE
8
BLACK
10
58120.0
20
66920.0
11
58170.0
21
66900.0
0
LINE
8
BLACK
10
58170.0
20
66900.0
11
58240.0
21
66900.0
0
LINE
8
BLACK
10
58240.0
20
66900.0
11
58290.0
21
66920.0
0
LINE
8
BLACK
10
58290.0
20
66920.0
11
58310.0
21
66950.0
0
LINE
8
BLACK
10
58480.0
20
67230.0
11
58670.0
21
67230.0
0
LINE
8
BLACK
10
58550.0
20
66900.0
11
58550.0
21
67330.0
0
LINE
8
BLACK
10
58550.0
20
67330.0
11
58570.0
21
67370.0
0
LINE
8
BLACK
10
58570.0
20
67370.0
11
58620.0
21
67400.0
0
LINE
8
BLACK
10
58620.0
20
67400.0
11
58670.0
21
67400.0
0
LINE
8
BLACK
10
52000.0
20
68570.0
11
54000.0
21
68570.0
0
LINE
8
BLACK
10
52000.0
20
69170.0
11
54000.0
21
69170.0
0
LINE
8
BLACK
10
53000.0
20
69170.0
11
53000.0
21
70870.0
0
LINE
8
BLACK
10
53000.0
20
68570.0
11
53000.0
21
66870.0
0
LINE
8
BLACK
10
53900.0
20
69750.0
11
53880.0
21
69720.0
0
LINE
8
BLACK
10
53880.0
20
69720.0
11
53810.0
21
69700.0
0
LINE
8
BLACK
10
53810.0
20
69700.0
11
53760.0
21
69700.0
0
LINE
8
BLACK
10
53760.0
20
69700.0
11
53690.0
21
69720.0
0
LINE
8
BLACK
10
53690.0
20
69720.0
11
53640.0
21
69770.0
0
LINE
8
BLACK
10
53640.0
20
69770.0
11
53620.0
21
69820.0
0
LINE
8
BLACK
10
53620.0
20
69820.0
11
53600.0
21
69910.0
0
LINE
8
BLACK
10
53600.0
20
69910.0
11
53600.0
21
69980.0
0
LINE
8
BLACK
10
53600.0
20
69980.0
11
53620.0
21
70080.0
0
LINE
8
BLACK
10
53620.0
20
70080.0
11
53640.0
21
70130.0
0
LINE
8
BLACK
10
53640.0
20
70130.0
11
53690.0
21
70170.0
0
LINE
8
BLACK
10
53690.0
20
70170.0
11
53760.0
21
70200.0
0
LINE
8
BLACK
10
53760.0
20
70200.0
11
53810.0
21
70200.0
0
LINE
8
BLACK
10
53810.0
20
70200.0
11
53880.0
21
70170.0
0
LINE
8
BLACK
10
53880.0
20
70170.0
11
53900.0
21
70150.0
0
LINE
8
BLACK
10
54190.0
20
69980.0
11
54140.0
21
70010.0
0
LINE
8
BLACK
10
54140.0
20
70010.0
11
54120.0
21
70030.0
0
LINE
8
BLACK
10
54120.0
20
70030.0
11
54100.0
21
70080.0
0
LINE
8
BLACK
10
54100.0
20
70080.0
11
54100.0
21
70100.0
0
LINE
8
BLACK
10
54100.0
20
70100.0
11
54120.0
21
70150.0
0
LINE
8
BLACK
10
54120.0
20
70150.0
11
54140.0
21
70170.0
0
LINE
8
BLACK
10
54140.0
20
70170.0
11
54190.0
21
70200.0
0
LINE
8
BLACK
10
54190.0
20
70200.0
11
54290.0
21
70200.0
0
LINE
8
BLACK
10
54290.0
20
70200.0
11
54330.0
21
70170.0
0
LINE
8
BLACK
10
54330.0
20
70170.0
11
54360.0
21
70150.0
0
LINE
8
BLACK
10
54360.0
20
70150.0
11
54380.0
21
70100.0
0
LINE
8
BLACK
10
54380.0
20
70100.0
11
54380.0
21
70080.0
0
LINE
8
BLACK
10
54380.0
20
70080.0
11
54360.0
21
70030.0
0
LINE
8
BLACK
10
54360.0
20
70030.0
11
54330.0
21
70010.0
0
LINE
8
BLACK
10
54330.0
20
70010.0
11
54290.0
21
69980.0
0
LINE
8
BLACK
10
54290.0
20
69980.0
11
54190.0
21
69980.0
0
LINE
8
BLACK
10
54190.0
20
69980.0
11
54140.0
21
69960.0
0
LINE
8
BLACK
10
54140.0
20
69960.0
11
54120.0
21
69940.0
0
LINE
8
BLACK
10
54120.0
20
69940.0
11
54100.0
21
69890.0
0
LINE
8
BLACK
10
54100.0
20
69890.0
11
54100.0
21
69790.0
0
LINE
8
BLACK
10
54100.0
20
69790.0
11
54120.0
21
69750.0
0
LINE
8
BLACK
10
54120.0
20
69750.0
11
54140.0
21
69720.0
0
LINE
8
BLACK
10
54140.0
20
69720.0
11
54190.0
21
69700.0
0
LINE
8
BLACK
10
54190.0
20
69700.0
11
54290.0
21
69700.0
0
LINE
8
BLACK
10
54290.0
20
69700.0
11
54330.0
21
69720.0
0
LINE
8
BLACK
10
54330.0
20
69720.0
11
54360.0
21
69750.0
0
LINE
8
BLACK
10
54360.0
20
69750.0
11
54380.0
21
69790.0
0
LINE
8
BLACK
10
54380.0
20
69790.0
11
54380.0
21
69890.0
0
LINE
8
BLACK
10
54380.0
20
69890.0
11
54360.0
21
69940.0
0
LINE
8
BLACK
10
54360.0
20
69940.0
11
54330.0
21
69960.0
0
LINE
8
BLACK
10
54330.0
20
69960.0
11
54290.0
21
69980.0
0
LINE
8
BLACK
10
53880.0
20
67700.0
11
53600.0
21
67700.0
0
LINE
8
BLACK
10
53740.0
20
67700.0
11
53740.0
21
68200.0
0
LINE
8
BLACK
10
53740.0
20
68200.0
11
53690.0
21
68130.0
0
LINE
8
BLACK
10
53690.0
20
68130.0
11
53640.0
21
68080.0
0
LINE
8
BLACK
10
53640.0
20
68080.0
11
53600.0
21
68050.0
0
LINE
8
BLACK
10
54190.0
20
68200.0
11
54240.0
21
68200.0
0
LINE
8
BLACK
10
54240.0
20
68200.0
11
54290.0
21
68170.0
0
LINE
8
BLACK
10
54290.0
20
68170.0
11
54310.0
21
68150.0
0
LINE
8
BLACK
10
54310.0
20
68150.0
11
54340.0
21
68100.0
0
LINE
8
BLACK
10
54340.0
20
68100.0
11
54360.0
21
68010.0
0
LINE
8
BLACK
10
54360.0
20
68010.0
11
54360.0
21
67890.0
0
LINE
8
BLACK
10
54360.0
20
67890.0
11
54340.0
21
67790.0
0
LINE
8
BLACK
10
54340.0
20
67790.0
11
54310.0
21
67750.0
0
LINE
8
BLACK
10
54310.0
20
67750.0
11
54290.0
21
67720.0
0
LINE
8
BLACK
10
54290.0
20
67720.0
11
54240.0
21
67700.0
0
LINE
8
BLACK
10
54240.0
20
67700.0
11
54190.0
21
67700.0
0
LINE
8
BLACK
10
54190.0
20
67700.0
11
54150.0
21
67720.0
0
LINE
8
BLACK
10
54150.0
20
67720.0
11
54120.0
21
67750.0
0
LINE
8
BLACK
10
54120.0
20
67750.0
11
54100.0
21
67790.0
0
LINE
8
BLACK
10
54100.0
20
67790.0
11
54080.0
21
67890.0
0
LINE
8
BLACK
10
54080.0
20
67890.0
11
54080.0
21
68010.0
0
LINE
8
BLACK
10
54080.0
20
68010.0
11
54100.0
21
68100.0
0
LINE
8
BLACK
10
54100.0
20
68100.0
11
54120.0
21
68150.0
0
LINE
8
BLACK
10
54120.0
20
68150.0
11
54150.0
21
68170.0
0
LINE
8
BLACK
10
54150.0
20
68170.0
11
54190.0
21
68200.0
0
LINE
8
BLACK
10
54790.0
20
68030.0
11
54790.0
21
67700.0
0
LINE
8
BLACK
10
54580.0
20
68030.0
11
54580.0
21
67770.0
0
LINE
8
BLACK
10
54580.0
20
67770.0
11
54600.0
21
67720.0
0
LINE
8
BLACK
10
54600.0
20
67720.0
11
54650.0
21
67700.0
0
LINE
8
BLACK
10
54650.0
20
67700.0
11
54720.0
21
67700.0
0
LINE
8
BLACK
10
54720.0
20
67700.0
11
54770.0
21
67720.0
0
LINE
8
BLACK
10
54770.0
20
67720.0
11
54790.0
21
67750.0
0
LINE
8
BLACK
10
54960.0
20
68030.0
11
55150.0
21
68030.0
0
LINE
8
BLACK
10
55030.0
20
67700.0
11
55030.0
21
68130.0
0
LINE
8
BLACK
10
55030.0
20
68130.0
11
55050.0
21
68170.0
0
LINE
8
BLACK
10
55050.0
20
68170.0
11
55100.0
21
68200.0
0
LINE
8
BLACK
10
55100.0
20
68200.0
11
55150.0
21
68200.0
0
LINE
8
BLACK
10
47400.0
20
68370.0
11
49400.0
21
68370.0
0
LINE
8
BLACK
10
47400.0
20
68970.0
11
49400.0
21
68970.0
0
LINE
8
BLACK
10
48400.0
20
68970.0
11
48400.0
21
70670.0
0
LINE
8
BLACK
10
48400.0
20
68370.0
11
48400.0
21
66670.0
0
LINE
8
BLACK
10
49300.0
20
69550.0
11
49280.0
21
69520.0
0
LINE
8
BLACK
10
49280.0
20
69520.0
11
49210.0
21
69500.0
0
LINE
8
BLACK
10
49210.0
20
69500.0
11
49160.0
21
69500.0
0
LINE
8
BLACK
10
49160.0
20
69500.0
11
49090.0
21
69520.0
0
LINE
8
BLACK
10
49090.0
20
69520.0
11
49040.0
21
69570.0
0
LINE
8
BLACK
10
49040.0
20
69570.0
11
49020.0
21
69620.0
0
LINE
8
BLACK
10
49020.0
20
69620.0
11
49000.0
21
69710.0
0
LINE
8
BLACK
10
49000.0
20
69710.0
11
49000.0
21
69780.0
0
LINE
8
BLACK
10
49000.0
20
69780.0
11
49020.0
21
69880.0
0
LINE
8
BLACK
10
49020.0
20
69880.0
11
49040.0
21
69930.0
0
LINE
8
BLACK
10
49040.0
20
69930.0
11
49090.0
21
69970.0
0
LINE
8
BLACK
10
49090.0
20
69970.0
11
49160.0
21
70000.0
0
LINE
8
BLACK
10
49160.0
20
70000.0
11
49210.0
21
70000.0
0
LINE
8
BLACK
10
49210.0
20
70000.0
11
49280.0
21
69970.0
0
LINE
8
BLACK
10
49280.0
20
69970.0
11
49300.0
21
69950.0
0
LINE
8
BLACK
10
49540.0
20
69500.0
11
49640.0
21
69500.0
0
LINE
8
BLACK
10
49640.0
20
69500.0
11
49690.0
21
69520.0
0
LINE
8
BLACK
10
49690.0
20
69520.0
11
49710.0
21
69550.0
0
LINE
8
BLACK
10
49710.0
20
69550.0
11
49760.0
21
69620.0
0
LINE
8
BLACK
10
49760.0
20
69620.0
11
49780.0
21
69710.0
0
LINE
8
BLACK
10
49780.0
20
69710.0
11
49780.0
21
69900.0
0
LINE
8
BLACK
10
49780.0
20
69900.0
11
49760.0
21
69950.0
0
LINE
8
BLACK
10
49760.0
20
69950.0
11
49730.0
21
69970.0
0
LINE
8
BLACK
10
49730.0
20
69970.0
11
49690.0
21
70000.0
0
LINE
8
BLACK
10
49690.0
20
70000.0
11
49590.0
21
70000.0
0
LINE
8
BLACK
10
49590.0
20
70000.0
11
49540.0
21
69970.0
0
LINE
8
BLACK
10
49540.0
20
69970.0
11
49520.0
21
69950.0
0
LINE
8
BLACK
10
49520.0
20
69950.0
11
49500.0
21
69900.0
0
LINE
8
BLACK
10
49500.0
20
69900.0
11
49500.0
21
69780.0
0
LINE
8
BLACK
10
49500.0
20
69780.0
11
49520.0
21
69740.0
0
LINE
8
BLACK
10
49520.0
20
69740.0
11
49540.0
21
69710.0
0
LINE
8
BLACK
10
49540.0
20
69710.0
11
49590.0
21
69690.0
0
LINE
8
BLACK
10
49590.0
20
69690.0
11
49690.0
21
69690.0
0
LINE
8
BLACK
10
49690.0
20
69690.0
11
49730.0
21
69710.0
0
LINE
8
BLACK
10
49730.0
20
69710.0
11
49760.0
21
69740.0
0
LINE
8
BLACK
10
49760.0
20
69740.0
11
49780.0
21
69780.0
0
LINE
8
BLACK
10
49280.0
20
67500.0
11
49000.0
21
67500.0
0
LINE
8
BLACK
10
49140.0
20
67500.0
11
49140.0
21
68000.0
0
LINE
8
BLACK
10
49140.0
20
68000.0
11
49090.0
21
67930.0
0
LINE
8
BLACK
10
49090.0
20
67930.0
11
49040.0
21
67880.0
0
LINE
8
BLACK
10
49040.0
20
67880.0
11
49000.0
21
67850.0
0
LINE
8
BLACK
10
49590.0
20
68000.0
11
49640.0
21
68000.0
0
LINE
8
BLACK
10
49640.0
20
68000.0
11
49690.0
21
67970.0
0
LINE
8
BLACK
10
49690.0
20
67970.0
11
49710.0
21
67950.0
0
LINE
8
BLACK
10
49710.0
20
67950.0
11
49740.0
21
67900.0
0
LINE
8
BLACK
10
49740.0
20
67900.0
11
49760.0
21
67810.0
0
LINE
8
BLACK
10
49760.0
20
67810.0
11
49760.0
21
67690.0
0
LINE
8
BLACK
10
49760.0
20
67690.0
11
49740.0
21
67590.0
0
LINE
8
BLACK
10
49740.0
20
67590.0
11
49710.0
21
67550.0
0
LINE
8
BLACK
10
49710.0
20
67550.0
11
49690.0
21
67520.0
0
LINE
8
BLACK
10
49690.0
20
67520.0
11
49640.0
21
67500.0
0
LINE
8
BLACK
10
49640.0
20
67500.0
11
49590.0
21
67500.0
0
LINE
8
BLACK
10
49590.0
20
67500.0
11
49550.0
21
67520.0
0
LINE
8
BLACK
10
49550.0
20
67520.0
11
49520.0
21
67550.0
0
LINE
8
BLACK
10
49520.0
20
67550.0
11
49500.0
21
67590.0
0
LINE
8
BLACK
10
49500.0
20
67590.0
11
49480.0
21
67690.0
0
LINE
8
BLACK
10
49480.0
20
67690.0
11
49480.0
21
67810.0
0
LINE
8
BLACK
10
49480.0
20
67810.0
11
49500.0
21
67900.0
0
LINE
8
BLACK
10
49500.0
20
67900.0
11
49520.0
21
67950.0
0
LINE
8
BLACK
10
49520.0
20
67950.0
11
49550.0
21
67970.0
0
LINE
8
BLACK
10
49550.0
20
67970.0
11
49590.0
21
68000.0
0
LINE
8
BLACK
10
50070.0
20
68000.0
11
50120.0
21
68000.0
0
LINE
8
BLACK
10
50120.0
20
68000.0
11
50170.0
21
67970.0
0
LINE
8
BLACK
10
50170.0
20
67970.0
11
50190.0
21
67950.0
0
LINE
8
BLACK
10
50190.0
20
67950.0
11
50220.0
21
67900.0
0
LINE
8
BLACK
10
50220.0
20
67900.0
11
50240.0
21
67810.0
0
LINE
8
BLACK
10
50240.0
20
67810.0
11
50240.0
21
67690.0
0
LINE
8
BLACK
10
50240.0
20
67690.0
11
50220.0
21
67590.0
0
LINE
8
BLACK
10
50220.0
20
67590.0
11
50190.0
21
67550.0
0
LINE
8
BLACK
10
50190.0
20
67550.0
11
50170.0
21
67520.0
0
LINE
8
BLACK
10
50170.0
20
67520.0
11
50120.0
21
67500.0
0
LINE
8
BLACK
10
50120.0
20
67500.0
11
50070.0
21
67500.0
0
LINE
8
BLACK
10
50070.0
20
67500.0
11
50030.0
21
67520.0
0
LINE
8
BLACK
10
50030.0
20
67520.0
11
50000.0
21
67550.0
0
LINE
8
BLACK
10
50000.0
20
67550.0
11
49980.0
21
67590.0
0
LINE
8
BLACK
10
49980.0
20
67590.0
11
49960.0
21
67690.0
0
LINE
8
BLACK
10
49960.0
20
67690.0
11
49960.0
21
67810.0
0
LINE
8
BLACK
10
49960.0
20
67810.0
11
49980.0
21
67900.0
0
LINE
8
BLACK
10
49980.0
20
67900.0
11
50000.0
21
67950.0
0
LINE
8
BLACK
10
50000.0
20
67950.0
11
50030.0
21
67970.0
0
LINE
8
BLACK
10
50030.0
20
67970.0
11
50070.0
21
68000.0
0
LINE
8
BLACK
10
50670.0
20
67830.0
11
50670.0
21
67500.0
0
LINE
8
BLACK
10
50460.0
20
67830.0
11
50460.0
21
67570.0
0
LINE
8
BLACK
10
50460.0
20
67570.0
11
50480.0
21
67520.0
0
LINE
8
BLACK
10
50480.0
20
67520.0
11
50530.0
21
67500.0
0
LINE
8
BLACK
10
50530.0
20
67500.0
11
50600.0
21
67500.0
0
LINE
8
BLACK
10
50600.0
20
67500.0
11
50650.0
21
67520.0
0
LINE
8
BLACK
10
50650.0
20
67520.0
11
50670.0
21
67550.0
0
LINE
8
BLACK
10
50840.0
20
67830.0
11
51030.0
21
67830.0
0
LINE
8
BLACK
10
50910.0
20
67500.0
11
50910.0
21
67930.0
0
LINE
8
BLACK
10
50910.0
20
67930.0
11
50930.0
21
67970.0
0
LINE
8
BLACK
10
50930.0
20
67970.0
11
50980.0
21
68000.0
0
LINE
8
BLACK
10
50980.0
20
68000.0
11
51030.0
21
68000.0
0
LINE
8
BLACK
10
34500.0
20
69170.0
11
36500.0
21
69170.0
0
LINE
8
BLACK
10
34500.0
20
69770.0
11
36500.0
21
69770.0
0
LINE
8
BLACK
10
35500.0
20
69770.0
11
35500.0
21
71470.0
0
LINE
8
BLACK
10
35500.0
20
69170.0
11
35500.0
21
67470.0
0
LINE
8
BLACK
10
36400.0
20
70350.0
11
36380.0
21
70320.0
0
LINE
8
BLACK
10
36380.0
20
70320.0
11
36310.0
21
70300.0
0
LINE
8
BLACK
10
36310.0
20
70300.0
11
36260.0
21
70300.0
0
LINE
8
BLACK
10
36260.0
20
70300.0
11
36190.0
21
70320.0
0
LINE
8
BLACK
10
36190.0
20
70320.0
11
36140.0
21
70370.0
0
LINE
8
BLACK
10
36140.0
20
70370.0
11
36120.0
21
70420.0
0
LINE
8
BLACK
10
36120.0
20
70420.0
11
36100.0
21
70510.0
0
LINE
8
BLACK
10
36100.0
20
70510.0
11
36100.0
21
70580.0
0
LINE
8
BLACK
10
36100.0
20
70580.0
11
36120.0
21
70680.0
0
LINE
8
BLACK
10
36120.0
20
70680.0
11
36140.0
21
70730.0
0
LINE
8
BLACK
10
36140.0
20
70730.0
11
36190.0
21
70770.0
0
LINE
8
BLACK
10
36190.0
20
70770.0
11
36260.0
21
70800.0
0
LINE
8
BLACK
10
36260.0
20
70800.0
11
36310.0
21
70800.0
0
LINE
8
BLACK
10
36310.0
20
70800.0
11
36380.0
21
70770.0
0
LINE
8
BLACK
10
36380.0
20
70770.0
11
36400.0
21
70750.0
0
LINE
8
BLACK
10
36830.0
20
70800.0
11
36740.0
21
70800.0
0
LINE
8
BLACK
10
36740.0
20
70800.0
11
36690.0
21
70770.0
0
LINE
8
BLACK
10
36690.0
20
70770.0
11
36670.0
21
70750.0
0
LINE
8
BLACK
10
36670.0
20
70750.0
11
36620.0
21
70680.0
0
LINE
8
BLACK
10
36620.0
20
70680.0
11
36600.0
21
70580.0
0
LINE
8
BLACK
10
36600.0
20
70580.0
11
36600.0
21
70390.0
0
LINE
8
BLACK
10
36600.0
20
70390.0
11
36620.0
21
70350.0
0
LINE
8
BLACK
10
36620.0
20
70350.0
11
36640.0
21
70320.0
0
LINE
8
BLACK
10
36640.0
20
70320.0
11
36690.0
21
70300.0
0
LINE
8
BLACK
10
36690.0
20
70300.0
11
36790.0
21
70300.0
0
LINE
8
BLACK
10
36790.0
20
70300.0
11
36830.0
21
70320.0
0
LINE
8
BLACK
10
36830.0
20
70320.0
11
36860.0
21
70350.0
0
LINE
8
BLACK
10
36860.0
20
70350.0
11
36880.0
21
70390.0
0
LINE
8
BLACK
10
36880.0
20
70390.0
11
36880.0
21
70510.0
0
LINE
8
BLACK
10
36880.0
20
70510.0
11
36860.0
21
70560.0
0
LINE
8
BLACK
10
36860.0
20
70560.0
11
36830.0
21
70580.0
0
LINE
8
BLACK
10
36830.0
20
70580.0
11
36790.0
21
70610.0
0
LINE
8
BLACK
10
36790.0
20
70610.0
11
36690.0
21
70610.0
0
LINE
8
BLACK
10
36690.0
20
70610.0
11
36640.0
21
70580.0
0
LINE
8
BLACK
10
36640.0
20
70580.0
11
36620.0
21
70560.0
0
LINE
8
BLACK
10
36620.0
20
70560.0
11
36600.0
21
70510.0
0
LINE
8
BLACK
10
36380.0
20
68300.0
11
36100.0
21
68300.0
0
LINE
8
BLACK
10
36240.0
20
68300.0
11
36240.0
21
68800.0
0
LINE
8
BLACK
10
36240.0
20
68800.0
11
36190.0
21
68730.0
0
LINE
8
BLACK
10
36190.0
20
68730.0
11
36140.0
21
68680.0
0
LINE
8
BLACK
10
36140.0
20
68680.0
11
36100.0
21
68650.0
0
LINE
8
BLACK
10
36690.0
20
68800.0
11
36740.0
21
68800.0
0
LINE
8
BLACK
10
36740.0
20
68800.0
11
36790.0
21
68770.0
0
LINE
8
BLACK
10
36790.0
20
68770.0
11
36810.0
21
68750.0
0
LINE
8
BLACK
10
36810.0
20
68750.0
11
36840.0
21
68700.0
0
LINE
8
BLACK
10
36840.0
20
68700.0
11
36860.0
21
68610.0
0
LINE
8
BLACK
10
36860.0
20
68610.0
11
36860.0
21
68490.0
0
LINE
8
BLACK
10
36860.0
20
68490.0
11
36840.0
21
68390.0
0
LINE
8
BLACK
10
36840.0
20
68390.0
11
36810.0
21
68350.0
0
LINE
8
BLACK
10
36810.0
20
68350.0
11
36790.0
21
68320.0
0
LINE
8
BLACK
10
36790.0
20
68320.0
11
36740.0
21
68300.0
0
LINE
8
BLACK
10
36740.0
20
68300.0
11
36690.0
21
68300.0
0
LINE
8
BLACK
10
36690.0
20
68300.0
11
36650.0
21
68320.0
0
LINE
8
BLACK
10
36650.0
20
68320.0
11
36620.0
21
68350.0
0
LINE
8
BLACK
10
36620.0
20
68350.0
11
36600.0
21
68390.0
0
LINE
8
BLACK
10
36600.0
20
68390.0
11
36580.0
21
68490.0
0
LINE
8
BLACK
10
36580.0
20
68490.0
11
36580.0
21
68610.0
0
LINE
8
BLACK
10
36580.0
20
68610.0
11
36600.0
21
68700.0
0
LINE
8
BLACK
10
36600.0
20
68700.0
11
36620.0
21
68750.0
0
LINE
8
BLACK
10
36620.0
20
68750.0
11
36650.0
21
68770.0
0
LINE
8
BLACK
10
36650.0
20
68770.0
11
36690.0
21
68800.0
0
LINE
8
BLACK
10
37290.0
20
68630.0
11
37290.0
21
68300.0
0
LINE
8
BLACK
10
37080.0
20
68630.0
11
37080.0
21
68370.0
0
LINE
8
BLACK
10
37080.0
20
68370.0
11
37100.0
21
68320.0
0
LINE
8
BLACK
10
37100.0
20
68320.0
11
37150.0
21
68300.0
0
LINE
8
BLACK
10
37150.0
20
68300.0
11
37220.0
21
68300.0
0
LINE
8
BLACK
10
37220.0
20
68300.0
11
37270.0
21
68320.0
0
LINE
8
BLACK
10
37270.0
20
68320.0
11
37290.0
21
68350.0
0
LINE
8
BLACK
10
37460.0
20
68630.0
11
37650.0
21
68630.0
0
LINE
8
BLACK
10
37530.0
20
68300.0
11
37530.0
21
68730.0
0
LINE
8
BLACK
10
37530.0
20
68730.0
11
37550.0
21
68770.0
0
LINE
8
BLACK
10
37550.0
20
68770.0
11
37600.0
21
68800.0
0
LINE
8
BLACK
10
37600.0
20
68800.0
11
37650.0
21
68800.0
0
LINE
8
BLACK
10
20500.0
20
55970.0
11
20500.0
21
56770.0
0
LINE
8
BLACK
10
20500.0
20
56770.0
11
23500.0
21
56770.0
0
LINE
8
BLACK
10
23500.0
20
56770.0
11
23500.0
21
55970.0
0
LINE
8
BLACK
10
23500.0
20
55970.0
11
20500.0
21
55970.0
0
LINE
8
BLACK
10
20500.0
20
56370.0
11
19500.0
21
56370.0
0
LINE
8
BLACK
10
23500.0
20
56370.0
11
24500.0
21
56370.0
0
LINE
8
BLACK
10
21670.0
20
56940.0
11
21510.0
21
57180.0
0
LINE
8
BLACK
10
21390.0
20
56940.0
11
21390.0
21
57440.0
0
LINE
8
BLACK
10
21390.0
20
57440.0
11
21580.0
21
57440.0
0
LINE
8
BLACK
10
21580.0
20
57440.0
11
21630.0
21
57410.0
0
LINE
8
BLACK
10
21630.0
20
57410.0
11
21650.0
21
57390.0
0
LINE
8
BLACK
10
21650.0
20
57390.0
11
21670.0
21
57340.0
0
LINE
8
BLACK
10
21670.0
20
57340.0
11
21670.0
21
57270.0
0
LINE
8
BLACK
10
21670.0
20
57270.0
11
21650.0
21
57220.0
0
LINE
8
BLACK
10
21650.0
20
57220.0
11
21630.0
21
57200.0
0
LINE
8
BLACK
10
21630.0
20
57200.0
11
21580.0
21
57180.0
0
LINE
8
BLACK
10
21580.0
20
57180.0
11
21390.0
21
57180.0
0
LINE
8
BLACK
10
22100.0
20
57440.0
11
22010.0
21
57440.0
0
LINE
8
BLACK
10
22010.0
20
57440.0
11
21960.0
21
57410.0
0
LINE
8
BLACK
10
21960.0
20
57410.0
11
21940.0
21
57390.0
0
LINE
8
BLACK
10
21940.0
20
57390.0
11
21890.0
21
57320.0
0
LINE
8
BLACK
10
21890.0
20
57320.0
11
21870.0
21
57220.0
0
LINE
8
BLACK
10
21870.0
20
57220.0
11
21870.0
21
57030.0
0
LINE
8
BLACK
10
21870.0
20
57030.0
11
21890.0
21
56990.0
0
LINE
8
BLACK
10
21890.0
20
56990.0
11
21910.0
21
56960.0
0
LINE
8
BLACK
10
21910.0
20
56960.0
11
21960.0
21
56940.0
0
LINE
8
BLACK
10
21960.0
20
56940.0
11
22060.0
21
56940.0
0
LINE
8
BLACK
10
22060.0
20
56940.0
11
22100.0
21
56960.0
0
LINE
8
BLACK
10
22100.0
20
56960.0
11
22130.0
21
56990.0
0
LINE
8
BLACK
10
22130.0
20
56990.0
11
22150.0
21
57030.0
0
LINE
8
BLACK
10
22150.0
20
57030.0
11
22150.0
21
57150.0
0
LINE
8
BLACK
10
22150.0
20
57150.0
11
22130.0
21
57200.0
0
LINE
8
BLACK
10
22130.0
20
57200.0
11
22100.0
21
57220.0
0
LINE
8
BLACK
10
22100.0
20
57220.0
11
22060.0
21
57250.0
0
LINE
8
BLACK
10
22060.0
20
57250.0
11
21960.0
21
57250.0
0
LINE
8
BLACK
10
21960.0
20
57250.0
11
21910.0
21
57220.0
0
LINE
8
BLACK
10
21910.0
20
57220.0
11
21890.0
21
57200.0
0
LINE
8
BLACK
10
21890.0
20
57200.0
11
21870.0
21
57150.0
0
LINE
8
BLACK
10
22320.0
20
57440.0
11
22630.0
21
57440.0
0
LINE
8
BLACK
10
22630.0
20
57440.0
11
22460.0
21
57250.0
0
LINE
8
BLACK
10
22460.0
20
57250.0
11
22540.0
21
57250.0
0
LINE
8
BLACK
10
22540.0
20
57250.0
11
22580.0
21
57220.0
0
LINE
8
BLACK
10
22580.0
20
57220.0
11
22610.0
21
57200.0
0
LINE
8
BLACK
10
22610.0
20
57200.0
11
22630.0
21
57150.0
0
LINE
8
BLACK
10
22630.0
20
57150.0
11
22630.0
21
57030.0
0
LINE
8
BLACK
10
22630.0
20
57030.0
11
22610.0
21
56990.0
0
LINE
8
BLACK
10
22610.0
20
56990.0
11
22580.0
21
56960.0
0
LINE
8
BLACK
10
22580.0
20
56960.0
11
22540.0
21
56940.0
0
LINE
8
BLACK
10
22540.0
20
56940.0
11
22390.0
21
56940.0
0
LINE
8
BLACK
10
22390.0
20
56940.0
11
22350.0
21
56960.0
0
LINE
8
BLACK
10
22350.0
20
56960.0
11
22320.0
21
56990.0
0
LINE
8
BLACK
10
21970.0
20
56640.0
11
22020.0
21
56640.0
0
LINE
8
BLACK
10
22020.0
20
56640.0
11
22070.0
21
56610.0
0
LINE
8
BLACK
10
22070.0
20
56610.0
11
22090.0
21
56590.0
0
LINE
8
BLACK
10
22090.0
20
56590.0
11
22120.0
21
56540.0
0
LINE
8
BLACK
10
22120.0
20
56540.0
11
22140.0
21
56450.0
0
LINE
8
BLACK
10
22140.0
20
56450.0
11
22140.0
21
56330.0
0
LINE
8
BLACK
10
22140.0
20
56330.0
11
22120.0
21
56230.0
0
LINE
8
BLACK
10
22120.0
20
56230.0
11
22090.0
21
56190.0
0
LINE
8
BLACK
10
22090.0
20
56190.0
11
22070.0
21
56160.0
0
LINE
8
BLACK
10
22070.0
20
56160.0
11
22020.0
21
56140.0
0
LINE
8
BLACK
10
22020.0
20
56140.0
11
21970.0
21
56140.0
0
LINE
8
BLACK
10
21970.0
20
56140.0
11
21930.0
21
56160.0
0
LINE
8
BLACK
10
21930.0
20
56160.0
11
21900.0
21
56190.0
0
LINE
8
BLACK
10
21900.0
20
56190.0
11
21880.0
21
56230.0
0
LINE
8
BLACK
10
21880.0
20
56230.0
11
21860.0
21
56330.0
0
LINE
8
BLACK
10
21860.0
20
56330.0
11
21860.0
21
56450.0
0
LINE
8
BLACK
10
21860.0
20
56450.0
11
21880.0
21
56540.0
0
LINE
8
BLACK
10
21880.0
20
56540.0
11
21900.0
21
56590.0
0
LINE
8
BLACK
10
21900.0
20
56590.0
11
21930.0
21
56610.0
0
LINE
8
BLACK
10
21930.0
20
56610.0
11
21970.0
21
56640.0
0
LINE
8
BLACK
10
26500.0
20
55170.0
11
27000.0
21
54670.0
0
LINE
8
BLACK
10
27000.0
20
54670.0
11
27500.0
21
55170.0
0
LINE
8
BLACK
10
27500.0
20
55170.0
11
26500.0
21
55170.0
0
LINE
8
BLACK
10
26290.0
20
54340.0
11
26290.0
21
54740.0
0
LINE
8
BLACK
10
26290.0
20
54740.0
11
26380.0
21
54740.0
0
LINE
8
BLACK
10
26380.0
20
54740.0
11
26440.0
21
54720.0
0
LINE
8
BLACK
10
26440.0
20
54720.0
11
26480.0
21
54680.0
0
LINE
8
BLACK
10
26480.0
20
54680.0
11
26490.0
21
54640.0
0
LINE
8
BLACK
10
26490.0
20
54640.0
11
26510.0
21
54570.0
0
LINE
8
BLACK
10
26510.0
20
54570.0
11
26510.0
21
54510.0
0
LINE
8
BLACK
10
26510.0
20
54510.0
11
26490.0
21
54430.0
0
LINE
8
BLACK
10
26490.0
20
54430.0
11
26480.0
21
54400.0
0
LINE
8
BLACK
10
26480.0
20
54400.0
11
26440.0
21
54360.0
0
LINE
8
BLACK
10
26440.0
20
54360.0
11
26380.0
21
54340.0
0
LINE
8
BLACK
10
26380.0
20
54340.0
11
26290.0
21
54340.0
0
LINE
8
BLACK
10
26890.0
20
54720.0
11
26860.0
21
54740.0
0
LINE
8
BLACK
10
26860.0
20
54740.0
11
26800.0
21
54740.0
0
LINE
8
BLACK
10
26800.0
20
54740.0
11
26740.0
21
54720.0
0
LINE
8
BLACK
10
26740.0
20
54720.0
11
26700.0
21
54680.0
0
LINE
8
BLACK
10
26700.0
20
54680.0
11
26690.0
21
54640.0
0
LINE
8
BLACK
10
26690.0
20
54640.0
11
26670.0
21
54570.0
0
LINE
8
BLACK
10
26670.0
20
54570.0
11
26670.0
21
54510.0
0
LINE
8
BLACK
10
26670.0
20
54510.0
11
26690.0
21
54430.0
0
LINE
8
BLACK
10
26690.0
20
54430.0
11
26700.0
21
54400.0
0
LINE
8
BLACK
10
26700.0
20
54400.0
11
26740.0
21
54360.0
0
LINE
8
BLACK
10
26740.0
20
54360.0
11
26800.0
21
54340.0
0
LINE
8
BLACK
10
26800.0
20
54340.0
11
26840.0
21
54340.0
0
LINE
8
BLACK
10
26840.0
20
54340.0
11
26890.0
21
54360.0
0
LINE
8
BLACK
10
26890.0
20
54360.0
11
26910.0
21
54380.0
0
LINE
8
BLACK
10
26910.0
20
54380.0
11
26910.0
21
54510.0
0
LINE
8
BLACK
10
26910.0
20
54510.0
11
26840.0
21
54510.0
0
LINE
8
BLACK
10
27090.0
20
54340.0
11
27090.0
21
54740.0
0
LINE
8
BLACK
10
27090.0
20
54740.0
11
27310.0
21
54340.0
0
LINE
8
BLACK
10
27310.0
20
54340.0
11
27310.0
21
54740.0
0
LINE
8
BLACK
10
27510.0
20
54340.0
11
27510.0
21
54740.0
0
LINE
8
BLACK
10
27510.0
20
54740.0
11
27600.0
21
54740.0
0
LINE
8
BLACK
10
27600.0
20
54740.0
11
27660.0
21
54720.0
0
LINE
8
BLACK
10
27660.0
20
54720.0
11
27700.0
21
54680.0
0
LINE
8
BLACK
10
27700.0
20
54680.0
11
27710.0
21
54640.0
0
LINE
8
BLACK
10
27710.0
20
54640.0
11
27730.0
21
54570.0
0
LINE
8
BLACK
10
27730.0
20
54570.0
11
27730.0
21
54510.0
0
LINE
8
BLACK
10
27730.0
20
54510.0
11
27710.0
21
54430.0
0
LINE
8
BLACK
10
27710.0
20
54430.0
11
27700.0
21
54400.0
0
LINE
8
BLACK
10
27700.0
20
54400.0
11
27660.0
21
54360.0
0
LINE
8
BLACK
10
27660.0
20
54360.0
11
27600.0
21
54340.0
0
LINE
8
BLACK
10
27600.0
20
54340.0
11
27510.0
21
54340.0
0
LINE
8
BLACK
10
26600.0
20
58770.0
11
27400.0
21
58770.0
0
LINE
8
BLACK
10
27400.0
20
58770.0
11
27000.0
21
58370.0
0
LINE
8
BLACK
10
27000.0
20
58370.0
11
26600.0
21
58770.0
0
LINE
8
BLACK
10
26130.0
20
58040.0
11
26360.0
21
58040.0
0
LINE
8
BLACK
10
26080.0
20
57900.0
11
26240.0
21
58400.0
0
LINE
8
BLACK
10
26240.0
20
58400.0
11
26410.0
21
57900.0
0
LINE
8
BLACK
10
26840.0
20
58370.0
11
26790.0
21
58400.0
0
LINE
8
BLACK
10
26790.0
20
58400.0
11
26720.0
21
58400.0
0
LINE
8
BLACK
10
26720.0
20
58400.0
11
26650.0
21
58370.0
0
LINE
8
BLACK
10
26650.0
20
58370.0
11
26600.0
21
58330.0
0
LINE
8
BLACK
10
26600.0
20
58330.0
11
26580.0
21
58280.0
0
LINE
8
BLACK
10
26580.0
20
58280.0
11
26560.0
21
58180.0
0
LINE
8
BLACK
10
26560.0
20
58180.0
11
26560.0
21
58110.0
0
LINE
8
BLACK
10
26560.0
20
58110.0
11
26580.0
21
58020.0
0
LINE
8
BLACK
10
26580.0
20
58020.0
11
26600.0
21
57970.0
0
LINE
8
BLACK
10
26600.0
20
57970.0
11
26650.0
21
57920.0
0
LINE
8
BLACK
10
26650.0
20
57920.0
11
26720.0
21
57900.0
0
LINE
8
BLACK
10
26720.0
20
57900.0
11
26770.0
21
57900.0
0
LINE
8
BLACK
10
26770.0
20
57900.0
11
26840.0
21
57920.0
0
LINE
8
BLACK
10
26840.0
20
57920.0
11
26860.0
21
57950.0
0
LINE
8
BLACK
10
26860.0
20
57950.0
11
26860.0
21
58110.0
0
LINE
8
BLACK
10
26860.0
20
58110.0
11
26770.0
21
58110.0
0
LINE
8
BLACK
10
27080.0
20
57900.0
11
27080.0
21
58400.0
0
LINE
8
BLACK
10
27080.0
20
58400.0
11
27360.0
21
57900.0
0
LINE
8
BLACK
10
27360.0
20
57900.0
11
27360.0
21
58400.0
0
LINE
8
BLACK
10
27600.0
20
57900.0
11
27600.0
21
58400.0
0
LINE
8
BLACK
10
27600.0
20
58400.0
11
27720.0
21
58400.0
0
LINE
8
BLACK
10
27720.0
20
58400.0
11
27790.0
21
58370.0
0
LINE
8
BLACK
10
27790.0
20
58370.0
11
27840.0
21
58330.0
0
LINE
8
BLACK
10
27840.0
20
58330.0
11
27860.0
21
58280.0
0
LINE
8
BLACK
10
27860.0
20
58280.0
11
27880.0
21
58180.0
0
LINE
8
BLACK
10
27880.0
20
58180.0
11
27880.0
21
58110.0
0
LINE
8
BLACK
10
27880.0
20
58110.0
11
27860.0
21
58020.0
0
LINE
8
BLACK
10
27860.0
20
58020.0
11
27840.0
21
57970.0
0
LINE
8
BLACK
10
27840.0
20
57970.0
11
27790.0
21
57920.0
0
LINE
8
BLACK
10
27790.0
20
57920.0
11
27720.0
21
57900.0
0
LINE
8
BLACK
10
27720.0
20
57900.0
11
27600.0
21
57900.0
0
LINE
8
BLACK
10
21400.0
20
58970.0
11
21400.0
21
59770.0
0
LINE
8
BLACK
10
21400.0
20
59770.0
11
24400.0
21
59770.0
0
LINE
8
BLACK
10
24400.0
20
59770.0
11
24400.0
21
58970.0
0
LINE
8
BLACK
10
24400.0
20
58970.0
11
21400.0
21
58970.0
0
LINE
8
BLACK
10
21400.0
20
59370.0
11
20400.0
21
59370.0
0
LINE
8
BLACK
10
24400.0
20
59370.0
11
25400.0
21
59370.0
0
LINE
8
BLACK
10
22570.0
20
59940.0
11
22410.0
21
60180.0
0
LINE
8
BLACK
10
22290.0
20
59940.0
11
22290.0
21
60440.0
0
LINE
8
BLACK
10
22290.0
20
60440.0
11
22480.0
21
60440.0
0
LINE
8
BLACK
10
22480.0
20
60440.0
11
22530.0
21
60410.0
0
LINE
8
BLACK
10
22530.0
20
60410.0
11
22550.0
21
60390.0
0
LINE
8
BLACK
10
22550.0
20
60390.0
11
22570.0
21
60340.0
0
LINE
8
BLACK
10
22570.0
20
60340.0
11
22570.0
21
60270.0
0
LINE
8
BLACK
10
22570.0
20
60270.0
11
22550.0
21
60220.0
0
LINE
8
BLACK
10
22550.0
20
60220.0
11
22530.0
21
60200.0
0
LINE
8
BLACK
10
22530.0
20
60200.0
11
22480.0
21
60180.0
0
LINE
8
BLACK
10
22480.0
20
60180.0
11
22290.0
21
60180.0
0
LINE
8
BLACK
10
23000.0
20
60440.0
11
22910.0
21
60440.0
0
LINE
8
BLACK
10
22910.0
20
60440.0
11
22860.0
21
60410.0
0
LINE
8
BLACK
10
22860.0
20
60410.0
11
22840.0
21
60390.0
0
LINE
8
BLACK
10
22840.0
20
60390.0
11
22790.0
21
60320.0
0
LINE
8
BLACK
10
22790.0
20
60320.0
11
22770.0
21
60220.0
0
LINE
8
BLACK
10
22770.0
20
60220.0
11
22770.0
21
60030.0
0
LINE
8
BLACK
10
22770.0
20
60030.0
11
22790.0
21
59990.0
0
LINE
8
BLACK
10
22790.0
20
59990.0
11
22810.0
21
59960.0
0
LINE
8
BLACK
10
22810.0
20
59960.0
11
22860.0
21
59940.0
0
LINE
8
BLACK
10
22860.0
20
59940.0
11
22960.0
21
59940.0
0
LINE
8
BLACK
10
22960.0
20
59940.0
11
23000.0
21
59960.0
0
LINE
8
BLACK
10
23000.0
20
59960.0
11
23030.0
21
59990.0
0
LINE
8
BLACK
10
23030.0
20
59990.0
11
23050.0
21
60030.0
0
LINE
8
BLACK
10
23050.0
20
60030.0
11
23050.0
21
60150.0
0
LINE
8
BLACK
10
23050.0
20
60150.0
11
23030.0
21
60200.0
0
LINE
8
BLACK
10
23030.0
20
60200.0
11
23000.0
21
60220.0
0
LINE
8
BLACK
10
23000.0
20
60220.0
11
22960.0
21
60250.0
0
LINE
8
BLACK
10
22960.0
20
60250.0
11
22860.0
21
60250.0
0
LINE
8
BLACK
10
22860.0
20
60250.0
11
22810.0
21
60220.0
0
LINE
8
BLACK
10
22810.0
20
60220.0
11
22790.0
21
60200.0
0
LINE
8
BLACK
10
22790.0
20
60200.0
11
22770.0
21
60150.0
0
LINE
8
BLACK
10
23250.0
20
60390.0
11
23270.0
21
60410.0
0
LINE
8
BLACK
10
23270.0
20
60410.0
11
23320.0
21
60440.0
0
LINE
8
BLACK
10
23320.0
20
60440.0
11
23440.0
21
60440.0
0
LINE
8
BLACK
10
23440.0
20
60440.0
11
23480.0
21
60410.0
0
LINE
8
BLACK
10
23480.0
20
60410.0
11
23510.0
21
60390.0
0
LINE
8
BLACK
10
23510.0
20
60390.0
11
23530.0
21
60340.0
0
LINE
8
BLACK
10
23530.0
20
60340.0
11
23530.0
21
60290.0
0
LINE
8
BLACK
10
23530.0
20
60290.0
11
23510.0
21
60220.0
0
LINE
8
BLACK
10
23510.0
20
60220.0
11
23220.0
21
59940.0
0
LINE
8
BLACK
10
23220.0
20
59940.0
11
23530.0
21
59940.0
0
LINE
8
BLACK
10
22870.0
20
59640.0
11
22920.0
21
59640.0
0
LINE
8
BLACK
10
22920.0
20
59640.0
11
22970.0
21
59610.0
0
LINE
8
BLACK
10
22970.0
20
59610.0
11
22990.0
21
59590.0
0
LINE
8
BLACK
10
22990.0
20
59590.0
11
23020.0
21
59540.0
0
LINE
8
BLACK
10
23020.0
20
59540.0
11
23040.0
21
59450.0
0
LINE
8
BLACK
10
23040.0
20
59450.0
11
23040.0
21
59330.0
0
LINE
8
BLACK
10
23040.0
20
59330.0
11
23020.0
21
59230.0
0
LINE
8
BLACK
10
23020.0
20
59230.0
11
22990.0
21
59190.0
0
LINE
8
BLACK
10
22990.0
20
59190.0
11
22970.0
21
59160.0
0
LINE
8
BLACK
10
22970.0
20
59160.0
11
22920.0
21
59140.0
0
LINE
8
BLACK
10
22920.0
20
59140.0
11
22870.0
21
59140.0
0
LINE
8
BLACK
10
22870.0
20
59140.0
11
22830.0
21
59160.0
0
LINE
8
BLACK
10
22830.0
20
59160.0
11
22800.0
21
59190.0
0
LINE
8
BLACK
10
22800.0
20
59190.0
11
22780.0
21
59230.0
0
LINE
8
BLACK
10
22780.0
20
59230.0
11
22760.0
21
59330.0
0
LINE
8
BLACK
10
22760.0
20
59330.0
11
22760.0
21
59450.0
0
LINE
8
BLACK
10
22760.0
20
59450.0
11
22780.0
21
59540.0
0
LINE
8
BLACK
10
22780.0
20
59540.0
11
22800.0
21
59590.0
0
LINE
8
BLACK
10
22800.0
20
59590.0
11
22830.0
21
59610.0
0
LINE
8
BLACK
10
22830.0
20
59610.0
11
22870.0
21
59640.0
0
LINE
8
BLACK
10
18700.0
20
65870.0
11
18700.0
21
66670.0
0
LINE
8
BLACK
10
18700.0
20
66670.0
11
21700.0
21
66670.0
0
LINE
8
BLACK
10
21700.0
20
66670.0
11
21700.0
21
65870.0
0
LINE
8
BLACK
10
21700.0
20
65870.0
11
18700.0
21
65870.0
0
LINE
8
BLACK
10
18700.0
20
66270.0
11
17700.0
21
66270.0
0
LINE
8
BLACK
10
21700.0
20
66270.0
11
22700.0
21
66270.0
0
LINE
8
BLACK
10
19870.0
20
66840.0
11
19710.0
21
67080.0
0
LINE
8
BLACK
10
19590.0
20
66840.0
11
19590.0
21
67340.0
0
LINE
8
BLACK
10
19590.0
20
67340.0
11
19780.0
21
67340.0
0
LINE
8
BLACK
10
19780.0
20
67340.0
11
19830.0
21
67310.0
0
LINE
8
BLACK
10
19830.0
20
67310.0
11
19850.0
21
67290.0
0
LINE
8
BLACK
10
19850.0
20
67290.0
11
19870.0
21
67240.0
0
LINE
8
BLACK
10
19870.0
20
67240.0
11
19870.0
21
67170.0
0
LINE
8
BLACK
10
19870.0
20
67170.0
11
19850.0
21
67120.0
0
LINE
8
BLACK
10
19850.0
20
67120.0
11
19830.0
21
67100.0
0
LINE
8
BLACK
10
19830.0
20
67100.0
11
19780.0
21
67080.0
0
LINE
8
BLACK
10
19780.0
20
67080.0
11
19590.0
21
67080.0
0
LINE
8
BLACK
10
20300.0
20
67340.0
11
20210.0
21
67340.0
0
LINE
8
BLACK
10
20210.0
20
67340.0
11
20160.0
21
67310.0
0
LINE
8
BLACK
10
20160.0
20
67310.0
11
20140.0
21
67290.0
0
LINE
8
BLACK
10
20140.0
20
67290.0
11
20090.0
21
67220.0
0
LINE
8
BLACK
10
20090.0
20
67220.0
11
20070.0
21
67120.0
0
LINE
8
BLACK
10
20070.0
20
67120.0
11
20070.0
21
66930.0
0
LINE
8
BLACK
10
20070.0
20
66930.0
11
20090.0
21
66890.0
0
LINE
8
BLACK
10
20090.0
20
66890.0
11
20110.0
21
66860.0
0
LINE
8
BLACK
10
20110.0
20
66860.0
11
20160.0
21
66840.0
0
LINE
8
BLACK
10
20160.0
20
66840.0
11
20260.0
21
66840.0
0
LINE
8
BLACK
10
20260.0
20
66840.0
11
20300.0
21
66860.0
0
LINE
8
BLACK
10
20300.0
20
66860.0
11
20330.0
21
66890.0
0
LINE
8
BLACK
10
20330.0
20
66890.0
11
20350.0
21
66930.0
0
LINE
8
BLACK
10
20350.0
20
66930.0
11
20350.0
21
67050.0
0
LINE
8
BLACK
10
20350.0
20
67050.0
11
20330.0
21
67100.0
0
LINE
8
BLACK
10
20330.0
20
67100.0
11
20300.0
21
67120.0
0
LINE
8
BLACK
10
20300.0
20
67120.0
11
20260.0
21
67150.0
0
LINE
8
BLACK
10
20260.0
20
67150.0
11
20160.0
21
67150.0
0
LINE
8
BLACK
10
20160.0
20
67150.0
11
20110.0
21
67120.0
0
LINE
8
BLACK
10
20110.0
20
67120.0
11
20090.0
21
67100.0
0
LINE
8
BLACK
10
20090.0
20
67100.0
11
20070.0
21
67050.0
0
LINE
8
BLACK
10
20830.0
20
66840.0
11
20550.0
21
66840.0
0
LINE
8
BLACK
10
20690.0
20
66840.0
11
20690.0
21
67340.0
0
LINE
8
BLACK
10
20690.0
20
67340.0
11
20640.0
21
67270.0
0
LINE
8
BLACK
10
20640.0
20
67270.0
11
20590.0
21
67220.0
0
LINE
8
BLACK
10
20590.0
20
67220.0
11
20550.0
21
67190.0
0
LINE
8
BLACK
10
20170.0
20
66540.0
11
20220.0
21
66540.0
0
LINE
8
BLACK
10
20220.0
20
66540.0
11
20270.0
21
66510.0
0
LINE
8
BLACK
10
20270.0
20
66510.0
11
20290.0
21
66490.0
0
LINE
8
BLACK
10
20290.0
20
66490.0
11
20320.0
21
66440.0
0
LINE
8
BLACK
10
20320.0
20
66440.0
11
20340.0
21
66350.0
0
LINE
8
BLACK
10
20340.0
20
66350.0
11
20340.0
21
66230.0
0
LINE
8
BLACK
10
20340.0
20
66230.0
11
20320.0
21
66130.0
0
LINE
8
BLACK
10
20320.0
20
66130.0
11
20290.0
21
66090.0
0
LINE
8
BLACK
10
20290.0
20
66090.0
11
20270.0
21
66060.0
0
LINE
8
BLACK
10
20270.0
20
66060.0
11
20220.0
21
66040.0
0
LINE
8
BLACK
10
20220.0
20
66040.0
11
20170.0
21
66040.0
0
LINE
8
BLACK
10
20170.0
20
66040.0
11
20130.0
21
66060.0
0
LINE
8
BLACK
10
20130.0
20
66060.0
11
20100.0
21
66090.0
0
LINE
8
BLACK
10
20100.0
20
66090.0
11
20080.0
21
66130.0
0
LINE
8
BLACK
10
20080.0
20
66130.0
11
20060.0
21
66230.0
0
LINE
8
BLACK
10
20060.0
20
66230.0
11
20060.0
21
66350.0
0
LINE
8
BLACK
10
20060.0
20
66350.0
11
20080.0
21
66440.0
0
LINE
8
BLACK
10
20080.0
20
66440.0
11
20100.0
21
66490.0
0
LINE
8
BLACK
10
20100.0
20
66490.0
11
20130.0
21
66510.0
0
LINE
8
BLACK
10
20130.0
20
66510.0
11
20170.0
21
66540.0
0
CIRCLE
8
BLACK
10
86200.0
20
72270.0
40
200
0
LINE
8
BLACK
10
86200.0
20
71670.0
11
86200.0
21
72070.0
0
LINE
8
BLACK
10
85600.0
20
72780.0
11
85830.0
21
72780.0
0
LINE
8
BLACK
10
85720.0
20
72670.0
11
85720.0
21
72900.0
0
LINE
8
BLACK
10
85940.0
20
72970.0
11
86130.0
21
72970.0
0
LINE
8
BLACK
10
86130.0
20
72970.0
11
86030.0
21
72850.0
0
LINE
8
BLACK
10
86030.0
20
72850.0
11
86070.0
21
72850.0
0
LINE
8
BLACK
10
86070.0
20
72850.0
11
86100.0
21
72840.0
0
LINE
8
BLACK
10
86100.0
20
72840.0
11
86110.0
21
72830.0
0
LINE
8
BLACK
10
86110.0
20
72830.0
11
86130.0
21
72800.0
0
LINE
8
BLACK
10
86130.0
20
72800.0
11
86130.0
21
72730.0
0
LINE
8
BLACK
10
86130.0
20
72730.0
11
86110.0
21
72700.0
0
LINE
8
BLACK
10
86110.0
20
72700.0
11
86100.0
21
72680.0
0
LINE
8
BLACK
10
86100.0
20
72680.0
11
86070.0
21
72670.0
0
LINE
8
BLACK
10
86070.0
20
72670.0
11
85990.0
21
72670.0
0
LINE
8
BLACK
10
85990.0
20
72670.0
11
85960.0
21
72680.0
0
LINE
8
BLACK
10
85960.0
20
72680.0
11
85940.0
21
72700.0
0
LINE
8
BLACK
10
86260.0
20
72700.0
11
86280.0
21
72680.0
0
LINE
8
BLACK
10
86280.0
20
72680.0
11
86260.0
21
72670.0
0
LINE
8
BLACK
10
86260.0
20
72670.0
11
86250.0
21
72680.0
0
LINE
8
BLACK
10
86250.0
20
72680.0
11
86260.0
21
72700.0
0
LINE
8
BLACK
10
86260.0
20
72700.0
11
86260.0
21
72670.0
0
LINE
8
BLACK
10
86370.0
20
72970.0
11
86560.0
21
72970.0
0
LINE
8
BLACK
10
86560.0
20
72970.0
11
86460.0
21
72850.0
0
LINE
8
BLACK
10
86460.0
20
72850.0
11
86500.0
21
72850.0
0
LINE
8
BLACK
10
86500.0
20
72850.0
11
86530.0
21
72840.0
0
LINE
8
BLACK
10
86530.0
20
72840.0
11
86540.0
21
72830.0
0
LINE
8
BLACK
10
86540.0
20
72830.0
11
86560.0
21
72800.0
0
LINE
8
BLACK
10
86560.0
20
72800.0
11
86560.0
21
72730.0
0
LINE
8
BLACK
10
86560.0
20
72730.0
11
86540.0
21
72700.0
0
LINE
8
BLACK
10
86540.0
20
72700.0
11
86530.0
21
72680.0
0
LINE
8
BLACK
10
86530.0
20
72680.0
11
86500.0
21
72670.0
0
LINE
8
BLACK
10
86500.0
20
72670.0
11
86420.0
21
72670.0
0
LINE
8
BLACK
10
86420.0
20
72670.0
11
86390.0
21
72680.0
0
LINE
8
BLACK
10
86390.0
20
72680.0
11
86370.0
21
72700.0
0
LINE
8
BLACK
10
86650.0
20
72970.0
11
86750.0
21
72670.0
0
LINE
8
BLACK
10
86750.0
20
72670.0
11
86850.0
21
72970.0
0
ARC
8
BLACK
10
20350.0
20
71670.0
40
750.0
50
-360.0
51
-180.0
0
ARC
8
BLACK
10
21850.0
20
71670.0
40
750.0
50
-179.0
51
0.0
0
LINE
8
BLACK
10
19600.0
20
71670.0
11
18600.0
21
71670.0
0
LINE
8
BLACK
10
19210.0
20
71810.0
11
18990.0
21
71810.0
0
LINE
8
BLACK
10
19100.0
20
71810.0
11
19100.0
21
72210.0
0
LINE
8
BLACK
10
19100.0
20
72210.0
11
19060.0
21
72150.0
0
LINE
8
BLACK
10
19060.0
20
72150.0
11
19020.0
21
72110.0
0
LINE
8
BLACK
10
19020.0
20
72110.0
11
18990.0
21
72090.0
0
LINE
8
BLACK
10
22600.0
20
71670.0
11
23600.0
21
71670.0
0
LINE
8
BLACK
10
22990.0
20
72170.0
11
23010.0
21
72190.0
0
LINE
8
BLACK
10
23010.0
20
72190.0
11
23040.0
21
72210.0
0
LINE
8
BLACK
10
23040.0
20
72210.0
11
23140.0
21
72210.0
0
LINE
8
BLACK
10
23140.0
20
72210.0
11
23180.0
21
72190.0
0
LINE
8
BLACK
10
23180.0
20
72190.0
11
23200.0
21
72170.0
0
LINE
8
BLACK
10
23200.0
20
72170.0
11
23210.0
21
72130.0
0
LINE
8
BLACK
10
23210.0
20
72130.0
11
23210.0
21
72090.0
0
LINE
8
BLACK
10
23210.0
20
72090.0
11
23200.0
21
72040.0
0
LINE
8
BLACK
10
23200.0
20
72040.0
11
22970.0
21
71810.0
0
LINE
8
BLACK
10
22970.0
20
71810.0
11
23210.0
21
71810.0
0
LINE
8
BLACK
10
21970.0
20
72250.0
11
21840.0
21
72250.0
0
LINE
8
BLACK
10
21840.0
20
72040.0
11
21840.0
21
72440.0
0
LINE
8
BLACK
10
21840.0
20
72440.0
11
22030.0
21
72440.0
0
LINE
8
BLACK
10
22380.0
20
72040.0
11
22160.0
21
72040.0
0
LINE
8
BLACK
10
22270.0
20
72040.0
11
22270.0
21
72440.0
0
LINE
8
BLACK
10
22270.0
20
72440.0
11
22230.0
21
72380.0
0
LINE
8
BLACK
10
22230.0
20
72380.0
11
22190.0
21
72340.0
0
LINE
8
BLACK
10
22190.0
20
72340.0
11
22160.0
21
72320.0
0
LINE
8
BLACK
10
19580.0
20
71250.0
11
19450.0
21
71250.0
0
LINE
8
BLACK
10
19450.0
20
71040.0
11
19450.0
21
71440.0
0
LINE
8
BLACK
10
19450.0
20
71440.0
11
19640.0
21
71440.0
0
LINE
8
BLACK
10
19790.0
20
71440.0
11
19790.0
21
71110.0
0
LINE
8
BLACK
10
19790.0
20
71110.0
11
19800.0
21
71080.0
0
LINE
8
BLACK
10
19800.0
20
71080.0
11
19820.0
21
71060.0
0
LINE
8
BLACK
10
19820.0
20
71060.0
11
19860.0
21
71040.0
0
LINE
8
BLACK
10
19860.0
20
71040.0
11
19940.0
21
71040.0
0
LINE
8
BLACK
10
19940.0
20
71040.0
11
19980.0
21
71060.0
0
LINE
8
BLACK
10
19980.0
20
71060.0
11
19990.0
21
71080.0
0
LINE
8
BLACK
10
19990.0
20
71080.0
11
20010.0
21
71110.0
0
LINE
8
BLACK
10
20010.0
20
71110.0
11
20010.0
21
71440.0
0
LINE
8
BLACK
10
20190.0
20
71060.0
11
20240.0
21
71040.0
0
LINE
8
BLACK
10
20240.0
20
71040.0
11
20340.0
21
71040.0
0
LINE
8
BLACK
10
20340.0
20
71040.0
11
20380.0
21
71060.0
0
LINE
8
BLACK
10
20380.0
20
71060.0
11
20400.0
21
71080.0
0
LINE
8
BLACK
10
20400.0
20
71080.0
11
20410.0
21
71110.0
0
LINE
8
BLACK
10
20410.0
20
71110.0
11
20410.0
21
71150.0
0
LINE
8
BLACK
10
20410.0
20
71150.0
11
20400.0
21
71190.0
0
LINE
8
BLACK
10
20400.0
20
71190.0
11
20380.0
21
71210.0
0
LINE
8
BLACK
10
20380.0
20
71210.0
11
20340.0
21
71230.0
0
LINE
8
BLACK
10
20340.0
20
71230.0
11
20260.0
21
71250.0
0
LINE
8
BLACK
10
20260.0
20
71250.0
11
20220.0
21
71270.0
0
LINE
8
BLACK
10
20220.0
20
71270.0
11
20210.0
21
71290.0
0
LINE
8
BLACK
10
20210.0
20
71290.0
11
20190.0
21
71320.0
0
LINE
8
BLACK
10
20190.0
20
71320.0
11
20190.0
21
71360.0
0
LINE
8
BLACK
10
20190.0
20
71360.0
11
20210.0
21
71400.0
0
LINE
8
BLACK
10
20210.0
20
71400.0
11
20220.0
21
71420.0
0
LINE
8
BLACK
10
20220.0
20
71420.0
11
20260.0
21
71440.0
0
LINE
8
BLACK
10
20260.0
20
71440.0
11
20360.0
21
71440.0
0
LINE
8
BLACK
10
20360.0
20
71440.0
11
20410.0
21
71420.0
0
LINE
8
BLACK
10
20590.0
20
71250.0
11
20720.0
21
71250.0
0
LINE
8
BLACK
10
20780.0
20
71040.0
11
20590.0
21
71040.0
0
LINE
8
BLACK
10
20590.0
20
71040.0
11
20590.0
21
71440.0
0
LINE
8
BLACK
10
20590.0
20
71440.0
11
20780.0
21
71440.0
0
CIRCLE
8
BLACK
10
34600.0
20
73170.0
40
200
0
LINE
8
BLACK
10
34600.0
20
72570.0
11
34600.0
21
72970.0
0
LINE
8
BLACK
10
34070.0
20
73580.0
11
34300.0
21
73580.0
0
LINE
8
BLACK
10
34190.0
20
73470.0
11
34190.0
21
73700.0
0
LINE
8
BLACK
10
34600.0
20
73470.0
11
34430.0
21
73470.0
0
LINE
8
BLACK
10
34510.0
20
73470.0
11
34510.0
21
73770.0
0
LINE
8
BLACK
10
34510.0
20
73770.0
11
34480.0
21
73730.0
0
LINE
8
BLACK
10
34480.0
20
73730.0
11
34460.0
21
73700.0
0
LINE
8
BLACK
10
34460.0
20
73700.0
11
34430.0
21
73680.0
0
LINE
8
BLACK
10
34720.0
20
73740.0
11
34730.0
21
73750.0
0
LINE
8
BLACK
10
34730.0
20
73750.0
11
34760.0
21
73770.0
0
LINE
8
BLACK
10
34760.0
20
73770.0
11
34830.0
21
73770.0
0
LINE
8
BLACK
10
34830.0
20
73770.0
11
34860.0
21
73750.0
0
LINE
8
BLACK
10
34860.0
20
73750.0
11
34870.0
21
73740.0
0
LINE
8
BLACK
10
34870.0
20
73740.0
11
34890.0
21
73710.0
0
LINE
8
BLACK
10
34890.0
20
73710.0
11
34890.0
21
73680.0
0
LINE
8
BLACK
10
34890.0
20
73680.0
11
34870.0
21
73640.0
0
LINE
8
BLACK
10
34870.0
20
73640.0
11
34700.0
21
73470.0
0
LINE
8
BLACK
10
34700.0
20
73470.0
11
34890.0
21
73470.0
0
LINE
8
BLACK
10
34980.0
20
73770.0
11
35080.0
21
73470.0
0
LINE
8
BLACK
10
35080.0
20
73470.0
11
35180.0
21
73770.0
0
LINE
8
BLACK
10
16600.0
20
65170.0
11
16500.0
21
64870.0
0
LINE
8
BLACK
10
16800.0
20
65170.0
11
16700.0
21
64870.0
0
LINE
8
BLACK
10
17000.0
20
65170.0
11
16900.0
21
64870.0
0
LINE
8
BLACK
10
17200.0
20
65170.0
11
17100.0
21
64870.0
0
LINE
8
BLACK
10
17400.0
20
65170.0
11
16600.0
21
65170.0
0
LINE
8
BLACK
10
17400.0
20
65170.0
11
17300.0
21
64870.0
0
LINE
8
BLACK
10
16060.0
20
64620.0
11
16030.0
21
64640.0
0
LINE
8
BLACK
10
16030.0
20
64640.0
11
15970.0
21
64640.0
0
LINE
8
BLACK
10
15970.0
20
64640.0
11
15910.0
21
64620.0
0
LINE
8
BLACK
10
15910.0
20
64620.0
11
15870.0
21
64580.0
0
LINE
8
BLACK
10
15870.0
20
64580.0
11
15860.0
21
64540.0
0
LINE
8
BLACK
10
15860.0
20
64540.0
11
15840.0
21
64470.0
0
LINE
8
BLACK
10
15840.0
20
64470.0
11
15840.0
21
64410.0
0
LINE
8
BLACK
10
15840.0
20
64410.0
11
15860.0
21
64330.0
0
LINE
8
BLACK
10
15860.0
20
64330.0
11
15870.0
21
64300.0
0
LINE
8
BLACK
10
15870.0
20
64300.0
11
15910.0
21
64260.0
0
LINE
8
BLACK
10
15910.0
20
64260.0
11
15970.0
21
64240.0
0
LINE
8
BLACK
10
15970.0
20
64240.0
11
16010.0
21
64240.0
0
LINE
8
BLACK
10
16010.0
20
64240.0
11
16060.0
21
64260.0
0
LINE
8
BLACK
10
16060.0
20
64260.0
11
16080.0
21
64280.0
0
LINE
8
BLACK
10
16080.0
20
64280.0
11
16080.0
21
64410.0
0
LINE
8
BLACK
10
16080.0
20
64410.0
11
16010.0
21
64410.0
0
LINE
8
BLACK
10
16260.0
20
64240.0
11
16260.0
21
64640.0
0
LINE
8
BLACK
10
16260.0
20
64640.0
11
16480.0
21
64240.0
0
LINE
8
BLACK
10
16480.0
20
64240.0
11
16480.0
21
64640.0
0
LINE
8
BLACK
10
16680.0
20
64240.0
11
16680.0
21
64640.0
0
LINE
8
BLACK
10
16680.0
20
64640.0
11
16770.0
21
64640.0
0
LINE
8
BLACK
10
16770.0
20
64640.0
11
16830.0
21
64620.0
0
LINE
8
BLACK
10
16830.0
20
64620.0
11
16870.0
21
64580.0
0
LINE
8
BLACK
10
16870.0
20
64580.0
11
16880.0
21
64540.0
0
LINE
8
BLACK
10
16880.0
20
64540.0
11
16900.0
21
64470.0
0
LINE
8
BLACK
10
16900.0
20
64470.0
11
16900.0
21
64410.0
0
LINE
8
BLACK
10
16900.0
20
64410.0
11
16880.0
21
64330.0
0
LINE
8
BLACK
10
16880.0
20
64330.0
11
16870.0
21
64300.0
0
LINE
8
BLACK
10
16870.0
20
64300.0
11
16830.0
21
64260.0
0
LINE
8
BLACK
10
16830.0
20
64260.0
11
16770.0
21
64240.0
0
LINE
8
BLACK
10
16770.0
20
64240.0
11
16680.0
21
64240.0
0
LINE
8
BLACK
10
17080.0
20
64240.0
11
17080.0
21
64640.0
0
LINE
8
BLACK
10
17080.0
20
64640.0
11
17230.0
21
64640.0
0
LINE
8
BLACK
10
17230.0
20
64640.0
11
17270.0
21
64620.0
0
LINE
8
BLACK
10
17270.0
20
64620.0
11
17280.0
21
64600.0
0
LINE
8
BLACK
10
17280.0
20
64600.0
11
17300.0
21
64560.0
0
LINE
8
BLACK
10
17300.0
20
64560.0
11
17300.0
21
64500.0
0
LINE
8
BLACK
10
17300.0
20
64500.0
11
17280.0
21
64470.0
0
LINE
8
BLACK
10
17280.0
20
64470.0
11
17270.0
21
64450.0
0
LINE
8
BLACK
10
17270.0
20
64450.0
11
17230.0
21
64430.0
0
LINE
8
BLACK
10
17230.0
20
64430.0
11
17080.0
21
64430.0
0
LINE
8
BLACK
10
17440.0
20
64640.0
11
17530.0
21
64240.0
0
LINE
8
BLACK
10
17530.0
20
64240.0
11
17610.0
21
64520.0
0
LINE
8
BLACK
10
17610.0
20
64520.0
11
17680.0
21
64240.0
0
LINE
8
BLACK
10
17680.0
20
64240.0
11
17780.0
21
64640.0
0
LINE
8
BLACK
10
18160.0
20
64240.0
11
18030.0
21
64430.0
0
LINE
8
BLACK
10
17940.0
20
64240.0
11
17940.0
21
64640.0
0
LINE
8
BLACK
10
17940.0
20
64640.0
11
18090.0
21
64640.0
0
LINE
8
BLACK
10
18090.0
20
64640.0
11
18130.0
21
64620.0
0
LINE
8
BLACK
10
18130.0
20
64620.0
11
18140.0
21
64600.0
0
LINE
8
BLACK
10
18140.0
20
64600.0
11
18160.0
21
64560.0
0
LINE
8
BLACK
10
18160.0
20
64560.0
11
18160.0
21
64500.0
0
LINE
8
BLACK
10
18160.0
20
64500.0
11
18140.0
21
64470.0
0
LINE
8
BLACK
10
18140.0
20
64470.0
11
18130.0
21
64450.0
0
LINE
8
BLACK
10
18130.0
20
64450.0
11
18090.0
21
64430.0
0
LINE
8
BLACK
10
18090.0
20
64430.0
11
17940.0
21
64430.0
0
ARC
8
BLACK
10
12000.0
20
71670.0
40
500.0
50
-270.0
51
-90.0
0
LINE
8
BLACK
10
11500.0
20
72670.0
11
11500.0
21
70170.0
0
LINE
8
BLACK
10
11500.0
20
70170.0
11
15000.0
21
70170.0
0
LINE
8
BLACK
10
15000.0
20
70170.0
11
15000.0
21
72670.0
0
LINE
8
BLACK
10
15000.0
20
72670.0
11
11500.0
21
72670.0
0
LINE
8
BLACK
10
14000.0
20
71670.0
11
11500.0
21
71670.0
0
LINE
8
BLACK
10
14000.0
20
72170.0
11
12000.0
21
72170.0
0
LINE
8
BLACK
10
14000.0
20
72170.0
11
14000.0
21
71170.0
0
LINE
8
BLACK
10
14000.0
20
71170.0
11
12000.0
21
71170.0
0
LINE
8
BLACK
10
14000.0
20
71670.0
11
17000.0
21
71670.0
0
LINE
8
BLACK
10
15640.0
20
71820.0
11
15360.0
21
71820.0
0
LINE
8
BLACK
10
15500.0
20
71820.0
11
15500.0
21
72320.0
0
LINE
8
BLACK
10
15500.0
20
72320.0
11
15450.0
21
72250.0
0
LINE
8
BLACK
10
15450.0
20
72250.0
11
15400.0
21
72200.0
0
LINE
8
BLACK
10
15400.0
20
72200.0
11
15360.0
21
72170.0
0
LINE
8
BLACK
10
14000.0
20
70170.0
11
17000.0
21
70170.0
0
LINE
8
BLACK
10
15360.0
20
70770.0
11
15380.0
21
70790.0
0
LINE
8
BLACK
10
15380.0
20
70790.0
11
15430.0
21
70820.0
0
LINE
8
BLACK
10
15430.0
20
70820.0
11
15550.0
21
70820.0
0
LINE
8
BLACK
10
15550.0
20
70820.0
11
15590.0
21
70790.0
0
LINE
8
BLACK
10
15590.0
20
70790.0
11
15620.0
21
70770.0
0
LINE
8
BLACK
10
15620.0
20
70770.0
11
15640.0
21
70720.0
0
LINE
8
BLACK
10
15640.0
20
70720.0
11
15640.0
21
70670.0
0
LINE
8
BLACK
10
15640.0
20
70670.0
11
15620.0
21
70600.0
0
LINE
8
BLACK
10
15620.0
20
70600.0
11
15330.0
21
70320.0
0
LINE
8
BLACK
10
15330.0
20
70320.0
11
15640.0
21
70320.0
0
LINE
8
BLACK
10
13500.0
20
70170.0
11
13500.0
21
68670.0
0
LINE
8
BLACK
10
12850.0
20
69250.0
11
12850.0
21
69560.0
0
LINE
8
BLACK
10
12850.0
20
69560.0
11
13040.0
21
69390.0
0
LINE
8
BLACK
10
13040.0
20
69390.0
11
13040.0
21
69470.0
0
LINE
8
BLACK
10
13040.0
20
69470.0
11
13070.0
21
69510.0
0
LINE
8
BLACK
10
13070.0
20
69510.0
11
13090.0
21
69540.0
0
LINE
8
BLACK
10
13090.0
20
69540.0
11
13140.0
21
69560.0
0
LINE
8
BLACK
10
13140.0
20
69560.0
11
13260.0
21
69560.0
0
LINE
8
BLACK
10
13260.0
20
69560.0
11
13300.0
21
69540.0
0
LINE
8
BLACK
10
13300.0
20
69540.0
11
13330.0
21
69510.0
0
LINE
8
BLACK
10
13330.0
20
69510.0
11
13350.0
21
69470.0
0
LINE
8
BLACK
10
13350.0
20
69470.0
11
13350.0
21
69320.0
0
LINE
8
BLACK
10
13350.0
20
69320.0
11
13330.0
21
69280.0
0
LINE
8
BLACK
10
13330.0
20
69280.0
11
13300.0
21
69250.0
0
LINE
8
BLACK
10
10800.0
20
73560.0
11
10800.0
21
73130.0
0
LINE
8
BLACK
10
10800.0
20
73130.0
11
10780.0
21
73040.0
0
LINE
8
BLACK
10
10780.0
20
73040.0
11
10720.0
21
72990.0
0
LINE
8
BLACK
10
10720.0
20
72990.0
11
10630.0
21
72960.0
0
LINE
8
BLACK
10
10630.0
20
72960.0
11
10580.0
21
72960.0
0
LINE
8
BLACK
10
11350.0
20
73360.0
11
11350.0
21
72960.0
0
LINE
8
BLACK
10
11210.0
20
73590.0
11
11060.0
21
73160.0
0
LINE
8
BLACK
10
11060.0
20
73160.0
11
11440.0
21
73160.0
0
LINE
8
BLACK
10
9600.0
20
69460.0
11
9600.0
21
70060.0
0
LINE
8
BLACK
10
9600.0
20
70060.0
11
9830.0
21
70060.0
0
LINE
8
BLACK
10
9830.0
20
70060.0
11
9890.0
21
70030.0
0
LINE
8
BLACK
10
9890.0
20
70030.0
11
9920.0
21
70000.0
0
LINE
8
BLACK
10
9920.0
20
70000.0
11
9950.0
21
69940.0
0
LINE
8
BLACK
10
9950.0
20
69940.0
11
9950.0
21
69860.0
0
LINE
8
BLACK
10
9950.0
20
69860.0
11
9920.0
21
69800.0
0
LINE
8
BLACK
10
9920.0
20
69800.0
11
9890.0
21
69770.0
0
LINE
8
BLACK
10
9890.0
20
69770.0
11
9830.0
21
69740.0
0
LINE
8
BLACK
10
9830.0
20
69740.0
11
9600.0
21
69740.0
0
LINE
8
BLACK
10
10150.0
20
70060.0
11
10290.0
21
69460.0
0
LINE
8
BLACK
10
10290.0
20
69460.0
11
10400.0
21
69890.0
0
LINE
8
BLACK
10
10400.0
20
69890.0
11
10520.0
21
69460.0
0
LINE
8
BLACK
10
10520.0
20
69460.0
11
10660.0
21
70060.0
0
LINE
8
BLACK
10
11240.0
20
69460.0
11
11040.0
21
69740.0
0
LINE
8
BLACK
10
10890.0
20
69460.0
11
10890.0
21
70060.0
0
LINE
8
BLACK
10
10890.0
20
70060.0
11
11120.0
21
70060.0
0
LINE
8
BLACK
10
11120.0
20
70060.0
11
11180.0
21
70030.0
0
LINE
8
BLACK
10
11180.0
20
70030.0
11
11210.0
21
70000.0
0
LINE
8
BLACK
10
11210.0
20
70000.0
11
11240.0
21
69940.0
0
LINE
8
BLACK
10
11240.0
20
69940.0
11
11240.0
21
69860.0
0
LINE
8
BLACK
10
11240.0
20
69860.0
11
11210.0
21
69800.0
0
LINE
8
BLACK
10
11210.0
20
69800.0
11
11180.0
21
69770.0
0
LINE
8
BLACK
10
11180.0
20
69770.0
11
11120.0
21
69740.0
0
LINE
8
BLACK
10
11120.0
20
69740.0
11
10890.0
21
69740.0
0
LINE
8
BLACK
10
11490.0
20
69690.0
11
11950.0
21
69690.0
0
LINE
8
BLACK
10
12400.0
20
70060.0
11
12400.0
21
69630.0
0
LINE
8
BLACK
10
12400.0
20
69630.0
11
12380.0
21
69540.0
0
LINE
8
BLACK
10
12380.0
20
69540.0
11
12320.0
21
69490.0
0
LINE
8
BLACK
10
12320.0
20
69490.0
11
12230.0
21
69460.0
0
LINE
8
BLACK
10
12230.0
20
69460.0
11
12180.0
21
69460.0
0
ENDSEC
0
EOF
