999
dxfrw 0.5.11
0
SECTION
2
HEADER
9
$ACADVER
1
AC1021
9
$HANDSEED
5
20000
9
$DWGCODEPAGE
3
ANSI_1252
9
$INSBASE
10
0
20
0
30
0
9
$EXTMIN
10
-985.332136893
20
-642.670490142
30
0
9
$EXTMAX
10
2100.6
20
700.6
30
0
9
$LIMMIN
10
0
20
0
9
$LIMMAX
10
420
20
297
9
$ORTHOMODE
70
0
9
$LTSCALE
40
1
9
$TEXTSTYLE
7
STANDARD
9
$CLAYER
8
0
9
$DIMASZ
40
0.1
9
$DIMLFAC
40
1
9
$DIMSCALE
40
1
9
$DIMEXO
40
0.025
9
$DIMEXE
40
0.05
9
$DIMTXT
40
0.1
9
$DIMTSZ
40
0
9
$DIMAUNIT
70
0
9
$DIMADEC
70
2
9
$DIMLUNIT
70
2
9
$DIMSTYLE
2
STANDARD
9
$DIMGAP
40
0.025
9
$DIMTIH
70
0
9
$LUNITS
70
2
9
$LUPREC
70
4
9
$AUNITS
70
0
9
$AUPREC
70
2
9
$SPLINESEGS
70
8
9
$GRIDMODE
70
1
9
$SNAPSTYLE
70
0
9
$GRIDUNIT
10
10
20
10
9
$PINSBASE
10
-776.084190636
20
-290.581112139
30
0
9
$PLIMMIN
10
0
20
0
9
$PLIMMAX
10
210
20
297
9
$INSUNITS
70
4
9
$PSVPSCALE
40
1
0
ENDSEC
0
SECTION
2
CLASSES
0
ENDSEC
0
SECTION
2
TABLES
0
TABLE
2
VPORT
5
8
330
0
100
AcDbSymbolTable
70
1
0
VPORT
5
31
330
2
100
AcDbSymbolTableRecord
100
AcDbViewportTableRecord
2
*ACTIVE
70
0
10
0
20
0
11
1
21
1
12
1284.66126626
22
707.13213063
13
0
23
0
14
10
24
10
15
10
25
10
16
0
26
0
36
1
17
0
27
0
37
0
40
2228.26201935
41
2.07551020408
42
50
43
0
44
0
50
0
51
0
71
0
72
100
73
1
74
3
75
0
76
1
77
0
78
0
281
0
65
1
110
0
120
0
130
0
111
1
121
0
131
0
112
0
122
1
132
0
79
0
146
0
348
10020
60
3
61
5
292
1
282
1
141
0
142
0
63
250
421
3358443
0
ENDTAB
0
TABLE
2
LTYPE
5
5
330
0
100
AcDbSymbolTable
70
4
0
LTYPE
5
14
330
5
100
AcDbSymbolTableRecord
100
AcDbLinetypeTableRecord
2
ByBlock
70
0
3

72
65
73
0
40
0
0
LTYPE
5
15
330
5
100
AcDbSymbolTableRecord
100
AcDbLinetypeTableRecord
2
ByLayer
70
0
3

72
65
73
0
40
0
0
LTYPE
5
16
330
5
100
AcDbSymbolTableRecord
100
AcDbLinetypeTableRecord
2
Continuous
70
0
3
Solid line
72
65
73
0
40
0
0
LTYPE
5
32
330
5
100
AcDbSymbolTableRecord
100
AcDbLinetypeTableRecord
2
DOT
70
0
3
Dot . . . . . . . . . . . . . . . . . . . . . .
72
65
73
2
40
6.35
49
0
74
0
49
-6.35
74
0
0
LTYPE
5
33
330
5
100
AcDbSymbolTableRecord
100
AcDbLinetypeTableRecord
2
DOT2
70
0
3
Dot (.5x) .....................................
72
65
73
2
40
3.175
49
0
74
0
49
-3.175
74
0
0
LTYPE
5
34
330
5
100
AcDbSymbolTableRecord
100
AcDbLinetypeTableRecord
2
DOTX2
70
0
3
Dot (2x) .  .  .  .  .  .  .  .  .  .  .  .  .
72
65
73
2
40
12.7
49
0
74
0
49
-12.7
74
0
0
LTYPE
5
35
330
5
100
AcDbSymbolTableRecord
100
AcDbLinetypeTableRecord
2
DASHED
70
0
3
Dot . . . . . . . . . . . . . . . . . . . . . .
72
65
73
2
40
19.05
49
12.7
74
0
49
-6.35
74
0
0
LTYPE
5
36
330
5
100
AcDbSymbolTableRecord
100
AcDbLinetypeTableRecord
2
DASHED2
70
0
3
Dashed (.5x) _ _ _ _ _ _ _ _ _ _ _ _ _ _ _ _ _
72
65
73
2
40
9.525
49
6.35
74
0
49
-3.175
74
0
0
LTYPE
5
37
330
5
100
AcDbSymbolTableRecord
100
AcDbLinetypeTableRecord
2
DASHEDX2
70
0
3
Dashed (2x) ____  ____  ____  ____  ____  ___
72
65
73
2
40
38.1
49
25.4
74
0
49
-12.7
74
0
0
LTYPE
5
38
330
5
100
AcDbSymbolTableRecord
100
AcDbLinetypeTableRecord
2
DASHDOT
70
0
3
Dash dot __ . __ . __ . __ . __ . __ . __ . __
72
65
73
4
40
25.4
49
12.7
74
0
49
-6.35
74
0
49
0
74
0
49
-6.35
74
0
0
LTYPE
5
39
330
5
100
AcDbSymbolTableRecord
100
AcDbLinetypeTableRecord
2
DASHDOT2
70
0
3
Dash dot (.5x) _._._._._._._._._._._._._._._.
72
65
73
4
40
12.7
49
6.35
74
0
49
-3.175
74
0
49
0
74
0
49
-3.175
74
0
0
LTYPE
5
3A
330
5
100
AcDbSymbolTableRecord
100
AcDbLinetypeTableRecord
2
DASHDOTX2
70
0
3
Dash dot (2x) ____  .  ____  .  ____  .  ___
72
65
73
4
40
50.8
49
25.4
74
0
49
-12.7
74
0
49
0
74
0
49
-12.7
74
0
0
LTYPE
5
3B
330
5
100
AcDbSymbolTableRecord
100
AcDbLinetypeTableRecord
2
DIVIDE
70
0
3
Divide ____ . . ____ . . ____ . . ____ . . ____
72
65
73
6
40
31.75
49
12.7
74
0
49
-6.35
74
0
49
0
74
0
49
-6.35
74
0
49
0
74
0
49
-6.35
74
0
0
LTYPE
5
3C
330
5
100
AcDbSymbolTableRecord
100
AcDbLinetypeTableRecord
2
DIVIDE2
70
0
3
Divide (.5x) __..__..__..__..__..__..__..__.._
72
65
73
6
40
15.875
49
6.35
74
0
49
-3.175
74
0
49
0
74
0
49
-3.175
74
0
49
0
74
0
49
-3.175
74
0
0
LTYPE
5
3D
330
5
100
AcDbSymbolTableRecord
100
AcDbLinetypeTableRecord
2
DIVIDEX2
70
0
3
Divide (2x) ________  .  .  ________  .  .  _
72
65
73
6
40
63.5
49
25.4
74
0
49
-12.7
74
0
49
0
74
0
49
-12.7
74
0
49
0
74
0
49
-12.7
74
0
0
LTYPE
5
3E
330
5
100
AcDbSymbolTableRecord
100
AcDbLinetypeTableRecord
2
BORDER
70
0
3
Border __ __ . __ __ . __ __ . __ __ . __ __ .
72
65
73
6
40
44.45
49
12.7
74
0
49
-6.35
74
0
49
12.7
74
0
49
-6.35
74
0
49
0
74
0
49
-6.35
74
0
0
LTYPE
5
3F
330
5
100
AcDbSymbolTableRecord
100
AcDbLinetypeTableRecord
2
BORDER2
70
0
3
Border (.5x) __.__.__.__.__.__.__.__.__.__.__.
72
65
73
6
40
22.225
49
6.35
74
0
49
-3.175
74
0
49
6.35
74
0
49
-3.175
74
0
49
0
74
0
49
-3.175
74
0
0
LTYPE
5
40
330
5
100
AcDbSymbolTableRecord
100
AcDbLinetypeTableRecord
2
BORDERX2
70
0
3
Border (2x) ____  ____  .  ____  ____  .  ___
72
65
73
6
40
88.9
49
25.4
74
0
49
-12.7
74
0
49
25.4
74
0
49
-12.7
74
0
49
0
74
0
49
-12.7
74
0
0
LTYPE
5
41
330
5
100
AcDbSymbolTableRecord
100
AcDbLinetypeTableRecord
2
CENTER
70
0
3
Center ____ _ ____ _ ____ _ ____ _ ____ _ ____
72
65
73
4
40
50.8
49
31.75
74
0
49
-6.35
74
0
49
6.35
74
0
49
-6.35
74
0
0
LTYPE
5
42
330
5
100
AcDbSymbolTableRecord
100
AcDbLinetypeTableRecord
2
CENTER2
70
0
3
Center (.5x) ___ _ ___ _ ___ _ ___ _ ___ _ ___
72
65
73
4
40
28.575
49
19.05
74
0
49
-3.175
74
0
49
3.175
74
0
49
-3.175
74
0
0
LTYPE
5
43
330
5
100
AcDbSymbolTableRecord
100
AcDbLinetypeTableRecord
2
CENTERX2
70
0
3
Center (2x) ________  __  ________  __  _____
72
65
73
4
40
101.6
49
63.5
74
0
49
-12.7
74
0
49
12.7
74
0
49
-12.7
74
0
0
ENDTAB
0
TABLE
2
LAYER
5
2
330
0
100
AcDbSymbolTable
70
1
0
LAYER
5
10
330
2
100
AcDbSymbolTableRecord
100
AcDbLayerTableRecord
2
0
70
0
62
7
6
CONTINUOUS
370
0
390
F
0
ENDTAB
0
TABLE
2
STYLE
5
3
330
0
100
AcDbSymbolTable
70
3
0
STYLE
5
44
330
2
100
AcDbSymbolTableRecord
100
AcDbTextStyleTableRecord
2
Standard
70
0
40
0
41
1
50
0
71
0
42
1
3
txt
4

0
ENDTAB
0
TABLE
2
VIEW
5
6
330
0
100
AcDbSymbolTable
70
0
0
ENDTAB
0
TABLE
2
UCS
5
7
330
0
100
AcDbSymbolTable
70
0
0
ENDTAB
0
TABLE
2
APPID
5
9
330
0
100
AcDbSymbolTable
70
1
0
APPID
5
12
330
9
100
AcDbSymbolTableRecord
100
AcDbRegAppTableRecord
2
ACAD
70
0
0
ENDTAB
0
TABLE
2
DIMSTYLE
5
A
330
0
100
AcDbSymbolTable
70
1
100
AcDbDimStyleTable
71
1
0
DIMSTYLE
105
45
330
A
100
AcDbSymbolTableRecord
100
AcDbDimStyleTableRecord
2
Standard
70
0
40
1
41
0.1
42
0.025
43
0.38
44
0.05
45
0
46
0
47
0
48
0
140
0.1
141
0.09
142
0
143
25.4
144
1
145
0
146
1
147
0.025
148
0
71
0
72
0
73
0
74
1
75
0
76
0
77
0
78
0
79
0
170
0
171
2
172
0
173
0
174
0
175
0
176
0
177
0
178
0
179
0
271
4
272
4
273
2
274
2
275
0
276
0
277
2
278
46
279
0
280
0
281
0
282
0
283
1
284
0
285
0
286
0
288
0
289
3
340
Standard
341

371
-2
372
-2
0
ENDTAB
0
TABLE
2
BLOCK_RECORD
5
1
330
0
100
AcDbSymbolTable
70
2
0
BLOCK_RECORD
5
1F
330
1
100
AcDbSymbolTableRecord
100
AcDbBlockTableRecord
2
*Model_Space
70
0
280
1
281
0
0
BLOCK_RECORD
5
1E
330
1
100
AcDbSymbolTableRecord
100
AcDbBlockTableRecord
2
*Paper_Space
70
0
280
1
281
0
0
BLOCK_RECORD
5
46
330
1
100
AcDbSymbolTableRecord
100
AcDbBlockTableRecord
2
TopLayer2
70
0
280
1
281
0
0
ENDTAB
0
ENDSEC
0
SECTION
2
BLOCKS
0
BLOCK
5
20
330
1F
100
AcDbEntity
8
0
100
AcDbBlockBegin
2
*Model_Space
70
0
10
0
20
0
30
0
3
*Model_Space
1

0
ENDBLK
5
21
330
1F
100
AcDbEntity
8
0
100
AcDbBlockEnd
0
BLOCK
5
1C
330
1B
100
AcDbEntity
8
0
100
AcDbBlockBegin
2
*Paper_Space
70
0
10
0
20
0
30
0
3
*Paper_Space
1

0
ENDBLK
5
1D
330
1F
100
AcDbEntity
8
0
100
AcDbBlockEnd
0
BLOCK
5
47
330
46
100
AcDbEntity
8
0
100
AcDbBlockBegin
2
TopLayer2
70
0
10
0
20
0
3
TopLayer2
1

0
CIRCLE
5
49
100
AcDbEntity
8
0
6
CONTINUOUS
62
256
370
-1
100
AcDbCircle
10
-300
20
-100
40
153.9
0
CIRCLE
5
4A
100
AcDbEntity
8
0
6
CONTINUOUS
62
256
370
-1
100
AcDbCircle
10
-300
20
-100
40
112.8
0
ENDBLK
5
48
330
46
100
AcDbEntity
8
0
100
AcDbBlockEnd
0
ENDSEC
0
SECTION
2
ENTITIES
0
INSERT
5
4B
100
AcDbEntity
8
0
6
CONTINUOUS
62
256
370
-1
100
AcDbBlockReference
2
TopLayer2
10
300
20
100
30
0
41
1
42
1
43
0
50
0
70
1
71
1
44
0
45
0
0
ARC
5
4C
100
AcDbEntity
8
0
6
CONTINUOUS
62
256
370
-1
100
AcDbCircle
10
225.203171558
20
-293.737029651
40
112.8
100
AcDbArc
50
313.885436727
51
83.748006421
0
LINE
5
4D
100
AcDbEntity
8
0
6
CONTINUOUS
62
256
370
-1
100
AcDbLine
10
230.903171558
20
-181.081137661
11
230.903171558
21
-173.221750537
0
ARC
5
4E
100
AcDbEntity
8
0
6
CONTINUOUS
62
256
370
-1
100
AcDbCircle
10
225.203171558
20
-293.737029651
40
120.65
100
AcDbArc
50
87.2921048021
51
94.754379204
0
ARC
5
4F
100
AcDbEntity
8
0
6
CONTINUOUS
62
256
370
-1
100
AcDbCircle
10
225.203171558
20
-293.737029651
40
112.8
100
AcDbArc
50
83.748006421
51
87.1035009635
0
ARC
5
50
100
AcDbEntity
8
0
6
CONTINUOUS
62
256
370
-1
100
AcDbCircle
10
225.203171558
20
-293.737029651
40
112.8
100
AcDbArc
50
97.5219498005
51
304.160392057
0
ARC
5
51
100
AcDbEntity
8
0
6
CONTINUOUS
62
256
370
-1
100
AcDbCircle
10
225.203171558
20
-293.737029651
40
120.65
100
AcDbArc
50
304.873368375
51
312.380909034
0
LINE
5
52
100
AcDbEntity
8
0
6
CONTINUOUS
62
256
370
-1
100
AcDbLine
10
294.186570215
20
-392.720428308
11
288.541667842
21
-387.075525935
0
ARC
5
53
100
AcDbEntity
8
0
6
CONTINUOUS
62
256
370
-1
100
AcDbCircle
10
225.203171558
20
-293.737029651
40
112.8
100
AcDbArc
50
145.839607943
51
304.160392057
0
ARC
5
54
100
AcDbEntity
8
0
6
CONTINUOUS
62
256
370
-1
100
AcDbCircle
10
225.203171558
20
-293.737029651
40
112.8
100
AcDbArc
50
95.0860901258
51
264.913909874
0
ARC
5
55
100
AcDbEntity
8
0
6
CONTINUOUS
62
256
370
-1
100
AcDbCircle
10
225.203171558
20
-293.737029651
40
112.8
100
AcDbArc
50
95.0860901258
51
137.801499915
0
LINE
5
56
100
AcDbEntity
8
0
6
CONTINUOUS
62
256
370
-1
100
AcDbLine
10
215.203171558
20
-181.381166431
11
215.203171558
21
-173.502165739
0
LINE
5
57
100
AcDbEntity
8
0
6
CONTINUOUS
62
256
370
-1
100
AcDbLine
10
306.528063752
20
-382.858768916
11
300.971066464
21
-377.301771628
0
LINE
5
58
100
AcDbEntity
8
0
6
CONTINUOUS
62
256
370
-1
100
AcDbLine
10
303.398236216
20
-375.035073067
11
300.971066464
21
-377.301771628
0
LINE
5
59
100
AcDbEntity
8
0
6
CONTINUOUS
62
256
370
-1
100
AcDbLine
10
300.971066464
20
-377.301771628
11
301.049733028
21
-377.228306066
0
CIRCLE
5
5A
100
AcDbEntity
8
0
6
ByLayer
62
256
370
-1
100
AcDbCircle
10
-800
20
100
40
138.2
0
CIRCLE
5
5B
100
AcDbEntity
8
0
6
ByLayer
62
256
370
-1
100
AcDbCircle
10
-800
20
100
40
153.9
0
LINE
5
5C
100
AcDbEntity
8
0
6
ByLayer
62
256
370
-1
100
AcDbLine
10
-868.826172347
20
237.652344695
11
-861.000000001
21
222.000000002
0
LINE
5
5D
100
AcDbEntity
8
0
6
ByLayer
62
256
370
-1
100
AcDbLine
10
-935.058593754
20
100
11
-953.9
21
100
0
LINE
5
5E
100
AcDbEntity
8
0
6
ByLayer
62
256
370
-1
100
AcDbLine
10
-646.1
20
100
11
-666.015625003
21
100
0
LINE
5
5F
100
AcDbEntity
8
0
6
ByLayer
62
256
370
-1
100
AcDbLine
10
-740.64453125
20
218.710937499
11
-729.609375
21
240.78125
0
CIRCLE
5
60
100
AcDbEntity
8
0
6
ByLayer
62
256
370
-1
100
AcDbCircle
10
-479.857864974
20
347.382558883
40
138.2
0
CIRCLE
5
61
100
AcDbEntity
8
0
6
ByLayer
62
256
370
-1
100
AcDbCircle
10
-479.857864974
20
347.382558883
40
153.9
0
LINE
5
62
100
AcDbEntity
8
0
6
ByLayer
62
256
370
-1
100
AcDbLine
10
-548.684037322
20
485.034903578
11
-540.857864976
21
469.382558886
0
LINE
5
63
100
AcDbEntity
8
0
6
ByLayer
62
256
370
-1
100
AcDbLine
10
-614.916458729
20
347.382558883
11
-633.757864974
21
347.382558883
0
LINE
5
64
100
AcDbEntity
8
0
6
ByLayer
62
256
370
-1
100
AcDbLine
10
-325.957864974
20
347.382558883
11
-345.873489978
21
347.382558883
0
LINE
5
65
100
AcDbEntity
8
0
6
ByLayer
62
256
370
-1
100
AcDbLine
10
-420.502396225
20
466.093496383
11
-409.467239975
21
488.163808883
0
ARC
5
66
100
AcDbEntity
8
0
6
CONTINUOUS
62
256
370
-1
100
AcDbCircle
10
100
20
400
40
112.8
100
AcDbArc
50
313.885436727
51
83.748006421
0
LINE
5
67
100
AcDbEntity
8
0
6
CONTINUOUS
62
256
370
-1
100
AcDbLine
10
105.7
20
512.65589199
11
105.7
21
520.515279114
0
ARC
5
68
100
AcDbEntity
8
0
6
CONTINUOUS
62
256
370
-1
100
AcDbCircle
10
100
20
400
40
120.65
100
AcDbArc
50
87.2921048021
51
94.754379204
0
ARC
5
69
100
AcDbEntity
8
0
6
CONTINUOUS
62
256
370
-1
100
AcDbCircle
10
100
20
400
40
112.8
100
AcDbArc
50
83.748006421
51
87.1035009635
0
ARC
5
6A
100
AcDbEntity
8
0
6
CONTINUOUS
62
256
370
-1
100
AcDbCircle
10
100
20
400
40
112.8
100
AcDbArc
50
97.5219498005
51
304.160392057
0
ARC
5
6B
100
AcDbEntity
8
0
6
CONTINUOUS
62
256
370
-1
100
AcDbCircle
10
100
20
400
40
120.65
100
AcDbArc
50
304.873368375
51
312.380909034
0
LINE
5
6C
100
AcDbEntity
8
0
6
CONTINUOUS
62
256
370
-1
100
AcDbLine
10
168.983398657
20
301.016601343
11
163.338496284
21
306.661503716
0
ARC
5
6D
100
AcDbEntity
8
0
6
CONTINUOUS
62
256
370
-1
100
AcDbCircle
10
100
20
400
40
112.8
100
AcDbArc
50
145.839607943
51
304.160392057
0
ARC
5
6E
100
AcDbEntity
8
0
6
CONTINUOUS
62
256
370
-1
100
AcDbCircle
10
100
20
400
40
112.8
100
AcDbArc
50
95.0860901258
51
264.913909874
0
ARC
5
6F
100
AcDbEntity
8
0
6
CONTINUOUS
62
256
370
-1
100
AcDbCircle
10
100
20
400
40
112.8
100
AcDbArc
50
95.0860901258
51
137.801499915
0
LINE
5
70
100
AcDbEntity
8
0
6
CONTINUOUS
62
256
370
-1
100
AcDbLine
10
90
20
512.35586322
11
90
21
520.234863912
0
LINE
5
71
100
AcDbEntity
8
0
6
CONTINUOUS
62
256
370
-1
100
AcDbLine
10
181.324892194
20
310.878260735
11
175.767894906
21
316.435258023
0
LINE
5
72
100
AcDbEntity
8
0
6
CONTINUOUS
62
256
370
-1
100
AcDbLine
10
178.195064658
20
318.701956584
11
175.767894906
21
316.435258023
0
LINE
5
73
100
AcDbEntity
8
0
6
CONTINUOUS
62
256
370
-1
100
AcDbLine
10
175.767894906
20
316.435258023
11
175.84656147
21
316.508723585
0
CIRCLE
5
74
100
AcDbEntity
8
0
6
ByLayer
62
256
370
-1
100
AcDbCircle
10
100
20
400
40
140.5
0
ARC
5
75
100
AcDbEntity
8
0
6
CONTINUOUS
62
256
370
-1
100
AcDbCircle
10
400
20
400
40
112.8
100
AcDbArc
50
313.885436727
51
83.748006421
0
LINE
5
76
100
AcDbEntity
8
0
6
CONTINUOUS
62
256
370
-1
100
AcDbLine
10
405.7
20
512.65589199
11
405.7
21
520.515279114
0
ARC
5
77
100
AcDbEntity
8
0
6
CONTINUOUS
62
256
370
-1
100
AcDbCircle
10
400
20
400
40
120.65
100
AcDbArc
50
87.2921048021
51
94.754379204
0
ARC
5
78
100
AcDbEntity
8
0
6
CONTINUOUS
62
256
370
-1
100
AcDbCircle
10
400
20
400
40
112.8
100
AcDbArc
50
83.748006421
51
87.1035009635
0
ARC
5
79
100
AcDbEntity
8
0
6
CONTINUOUS
62
256
370
-1
100
AcDbCircle
10
400
20
400
40
112.8
100
AcDbArc
50
97.5219498005
51
304.160392057
0
ARC
5
7A
100
AcDbEntity
8
0
6
CONTINUOUS
62
256
370
-1
100
AcDbCircle
10
400
20
400
40
120.65
100
AcDbArc
50
304.873368375
51
312.380909034
0
LINE
5
7B
100
AcDbEntity
8
0
6
CONTINUOUS
62
256
370
-1
100
AcDbLine
10
468.983398657
20
301.016601343
11
463.338496284
21
306.661503716
0
ARC
5
7C
100
AcDbEntity
8
0
6
CONTINUOUS
62
256
370
-1
100
AcDbCircle
10
400
20
400
40
112.8
100
AcDbArc
50
145.839607943
51
304.160392057
0
ARC
5
7D
100
AcDbEntity
8
0
6
CONTINUOUS
62
256
370
-1
100
AcDbCircle
10
400
20
400
40
112.8
100
AcDbArc
50
95.0860901258
51
264.913909874
0
ARC
5
7E
100
AcDbEntity
8
0
6
CONTINUOUS
62
256
370
-1
100
AcDbCircle
10
400
20
400
40
112.8
100
AcDbArc
50
95.0860901258
51
137.801499915
0
LINE
5
7F
100
AcDbEntity
8
0
6
CONTINUOUS
62
256
370
-1
100
AcDbLine
10
390
20
512.35586322
11
390
21
520.234863912
0
LINE
5
80
100
AcDbEntity
8
0
6
CONTINUOUS
62
256
370
-1
100
AcDbLine
10
481.324892194
20
310.878260735
11
475.767894906
21
316.435258023
0
LINE
5
81
100
AcDbEntity
8
0
6
CONTINUOUS
62
256
370
-1
100
AcDbLine
10
478.195064658
20
318.701956584
11
475.767894906
21
316.435258023
0
LINE
5
82
100
AcDbEntity
8
0
6
CONTINUOUS
62
256
370
-1
100
AcDbLine
10
475.767894906
20
316.435258023
11
475.84656147
21
316.508723585
0
CIRCLE
5
83
100
AcDbEntity
8
0
6
ByLayer
62
256
370
-1
100
AcDbCircle
10
400
20
400
40
140.5
0
ARC
5
84
100
AcDbEntity
8
0
6
CONTINUOUS
62
256
370
-1
100
AcDbCircle
10
721.804935342
20
181.298043415
40
112.8
100
AcDbArc
50
313.885436727
51
83.748006421
0
LINE
5
85
100
AcDbEntity
8
0
6
CONTINUOUS
62
256
370
-1
100
AcDbLine
10
727.504935342
20
293.953935405
11
727.504935342
21
301.813322529
0
ARC
5
86
100
AcDbEntity
8
0
6
CONTINUOUS
62
256
370
-1
100
AcDbCircle
10
721.804935342
20
181.298043415
40
120.65
100
AcDbArc
50
87.2921048021
51
94.754379204
0
ARC
5
87
100
AcDbEntity
8
0
6
CONTINUOUS
62
256
370
-1
100
AcDbCircle
10
721.804935342
20
181.298043415
40
112.8
100
AcDbArc
50
83.748006421
51
87.1035009635
0
ARC
5
88
100
AcDbEntity
8
0
6
CONTINUOUS
62
256
370
-1
100
AcDbCircle
10
721.804935342
20
181.298043415
40
112.8
100
AcDbArc
50
97.5219498005
51
304.160392057
0
ARC
5
89
100
AcDbEntity
8
0
6
CONTINUOUS
62
256
370
-1
100
AcDbCircle
10
721.804935342
20
181.298043415
40
120.65
100
AcDbArc
50
304.873368375
51
312.380909034
0
LINE
5
8A
100
AcDbEntity
8
0
6
CONTINUOUS
62
256
370
-1
100
AcDbLine
10
790.788333999
20
82.3146447584
11
785.143431626
21
87.9595471314
0
ARC
5
8B
100
AcDbEntity
8
0
6
CONTINUOUS
62
256
370
-1
100
AcDbCircle
10
721.804935342
20
181.298043415
40
112.8
100
AcDbArc
50
145.839607943
51
304.160392057
0
ARC
5
8C
100
AcDbEntity
8
0
6
CONTINUOUS
62
256
370
-1
100
AcDbCircle
10
721.804935342
20
181.298043415
40
112.8
100
AcDbArc
50
95.0860901258
51
264.913909874
0
ARC
5
8D
100
AcDbEntity
8
0
6
CONTINUOUS
62
256
370
-1
100
AcDbCircle
10
721.804935342
20
181.298043415
40
112.8
100
AcDbArc
50
95.0860901258
51
137.801499915
0
LINE
5
8E
100
AcDbEntity
8
0
6
CONTINUOUS
62
256
370
-1
100
AcDbLine
10
711.804935342
20
293.653906635
11
711.804935342
21
301.532907327
0
LINE
5
8F
100
AcDbEntity
8
0
6
CONTINUOUS
62
256
370
-1
100
AcDbLine
10
803.129827536
20
92.1763041504
11
797.572830248
21
97.7333014384
0
LINE
5
90
100
AcDbEntity
8
0
6
CONTINUOUS
62
256
370
-1
100
AcDbLine
10
800
20
99.9999999994
11
797.572830248
21
97.7333014384
0
LINE
5
91
100
AcDbEntity
8
0
6
CONTINUOUS
62
256
370
-1
100
AcDbLine
10
797.572830248
20
97.7333014384
11
797.651496812
21
97.8067670004
0
CIRCLE
5
92
100
AcDbEntity
8
0
6
ByLayer
62
256
370
-1
100
AcDbCircle
10
722.408294681
20
180.006027223
40
76.2
0
ARC
5
93
100
AcDbEntity
8
0
6
CONTINUOUS
62
256
370
-1
100
AcDbCircle
10
882.737476237
20
404.219414876
40
112.8
100
AcDbArc
50
313.885436727
51
83.748006421
0
LINE
5
94
100
AcDbEntity
8
0
6
CONTINUOUS
62
256
370
-1
100
AcDbLine
10
888.437476237
20
516.875306866
11
888.437476237
21
524.73469399
0
ARC
5
95
100
AcDbEntity
8
0
6
CONTINUOUS
62
256
370
-1
100
AcDbCircle
10
882.737476237
20
404.219414876
40
120.65
100
AcDbArc
50
87.2921048021
51
94.754379204
0
ARC
5
96
100
AcDbEntity
8
0
6
CONTINUOUS
62
256
370
-1
100
AcDbCircle
10
882.737476237
20
404.219414876
40
112.8
100
AcDbArc
50
83.748006421
51
87.1035009635
0
ARC
5
97
100
AcDbEntity
8
0
6
CONTINUOUS
62
256
370
-1
100
AcDbCircle
10
882.737476237
20
404.219414876
40
112.8
100
AcDbArc
50
97.5219498005
51
304.160392057
0
ARC
5
98
100
AcDbEntity
8
0
6
CONTINUOUS
62
256
370
-1
100
AcDbCircle
10
882.737476237
20
404.219414876
40
120.65
100
AcDbArc
50
304.873368375
51
312.380909034
0
LINE
5
99
100
AcDbEntity
8
0
6
CONTINUOUS
62
256
370
-1
100
AcDbLine
10
951.720874894
20
305.236016219
11
946.075972521
21
310.880918592
0
ARC
5
9A
100
AcDbEntity
8
0
6
CONTINUOUS
62
256
370
-1
100
AcDbCircle
10
882.737476237
20
404.219414876
40
112.8
100
AcDbArc
50
145.839607943
51
304.160392057
0
ARC
5
9B
100
AcDbEntity
8
0
6
CONTINUOUS
62
256
370
-1
100
AcDbCircle
10
882.737476237
20
404.219414876
40
112.8
100
AcDbArc
50
95.0860901258
51
264.913909874
0
ARC
5
9C
100
AcDbEntity
8
0
6
CONTINUOUS
62
256
370
-1
100
AcDbCircle
10
882.737476237
20
404.219414876
40
112.8
100
AcDbArc
50
95.0860901258
51
137.801499915
0
LINE
5
9D
100
AcDbEntity
8
0
6
CONTINUOUS
62
256
370
-1
100
AcDbLine
10
872.737476237
20
516.575278096
11
872.737476237
21
524.454278788
0
LINE
5
9E
100
AcDbEntity
8
0
6
CONTINUOUS
62
256
370
-1
100
AcDbLine
10
964.062368431
20
315.097675611
11
958.505371143
21
320.654672899
0
LINE
5
9F
100
AcDbEntity
8
0
6
CONTINUOUS
62
256
370
-1
100
AcDbLine
10
960.932540895
20
322.92137146
11
958.505371143
21
320.654672899
0
LINE
5
A0
100
AcDbEntity
8
0
6
CONTINUOUS
62
256
370
-1
100
AcDbLine
10
958.505371143
20
320.654672899
11
958.584037707
21
320.728138461
0
CIRCLE
5
A1
100
AcDbEntity
8
0
6
ByLayer
62
256
370
-1
100
AcDbCircle
10
883.340835575
20
402.927398684
40
76.2
0
CIRCLE
5
A2
100
AcDbEntity
8
0
6
ByLayer
62
256
370
-1
100
AcDbCircle
10
-440.349415129
20
-97.6877683783
40
138.2
0
CIRCLE
5
A3
100
AcDbEntity
8
0
6
ByLayer
62
256
370
-1
100
AcDbCircle
10
-440.349415129
20
-97.6877683783
40
153.9
0
LINE
5
A4
100
AcDbEntity
8
0
6
ByLayer
62
256
370
-1
100
AcDbLine
10
-509.175587477
20
39.9645763166
11
-501.34941513
21
24.3122316242
0
LINE
5
A5
100
AcDbEntity
8
0
6
ByLayer
62
256
370
-1
100
AcDbLine
10
-575.408008884
20
-97.6877683783
11
-594.249415129
21
-97.6877683783
0
LINE
5
A6
100
AcDbEntity
8
0
6
ByLayer
62
256
370
-1
100
AcDbLine
10
-286.449415129
20
-97.6877683783
11
-306.365040132
21
-97.6877683783
0
LINE
5
A7
100
AcDbEntity
8
0
6
ByLayer
62
256
370
-1
100
AcDbLine
10
-380.99394638
20
21.0231691211
11
-369.958790129
21
43.0934816212
0
CIRCLE
5
A8
100
AcDbEntity
8
0
6
ByLayer
62
256
370
-1
100
AcDbCircle
10
-831.432136893
20
-265.944288207
40
138.2
0
CIRCLE
5
A9
100
AcDbEntity
8
0
6
ByLayer
62
256
370
-1
100
AcDbCircle
10
-831.432136893
20
-265.944288207
40
153.9
0
LINE
5
AA
100
AcDbEntity
8
0
6
ByLayer
62
256
370
-1
100
AcDbLine
10
-900.258309241
20
-128.291943512
11
-892.432136895
21
-143.944288205
0
LINE
5
AB
100
AcDbEntity
8
0
6
ByLayer
62
256
370
-1
100
AcDbLine
10
-966.490730648
20
-265.944288207
11
-985.332136893
21
-265.944288207
0
LINE
5
AC
100
AcDbEntity
8
0
6
ByLayer
62
256
370
-1
100
AcDbLine
10
-677.532136893
20
-265.944288207
11
-697.447761897
21
-265.944288207
0
LINE
5
AD
100
AcDbEntity
8
0
6
ByLayer
62
256
370
-1
100
AcDbLine
10
-772.076668144
20
-147.233350708
11
-761.041511894
21
-125.163038208
0
CIRCLE
5
AE
100
AcDbEntity
8
0
6
ByLayer
62
256
370
-1
100
AcDbCircle
10
-526.751411798
20
-488.770490142
40
138.2
0
CIRCLE
5
AF
100
AcDbEntity
8
0
6
ByLayer
62
256
370
-1
100
AcDbCircle
10
-526.751411798
20
-488.770490142
40
153.9
0
LINE
5
B0
100
AcDbEntity
8
0
6
ByLayer
62
256
370
-1
100
AcDbLine
10
-595.577584146
20
-351.118145448
11
-587.751411799
21
-366.77049014
0
LINE
5
B1
100
AcDbEntity
8
0
6
ByLayer
62
256
370
-1
100
AcDbLine
10
-661.810005552
20
-488.770490142
11
-680.651411798
21
-488.770490142
0
LINE
5
B2
100
AcDbEntity
8
0
6
ByLayer
62
256
370
-1
100
AcDbLine
10
-372.851411798
20
-488.770490142
11
-392.767036801
21
-488.770490142
0
LINE
5
B3
100
AcDbEntity
8
0
6
ByLayer
62
256
370
-1
100
AcDbLine
10
-467.395943048
20
-370.059552643
11
-456.360786798
21
-347.989240143
0
CIRCLE
5
B4
100
AcDbEntity
8
0
6
ByLayer
62
256
370
-1
100
AcDbCircle
10
800
20
-400
40
141.2
0
CIRCLE
5
B5
100
AcDbEntity
8
0
6
ByLayer
62
256
370
-1
100
AcDbCircle
10
800
20
-400
40
125.5
0
CIRCLE
5
B6
100
AcDbEntity
8
0
6
ByLayer
62
256
370
-1
100
AcDbCircle
10
1700
20
0
40
141.2
0
ARC
5
B7
100
AcDbEntity
8
0
6
ByLayer
62
256
370
-1
100
AcDbCircle
10
1700
20
0
40
133.35
100
AcDbArc
50
87.650116405
51
94.3006837071
0
LINE
5
B8
100
AcDbEntity
8
0
6
ByLayer
62
256
370
-1
100
AcDbLine
10
1690
20
125.100959229
11
1690
21
132.974518236
0
LINE
5
B9
100
AcDbEntity
8
0
6
ByLayer
62
256
370
-1
100
AcDbLine
10
1705.55634743
20
125.376939679
11
1705.46757787
21
133.237862833
0
ARC
5
BA
100
AcDbEntity
8
0
6
ByLayer
62
256
370
-1
100
AcDbCircle
10
1700
20
0
40
125.5
100
AcDbArc
50
94.5702456484
51
305.2494163
0
ARC
5
BB
100
AcDbEntity
8
0
6
ByLayer
62
256
370
-1
100
AcDbCircle
10
1700
20
0
40
125.5
100
AcDbArc
50
312.523496711
51
87.4624752704
0
LINE
5
BC
100
AcDbEntity
8
0
6
ByLayer
62
256
370
-1
100
AcDbLine
10
1772.43067724
20
-102.489253065
11
1778.03655554
21
-108.131949483
0
ARC
5
BD
100
AcDbEntity
8
0
6
ByLayer
62
256
370
-1
100
AcDbCircle
10
1700
20
0
40
133.35
100
AcDbArc
50
305.817192171
51
312.693385489
0
LINE
5
BE
100
AcDbEntity
8
0
6
ByLayer
62
256
370
-1
100
AcDbLine
10
1784.82450932
20
-92.4935274439
11
1790.42127767
21
-98.0113006001
0
CIRCLE
5
BF
100
AcDbEntity
8
0
6
ByLayer
62
256
370
-1
100
AcDbCircle
10
1300.98043084
20
-188.897596673
40
141.2
0
ARC
5
C0
100
AcDbEntity
8
0
6
ByLayer
62
256
370
-1
100
AcDbCircle
10
1300.98043084
20
-188.897596673
40
133.35
100
AcDbArc
50
87.650116405
51
94.3006837071
0
LINE
5
C1
100
AcDbEntity
8
0
6
ByLayer
62
256
370
-1
100
AcDbLine
10
1290.98043084
20
-63.7966374441
11
1290.98043084
21
-55.9230784374
0
LINE
5
C2
100
AcDbEntity
8
0
6
ByLayer
62
256
370
-1
100
AcDbLine
10
1306.53677827
20
-63.5206569942
11
1306.44800871
21
-55.6597338403
0
ARC
5
C3
100
AcDbEntity
8
0
6
ByLayer
62
256
370
-1
100
AcDbCircle
10
1300.98043084
20
-188.897596673
40
125.5
100
AcDbArc
50
94.5702456484
51
305.2494163
0
ARC
5
C4
100
AcDbEntity
8
0
6
ByLayer
62
256
370
-1
100
AcDbCircle
10
1300.98043084
20
-188.897596673
40
125.5
100
AcDbArc
50
312.523496711
51
87.4624752704
0
LINE
5
C5
100
AcDbEntity
8
0
6
ByLayer
62
256
370
-1
100
AcDbLine
10
1373.41110808
20
-291.386849738
11
1379.01698638
21
-297.029546156
0
ARC
5
C6
100
AcDbEntity
8
0
6
ByLayer
62
256
370
-1
100
AcDbCircle
10
1300.98043084
20
-188.897596673
40
133.35
100
AcDbArc
50
305.817192171
51
312.693385489
0
LINE
5
C7
100
AcDbEntity
8
0
6
ByLayer
62
256
370
-1
100
AcDbLine
10
1385.80494016
20
-281.391124117
11
1391.40170851
21
-286.908897273
0
CIRCLE
5
C8
100
AcDbEntity
8
0
6
ByLayer
62
256
370
-1
100
AcDbCircle
10
1668.41629036
20
-392.624409871
40
141.2
0
ARC
5
C9
100
AcDbEntity
8
0
6
ByLayer
62
256
370
-1
100
AcDbCircle
10
1668.41629036
20
-392.624409871
40
133.35
100
AcDbArc
50
87.650116405
51
94.3006837071
0
LINE
5
CA
100
AcDbEntity
8
0
6
ByLayer
62
256
370
-1
100
AcDbLine
10
1658.41629036
20
-267.523450642
11
1658.41629036
21
-259.649891636
0
LINE
5
CB
100
AcDbEntity
8
0
6
ByLayer
62
256
370
-1
100
AcDbLine
10
1673.97263779
20
-267.247470192
11
1673.88386823
21
-259.386547038
0
ARC
5
CC
100
AcDbEntity
8
0
6
ByLayer
62
256
370
-1
100
AcDbCircle
10
1668.41629036
20
-392.624409871
40
125.5
100
AcDbArc
50
94.5702456484
51
305.2494163
0
ARC
5
CD
100
AcDbEntity
8
0
6
ByLayer
62
256
370
-1
100
AcDbCircle
10
1668.41629036
20
-392.624409871
40
125.5
100
AcDbArc
50
312.523496711
51
87.4624752704
0
LINE
5
CE
100
AcDbEntity
8
0
6
ByLayer
62
256
370
-1
100
AcDbLine
10
1740.8469676
20
-495.113662936
11
1746.4528459
21
-500.756359354
0
ARC
5
CF
100
AcDbEntity
8
0
6
ByLayer
62
256
370
-1
100
AcDbCircle
10
1668.41629036
20
-392.624409871
40
133.35
100
AcDbArc
50
305.817192171
51
312.693385489
0
LINE
5
D0
100
AcDbEntity
8
0
6
ByLayer
62
256
370
-1
100
AcDbLine
10
1753.24079968
20
-485.117937315
11
1758.83756802
21
-490.635710471
0
CIRCLE
5
D1
100
AcDbEntity
8
0
6
ByLayer
62
256
370
-1
100
AcDbCircle
10
1700
20
600
40
77.7
0
CIRCLE
5
D2
100
AcDbEntity
8
0
6
ByLayer
62
256
370
-1
100
AcDbCircle
10
1700
20
600
40
100.6
0
CIRCLE
5
D3
100
AcDbEntity
8
0
6
ByLayer
62
256
370
-1
100
AcDbCircle
10
2000
20
600
40
77.7
0
CIRCLE
5
D4
100
AcDbEntity
8
0
6
ByLayer
62
256
370
-1
100
AcDbCircle
10
2000
20
600
40
100.6
0
CIRCLE
5
D5
100
AcDbEntity
8
0
6
ByLayer
62
256
370
-1
100
AcDbCircle
10
1400
20
600
40
77.7
0
CIRCLE
5
D6
100
AcDbEntity
8
0
6
ByLayer
62
256
370
-1
100
AcDbCircle
10
1400
20
600
40
100.6
0
ENDSEC
0
SECTION
2
OBJECTS
0
DICTIONARY
5
C
330
0
100
AcDbDictionary
281
1
3
ACAD_GROUP
350
D
0
DICTIONARY
5
D
330
C
100
AcDbDictionary
281
1
0
ENDSEC
0
EOF
