  0
SECTION
2
HEADER
9
$ACADVER
1
AC1009
  0
ENDSEC
  0
SECTION
2
TABLES
  0
TABLE
  2
LAYER
70
3
  0
LAYER
2
2DLINES_1
70
0
62
1
6
CONTINUOUS
  0
LAYER
2
2DLINES_2
70
0
62
2
6
CONTINUOUS
  0
LAYER
2
TEXT_1
70
0
62
3
6
CONTINUOUS
  0
ENDTAB
  0
ENDSEC
  0
SECTION
2
BLOCKS
  0
ENDSEC
  0
SECTION
2
ENTITIES
  0
POLYLINE
 5
1
  8
2DLINES_1
 66
1
 40
1.000000
 41
1.000000
  0
VERTEX
 5
2
  8
2DLINES_1
 10
5.08000
 20
43.18000
  0
VERTEX
 5
3
  8
2DLINES_1
 10
5.96900
 20
44.06900
  0
SEQEND
  8
2DLINES_1
  0
POLYLINE
 5
4
  8
2DLINES_1
 66
1
 70
1
 40
0.500000
 41
0.500000
  0
VERTEX
 5
5
  8
2DLINES_1
 10
4.83000
 20
43.18000
 42
1.0
  0
VERTEX
 5
6
  8
2DLINES_1
 10
5.33000
 20
43.18000
 42
1.0
  0
SEQEND
  8
2DLINES_1
  0
POLYLINE
 5
7
  8
2DLINES_1
 66
1
 70
1
 40
0.500000
 41
0.500000
  0
VERTEX
 5
8
  8
2DLINES_1
 10
5.71900
 20
44.06900
 42
1.0
  0
VERTEX
 5
9
  8
2DLINES_1
 10
6.21900
 20
44.06900
 42
1.0
  0
SEQEND
  8
2DLINES_1
  0
POLYLINE
 5
A
  8
2DLINES_1
 66
1
 40
1.000000
 41
1.000000
  0
VERTEX
 5
B
  8
2DLINES_1
 10
5.96900
 20
44.06900
  0
VERTEX
 5
C
  8
2DLINES_1
 10
76.20000
 20
44.06900
 42
-0.414214
  0
SEQEND
  8
2DLINES_1
  0
POLYLINE
 5
D
  8
2DLINES_1
 66
1
 70
1
 40
0.500000
 41
0.500000
  0
VERTEX
 5
E
  8
2DLINES_1
 10
5.71900
 20
44.06900
 42
1.0
  0
VERTEX
 5
F
  8
2DLINES_1
 10
6.21900
 20
44.06900
 42
1.0
  0
SEQEND
  8
2DLINES_1
  0
POLYLINE
 5
10
  8
2DLINES_1
 66
1
 70
1
 40
0.500000
 41
0.500000
  0
VERTEX
 5
11
  8
2DLINES_1
 10
75.95000
 20
44.06900
 42
1.0
  0
VERTEX
 5
12
  8
2DLINES_1
 10
76.45000
 20
44.06900
 42
1.0
  0
SEQEND
  8
2DLINES_1
  0
POLYLINE
 5
13
  8
2DLINES_1
 66
1
 40
1.000000
 41
1.000000
  0
VERTEX
 5
14
  8
2DLINES_1
 10
76.20000
 20
44.06900
 42
-0.414214
  0
VERTEX
 5
15
  8
2DLINES_1
 10
96.52000
 20
23.74900
 42
-0.414214
  0
SEQEND
  8
2DLINES_1
  0
POLYLINE
 5
16
  8
2DLINES_1
 66
1
 70
1
 40
0.500000
 41
0.500000
  0
VERTEX
 5
17
  8
2DLINES_1
 10
75.95000
 20
44.06900
 42
1.0
  0
VERTEX
 5
18
  8
2DLINES_1
 10
76.45000
 20
44.06900
 42
1.0
  0
SEQEND
  8
2DLINES_1
  0
POLYLINE
 5
19
  8
2DLINES_1
 66
1
 70
1
 40
0.500000
 41
0.500000
  0
VERTEX
 5
1A
  8
2DLINES_1
 10
96.27000
 20
23.74900
 42
1.0
  0
VERTEX
 5
1B
  8
2DLINES_1
 10
96.77000
 20
23.74900
 42
1.0
  0
SEQEND
  8
2DLINES_1
  0
POLYLINE
 5
1C
  8
2DLINES_1
 66
1
 40
1.000000
 41
1.000000
  0
VERTEX
 5
1D
  8
2DLINES_1
 10
96.52000
 20
23.74900
 42
-0.414214
  0
VERTEX
 5
1E
  8
2DLINES_1
 10
76.20000
 20
3.42900
  0
SEQEND
  8
2DLINES_1
  0
POLYLINE
 5
1F
  8
2DLINES_1
 66
1
 70
1
 40
0.500000
 41
0.500000
  0
VERTEX
 5
20
  8
2DLINES_1
 10
96.27000
 20
23.74900
 42
1.0
  0
VERTEX
 5
21
  8
2DLINES_1
 10
96.77000
 20
23.74900
 42
1.0
  0
SEQEND
  8
2DLINES_1
  0
POLYLINE
 5
22
  8
2DLINES_1
 66
1
 70
1
 40
0.500000
 41
0.500000
  0
VERTEX
 5
23
  8
2DLINES_1
 10
75.95000
 20
3.42900
 42
1.0
  0
VERTEX
 5
24
  8
2DLINES_1
 10
76.45000
 20
3.42900
 42
1.0
  0
SEQEND
  8
2DLINES_1
  0
POLYLINE
 5
25
  8
2DLINES_1
 66
1
 40
1.000000
 41
1.000000
  0
VERTEX
 5
26
  8
2DLINES_1
 10
76.20000
 20
3.42900
  0
VERTEX
 5
27
  8
2DLINES_1
 10
5.96900
 20
3.42900
  0
SEQEND
  8
2DLINES_1
  0
POLYLINE
 5
28
  8
2DLINES_1
 66
1
 70
1
 40
0.500000
 41
0.500000
  0
VERTEX
 5
29
  8
2DLINES_1
 10
75.95000
 20
3.42900
 42
1.0
  0
VERTEX
 5
2A
  8
2DLINES_1
 10
76.45000
 20
3.42900
 42
1.0
  0
SEQEND
  8
2DLINES_1
  0
POLYLINE
 5
2B
  8
2DLINES_1
 66
1
 70
1
 40
0.500000
 41
0.500000
  0
VERTEX
 5
2C
  8
2DLINES_1
 10
5.71900
 20
3.42900
 42
1.0
  0
VERTEX
 5
2D
  8
2DLINES_1
 10
6.21900
 20
3.42900
 42
1.0
  0
SEQEND
  8
2DLINES_1
  0
POLYLINE
 5
2E
  8
2DLINES_1
 66
1
 40
1.000000
 41
1.000000
  0
VERTEX
 5
2F
  8
2DLINES_1
 10
5.96900
 20
3.42900
  0
VERTEX
 5
30
  8
2DLINES_1
 10
5.08000
 20
4.31800
  0
SEQEND
  8
2DLINES_1
  0
POLYLINE
 5
31
  8
2DLINES_1
 66
1
 70
1
 40
0.500000
 41
0.500000
  0
VERTEX
 5
32
  8
2DLINES_1
 10
5.71900
 20
3.42900
 42
1.0
  0
VERTEX
 5
33
  8
2DLINES_1
 10
6.21900
 20
3.42900
 42
1.0
  0
SEQEND
  8
2DLINES_1
  0
POLYLINE
 5
34
  8
2DLINES_1
 66
1
 70
1
 40
0.500000
 41
0.500000
  0
VERTEX
 5
35
  8
2DLINES_1
 10
4.83000
 20
4.31800
 42
1.0
  0
VERTEX
 5
36
  8
2DLINES_1
 10
5.33000
 20
4.31800
 42
1.0
  0
SEQEND
  8
2DLINES_1
  0
POLYLINE
 5
37
  8
2DLINES_1
 66
1
 40
1.000000
 41
1.000000
  0
VERTEX
 5
38
  8
2DLINES_1
 10
5.08000
 20
4.31800
  0
VERTEX
 5
39
  8
2DLINES_1
 10
5.08000
 20
43.18000
  0
SEQEND
  8
2DLINES_1
  0
POLYLINE
 5
3A
  8
2DLINES_1
 66
1
 70
1
 40
0.500000
 41
0.500000
  0
VERTEX
 5
3B
  8
2DLINES_1
 10
4.83000
 20
4.31800
 42
1.0
  0
VERTEX
 5
3C
  8
2DLINES_1
 10
5.33000
 20
4.31800
 42
1.0
  0
SEQEND
  8
2DLINES_1
  0
POLYLINE
 5
3D
  8
2DLINES_1
 66
1
 70
1
 40
0.500000
 41
0.500000
  0
VERTEX
 5
3E
  8
2DLINES_1
 10
4.83000
 20
43.18000
 42
1.0
  0
VERTEX
 5
3F
  8
2DLINES_1
 10
5.33000
 20
43.18000
 42
1.0
  0
SEQEND
  8
2DLINES_1
  0
POLYLINE
 5
40
  8
2DLINES_1
 66
1
 40
1.000000
 41
1.000000
  0
VERTEX
 5
41
  8
2DLINES_1
 10
60.96000
 20
38.98900
 42
-1.000000
  0
VERTEX
 5
42
  8
2DLINES_1
 10
63.50000
 20
38.98900
  0
SEQEND
  8
2DLINES_1
  0
POLYLINE
 5
43
  8
2DLINES_1
 66
1
 70
1
 40
0.500000
 41
0.500000
  0
VERTEX
 5
44
  8
2DLINES_1
 10
60.71000
 20
38.98900
 42
1.0
  0
VERTEX
 5
45
  8
2DLINES_1
 10
61.21000
 20
38.98900
 42
1.0
  0
SEQEND
  8
2DLINES_1
  0
POLYLINE
 5
46
  8
2DLINES_1
 66
1
 70
1
 40
0.500000
 41
0.500000
  0
VERTEX
 5
47
  8
2DLINES_1
 10
63.25000
 20
38.98900
 42
1.0
  0
VERTEX
 5
48
  8
2DLINES_1
 10
63.75000
 20
38.98900
 42
1.0
  0
SEQEND
  8
2DLINES_1
  0
POLYLINE
 5
49
  8
2DLINES_1
 66
1
 40
1.000000
 41
1.000000
  0
VERTEX
 5
4A
  8
2DLINES_1
 10
63.50000
 20
38.98900
  0
VERTEX
 5
4B
  8
2DLINES_1
 10
63.50000
 20
8.50900
 42
-1.000000
  0
SEQEND
  8
2DLINES_1
  0
POLYLINE
 5
4C
  8
2DLINES_1
 66
1
 70
1
 40
0.500000
 41
0.500000
  0
VERTEX
 5
4D
  8
2DLINES_1
 10
63.25000
 20
38.98900
 42
1.0
  0
VERTEX
 5
4E
  8
2DLINES_1
 10
63.75000
 20
38.98900
 42
1.0
  0
SEQEND
  8
2DLINES_1
  0
POLYLINE
 5
4F
  8
2DLINES_1
 66
1
 70
1
 40
0.500000
 41
0.500000
  0
VERTEX
 5
50
  8
2DLINES_1
 10
63.25000
 20
8.50900
 42
1.0
  0
VERTEX
 5
51
  8
2DLINES_1
 10
63.75000
 20
8.50900
 42
1.0
  0
SEQEND
  8
2DLINES_1
  0
POLYLINE
 5
52
  8
2DLINES_1
 66
1
 40
1.000000
 41
1.000000
  0
VERTEX
 5
53
  8
2DLINES_1
 10
63.50000
 20
8.50900
 42
-1.000000
  0
VERTEX
 5
54
  8
2DLINES_1
 10
60.96000
 20
8.50900
  0
SEQEND
  8
2DLINES_1
  0
POLYLINE
 5
55
  8
2DLINES_1
 66
1
 70
1
 40
0.500000
 41
0.500000
  0
VERTEX
 5
56
  8
2DLINES_1
 10
63.25000
 20
8.50900
 42
1.0
  0
VERTEX
 5
57
  8
2DLINES_1
 10
63.75000
 20
8.50900
 42
1.0
  0
SEQEND
  8
2DLINES_1
  0
POLYLINE
 5
58
  8
2DLINES_1
 66
1
 70
1
 40
0.500000
 41
0.500000
  0
VERTEX
 5
59
  8
2DLINES_1
 10
60.71000
 20
8.50900
 42
1.0
  0
VERTEX
 5
5A
  8
2DLINES_1
 10
61.21000
 20
8.50900
 42
1.0
  0
SEQEND
  8
2DLINES_1
  0
POLYLINE
 5
5B
  8
2DLINES_1
 66
1
 40
1.000000
 41
1.000000
  0
VERTEX
 5
5C
  8
2DLINES_1
 10
60.96000
 20
8.50900
  0
VERTEX
 5
5D
  8
2DLINES_1
 10
60.96000
 20
38.98900
  0
SEQEND
  8
2DLINES_1
  0
POLYLINE
 5
5E
  8
2DLINES_1
 66
1
 70
1
 40
0.500000
 41
0.500000
  0
VERTEX
 5
5F
  8
2DLINES_1
 10
60.71000
 20
8.50900
 42
1.0
  0
VERTEX
 5
60
  8
2DLINES_1
 10
61.21000
 20
8.50900
 42
1.0
  0
SEQEND
  8
2DLINES_1
  0
POLYLINE
 5
61
  8
2DLINES_1
 66
1
 70
1
 40
0.500000
 41
0.500000
  0
VERTEX
 5
62
  8
2DLINES_1
 10
60.71000
 20
38.98900
 42
1.0
  0
VERTEX
 5
63
  8
2DLINES_1
 10
61.21000
 20
38.98900
 42
1.0
  0
SEQEND
  8
2DLINES_1
  0
POLYLINE
 5
64
  8
2DLINES_2
 66
1
 40
1.000000
 41
1.000000
  0
VERTEX
 5
65
  8
2DLINES_2
 10
10.00000
 20
10.00000
  0
VERTEX
 5
66
  8
2DLINES_2
 10
30.00000
 20
10.00000
  0
SEQEND
  8
2DLINES_2
  0
POLYLINE
 5
67
  8
2DLINES_2
 66
1
 70
1
 40
0.500000
 41
0.500000
  0
VERTEX
 5
68
  8
2DLINES_2
 10
9.75000
 20
10.00000
 42
1.0
  0
VERTEX
 5
69
  8
2DLINES_2
 10
10.25000
 20
10.00000
 42
1.0
  0
SEQEND
  8
2DLINES_2
  0
POLYLINE
 5
6A
  8
2DLINES_2
 66
1
 70
1
 40
0.500000
 41
0.500000
  0
VERTEX
 5
6B
  8
2DLINES_2
 10
29.75000
 20
10.00000
 42
1.0
  0
VERTEX
 5
6C
  8
2DLINES_2
 10
30.25000
 20
10.00000
 42
1.0
  0
SEQEND
  8
2DLINES_2
  0
POLYLINE
 5
6D
  8
2DLINES_2
 66
1
 40
1.000000
 41
1.000000
  0
VERTEX
 5
6E
  8
2DLINES_2
 10
30.00000
 20
10.00000
  0
VERTEX
 5
6F
  8
2DLINES_2
 10
30.00000
 20
30.00000
  0
SEQEND
  8
2DLINES_2
  0
POLYLINE
 5
70
  8
2DLINES_2
 66
1
 70
1
 40
0.500000
 41
0.500000
  0
VERTEX
 5
71
  8
2DLINES_2
 10
29.75000
 20
10.00000
 42
1.0
  0
VERTEX
 5
72
  8
2DLINES_2
 10
30.25000
 20
10.00000
 42
1.0
  0
SEQEND
  8
2DLINES_2
  0
POLYLINE
 5
73
  8
2DLINES_2
 66
1
 70
1
 40
0.500000
 41
0.500000
  0
VERTEX
 5
74
  8
2DLINES_2
 10
29.75000
 20
30.00000
 42
1.0
  0
VERTEX
 5
75
  8
2DLINES_2
 10
30.25000
 20
30.00000
 42
1.0
  0
SEQEND
  8
2DLINES_2
  0
POLYLINE
 5
76
  8
2DLINES_2
 66
1
 40
1.000000
 41
1.000000
  0
VERTEX
 5
77
  8
2DLINES_2
 10
30.00000
 20
30.00000
  0
VERTEX
 5
78
  8
2DLINES_2
 10
10.00000
 20
30.00000
  0
SEQEND
  8
2DLINES_2
  0
POLYLINE
 5
79
  8
2DLINES_2
 66
1
 70
1
 40
0.500000
 41
0.500000
  0
VERTEX
 5
7A
  8
2DLINES_2
 10
29.75000
 20
30.00000
 42
1.0
  0
VERTEX
 5
7B
  8
2DLINES_2
 10
30.25000
 20
30.00000
 42
1.0
  0
SEQEND
  8
2DLINES_2
  0
POLYLINE
 5
7C
  8
2DLINES_2
 66
1
 70
1
 40
0.500000
 41
0.500000
  0
VERTEX
 5
7D
  8
2DLINES_2
 10
9.75000
 20
30.00000
 42
1.0
  0
VERTEX
 5
7E
  8
2DLINES_2
 10
10.25000
 20
30.00000
 42
1.0
  0
SEQEND
  8
2DLINES_2
  0
POLYLINE
 5
7F
  8
2DLINES_2
 66
1
 40
1.000000
 41
1.000000
  0
VERTEX
 5
80
  8
2DLINES_2
 10
10.00000
 20
30.00000
  0
VERTEX
 5
81
  8
2DLINES_2
 10
10.00000
 20
10.00000
  0
SEQEND
  8
2DLINES_2
  0
POLYLINE
 5
82
  8
2DLINES_2
 66
1
 70
1
 40
0.500000
 41
0.500000
  0
VERTEX
 5
83
  8
2DLINES_2
 10
9.75000
 20
30.00000
 42
1.0
  0
VERTEX
 5
84
  8
2DLINES_2
 10
10.25000
 20
30.00000
 42
1.0
  0
SEQEND
  8
2DLINES_2
  0
POLYLINE
 5
85
  8
2DLINES_2
 66
1
 70
1
 40
0.500000
 41
0.500000
  0
VERTEX
 5
86
  8
2DLINES_2
 10
9.75000
 20
10.00000
 42
1.0
  0
VERTEX
 5
87
  8
2DLINES_2
 10
10.25000
 20
10.00000
 42
1.0
  0
SEQEND
  8
2DLINES_2
  0
POLYLINE
 5
88
  8
2DLINES_2
 66
1
 40
1.000000
 41
1.000000
  0
VERTEX
 5
89
  8
2DLINES_2
 10
10.00000
 20
20.00000
 42
1.000000
  0
VERTEX
 5
8A
  8
2DLINES_2
 10
30.00000
 20
20.00000
 42
1.000000
  0
VERTEX
 5
8B
  8
2DLINES_2
 10
10.00000
 20
20.00000
  0
SEQEND
  8
2DLINES_2
  0
TEXT
  8
TEXT_1
 10
20.00000
 20
20.00000
 40
1.814296
  1
Text
 73
 1
 11
20.00000
 21
20.00000
  0
ENDSEC
  0
EOF
