999
dxfrw 0.6.3
  0
SECTION
  2
HEADER
  9
$ACADVER
  1
AC1021
  9
$DWGCODEPAGE
  3
ANSI_1252
  9
$INSBASE
 10
0
 20
0
 30
0
  9
$EXTMIN
 10
0
 20
0
 30
0
  9
$EXTMAX
 10
51
 20
44
 30
0
  9
$LIMMIN
 10
0
 20
0
  9
$LIMMAX
 10
420
 20
297
  9
$ORTHOMODE
 70
    0
  9
$REGENMODE
 70
    1
  9
$FILLMODE
 70
    1
  9
$QTEXTMODE
 70
    0
  9
$MIRRTEXT
 70
    0
  9
$LTSCALE
 40
1
  9
$ATTMODE
 70
    0
  9
$TEXTSIZE
 40
2.5
  9
$TRACEWID
 40
15.68
  9
$TEXTSTYLE
  7
STANDARD
  9
$CLAYER
  8
0
  9
$CELTYPE
  6
BYLAYER
  9
$CECOLOR
 62
  256
  9
$CELTSCALE
 40
1
  9
$DISPSILH
 70
    0
  9
$DIMSCALE
 40
1
  9
$DIMASZ
 40
0.1
  9
$DIMEXO
 40
0.025
  9
$DIMDLI
 40
3.75
  9
$DIMRND
 40
0
  9
$DIMDLE
 40
0
  9
$DIMEXE
 40
0.05
  9
$DIMTP
 40
0
  9
$DIMTM
 40
0
  9
$DIMTXT
 40
0.1
  9
$DIMCEN
 40
2.5
  9
$DIMTSZ
 40
0
  9
$DIMTOL
 70
    0
  9
$DIMLIM
 70
    0
  9
$DIMTIH
 70
    0
  9
$DIMTOH
 70
    0
  9
$DIMSE1
 70
    0
  9
$DIMSE2
 70
    0
  9
$DIMTAD
 70
    1
  9
$DIMZIN
 70
    1
  9
$DIMBLK
  1

  9
$DIMASO
 70
    1
  9
$DIMSHO
 70
    1
  9
$DIMPOST
  1

  9
$DIMAPOST
  1

  9
$DIMALT
 70
    0
  9
$DIMALTD
 70
    3
  9
$DIMALTF
 40
0.03937
  9
$DIMLFAC
 40
1
  9
$DIMTOFL
 70
    1
  9
$DIMTVP
 40
0
  9
$DIMTIX
 70
    0
  9
$DIMSOXD
 70
    0
  9
$DIMSAH
 70
    0
  9
$DIMBLK1
  1

  9
$DIMBLK2
  1

  9
$DIMSTYLE
  2
STANDARD
  9
$DIMCLRD
 70
    0
  9
$DIMCLRE
 70
    0
  9
$DIMCLRT
 70
    0
  9
$DIMTFAC
 40
1
  9
$DIMGAP
 40
0.025
  9
$DIMJUST
 70
    0
  9
$DIMSD1
 70
    0
  9
$DIMSD2
 70
    0
  9
$DIMTOLJ
 70
    0
  9
$DIMTZIN
 70
    8
  9
$DIMALTZ
 70
    0
  9
$DIMALTTZ
 70
    0
  9
$DIMUPT
 70
    0
  9
$DIMDEC
 70
    4
  9
$DIMTDEC
 70
    2
  9
$DIMALTU
 70
    2
  9
$DIMALTTD
 70
    3
  9
$DIMTXSTY
  7
standard
  9
$DIMAUNIT
 70
    0
  9
$DIMADEC
 70
    2
  9
$DIMALTRND
 40
0
  9
$DIMAZIN
 70
    0
  9
$DIMDSEP
 70
    0
  9
$DIMATFIT
 70
    3
  9
$DIMFRAC
 70
    0
  9
$DIMLDRBLK
  1
STANDARD
  9
$DIMLUNIT
 70
    2
  9
$DIMLWD
 70
   -2
  9
$DIMLWE
 70
   -2
  9
$DIMTMOVE
 70
    0
  9
$DIMFXL
 40
0.04
  9
$DIMFXLON
 70
    0
  9
$DIMJOGANG
 40
0.7854
  9
$DIMTFILL
 70
    0
  9
$DIMTFILLCLR
 70
    0
  9
$DIMARCSYM
 70
    0
  9
$DIMLTYPE
  6

  9
$DIMLTEX1
  6

  9
$DIMLTEX2
  6

  9
$LUNITS
 70
    5
  9
$LUPREC
 70
    6
  9
$SKETCHINC
 40
1
  9
$FILLETRAD
 40
0
  9
$AUNITS
 70
    0
  9
$AUPREC
 70
    2
  9
$MENU
  1
.
  9
$ELEVATION
 40
0
  9
$PELEVATION
 40
0
  9
$THICKNESS
 40
0
  9
$LIMCHECK
 70
    0
  9
$CHAMFERA
 40
0
  9
$CHAMFERB
 40
0
  9
$CHAMFERC
 40
0
  9
$CHAMFERD
 40
0
  9
$SKPOLY
 70
    0
  9
$USRTIMER
 70
    1
  9
$ANGBASE
 50
0
  9
$ANGDIR
 70
    0
  9
$PDMODE
 70
   34
  9
$PDSIZE
 40
0
  9
$PLINEWID
 40
0
  9
$SPLFRAME
 70
    0
  9
$SPLINETYPE
 70
    2
  9
$SPLINESEGS
 70
    8
  9
$HANDSEED
  5
20000
  9
$SURFTAB1
 70
    6
  9
$SURFTAB2
 70
    6
  9
$SURFTYPE
 70
    6
  9
$SURFU
 70
    6
  9
$SURFV
 70
    6
  9
$UCSBASE
  2

  9
$UCSNAME
  2

  9
$UCSORG
 10
0
 20
0
 30
0
  9
$UCSXDIR
 10
1
 20
0
 30
0
  9
$UCSYDIR
 10
0
 20
1
 30
0
  9
$UCSORTHOREF
  2

  9
$UCSORTHOVIEW
 70
    0
  9
$UCSORGTOP
 10
0
 20
0
 30
0
  9
$UCSORGBOTTOM
 10
0
 20
0
 30
0
  9
$UCSORGLEFT
 10
0
 20
0
 30
0
  9
$UCSORGRIGHT
 10
0
 20
0
 30
0
  9
$UCSORGFRONT
 10
0
 20
0
 30
0
  9
$UCSORGBACK
 10
0
 20
0
 30
0
  9
$PUCSBASE
  2

  9
$PUCSNAME
  2

  9
$PUCSORG
 10
0
 20
0
 30
0
  9
$PUCSXDIR
 10
1
 20
0
 30
0
  9
$PUCSYDIR
 10
0
 20
1
 30
0
  9
$PUCSORTHOREF
  2

  9
$PUCSORTHOVIEW
 70
    0
  9
$PUCSORGTOP
 10
0
 20
0
 30
0
  9
$PUCSORGBOTTOM
 10
0
 20
0
 30
0
  9
$PUCSORGLEFT
 10
0
 20
0
 30
0
  9
$PUCSORGRIGHT
 10
0
 20
0
 30
0
  9
$PUCSORGFRONT
 10
0
 20
0
 30
0
  9
$PUCSORGBACK
 10
0
 20
0
 30
0
  9
$USERI1
 70
    0
  9
$USERI2
 70
    0
  9
$USERI3
 70
    0
  9
$USERI4
 70
    0
  9
$USERI5
 70
    0
  9
$USERR1
 40
0
  9
$USERR2
 40
0
  9
$USERR3
 40
0
  9
$USERR4
 40
0
  9
$USERR5
 40
0
  9
$WORLDVIEW
 70
    1
  9
$SHADEDGE
 70
    3
  9
$SHADEDIF
 70
   70
  9
$TILEMODE
 70
    1
  9
$MAXACTVP
 70
   64
  9
$PINSBASE
 10
0.4921259842519685
 20
3.363457408732998
 30
0
  9
$PLIMCHECK
 70
    0
  9
$PEXTMIN
 10
0
 20
0
 30
0
  9
$PEXTMAX
 10
0
 20
0
 30
0
  9
$GRIDMODE
 70
    1
  9
$SNAPSTYLE
 70
    0
  9
$GRIDUNIT
 10
0
 20
0
  9
$PLIMMIN
 10
0
 20
0
  9
$PLIMMAX
 10
8.267716535433072
 20
11.69291338582677
  9
$UNITMODE
 70
    0
  9
$VISRETAIN
 70
    1
  9
$PLINEGEN
 70
    0
  9
$PSLTSCALE
 70
    1
  9
$TREEDEPTH
 70
 3020
  9
$CMLSTYLE
  2
Standard
  9
$CMLJUST
 70
    0
  9
$CMLSCALE
 40
20
  9
$PROXYGRAPHICS
 70
    1
  9
$MEASUREMENT
 70
    1
  9
$CELWEIGHT
370
   -1
  9
$ENDCAPS
280
    0
  9
$JOINSTYLE
280
    0
  9
$LWDISPLAY
290
    0
  9
$INSUNITS
 70
    1
  9
$HYPERLINKBASE
  1

  9
$STYLESHEET
  1

  9
$XEDIT
290
    1
  9
$CEPSNTYPE
380
    0
  9
$PSTYLEMODE
290
    1
  9
$EXTNAMES
290
    1
  9
$PSVPSCALE
 40
0.1655333152350242
  9
$OLESTARTUP
290
    0
  9
$SORTENTS
280
  127
  9
$INDEXCTL
280
    0
  9
$HIDETEXT
280
    1
  9
$XCLIPFRAME
290
    0
  9
$HALOGAP
280
    0
  9
$OBSCOLOR
 70
  257
  9
$OBSLTYPE
280
    0
  9
$INTERSECTIONDISPLAY
280
    0
  9
$INTERSECTIONCOLOR
 70
  257
  9
$DIMASSOC
280
    1
  9
$PROJECTNAME
  1

  9
$CAMERADISPLAY
290
    0
  9
$LENSLENGTH
 40
50
  9
$CAMERAHEIGHT
 40
0
  9
$STEPSPERSEC
 40
2
  9
$STEPSIZE
 40
50
  9
$3DDWFPREC
 40
2
  9
$PSOLWIDTH
 40
5
  9
$PSOLHEIGHT
 40
80
  9
$LOFTANG1
 40
1.570796326794897
  9
$LOFTANG2
 40
1.570796326794897
  9
$LOFTMAG1
 40
0
  9
$LOFTMAG2
 40
0
  9
$LOFTPARAM
 70
    7
  9
$LOFTNORMALS
280
    1
  9
$LATITUDE
 40
1
  9
$LONGITUDE
 40
1
  9
$NORTHDIRECTION
 40
0
  9
$TIMEZONE
 70
-8000
  9
$LIGHTGLYPHDISPLAY
280
    1
  9
$TILEMODELIGHTSYNCH
280
    1
  9
$SOLIDHIST
280
    1
  9
$SHOWHIST
280
    1
  9
$DWFFRAME
280
    2
  9
$DGNFRAME
280
    0
  9
$REALWORLDSCALE
290
    1
  9
$INTERFERECOLOR
 62
    1
  9
$CSHADOW
280
    0
  9
$SHADOWPLANELOCATION
 40
0
  0
ENDSEC
  0
SECTION
  2
CLASSES
  0
ENDSEC
  0
SECTION
  2
TABLES
  0
TABLE
  2
VPORT
  5
8
330
0
100
AcDbSymbolTable
 70
    1
  0
VPORT
  5
31
330
2
100
AcDbSymbolTableRecord
100
AcDbViewportTableRecord
  2
*ACTIVE
 70
    0
 10
0
 20
0
 11
1
 21
1
 12
28.09255590944757
 22
15.702817364597
 13
0
 23
0
 14
10
 24
10
 15
10
 25
10
 16
0
 26
0
 36
1
 17
0
 27
0
 37
0
 40
37.71812810172863
 41
1.514553014553015
 42
50
 43
0
 44
0
 50
0
 51
0
 71
    0
 72
  100
 73
    1
 74
    3
 75
    0
 76
    1
 77
    0
 78
    0
281
    0
 65
    1
110
0
120
0
130
0
111
1
121
0
131
0
112
0
122
1
132
0
 79
    0
146
0
348
10020
 60
    7
 61
    5
292
1
282
    1
141
0
142
0
 63
  250
421
3358443
  0
ENDTAB
  0
TABLE
  2
LTYPE
  5
5
330
0
100
AcDbSymbolTable
 70
    4
  0
LTYPE
  5
14
330
5
100
AcDbSymbolTableRecord
100
AcDbLinetypeTableRecord
  2
ByBlock
 70
    0
  3

 72
   65
 73
    0
 40
0
  0
LTYPE
  5
15
330
5
100
AcDbSymbolTableRecord
100
AcDbLinetypeTableRecord
  2
ByLayer
 70
    0
  3

 72
   65
 73
    0
 40
0
  0
LTYPE
  5
16
330
5
100
AcDbSymbolTableRecord
100
AcDbLinetypeTableRecord
  2
Continuous
 70
    0
  3
Solid line
 72
   65
 73
    0
 40
0
  0
LTYPE
  5
32
330
5
100
AcDbSymbolTableRecord
100
AcDbLinetypeTableRecord
  2
DOT
 70
    0
  3
Dot . . . . . . . . . . . . . . . . . . . . . .
 72
   65
 73
    2
 40
6.35
 49
0
 74
    0
 49
-6.35
 74
    0
  0
LTYPE
  5
33
330
5
100
AcDbSymbolTableRecord
100
AcDbLinetypeTableRecord
  2
DOTTINY
 70
    0
  3
Dot (.15x) .....................................
 72
   65
 73
    2
 40
0.9525
 49
0
 74
    0
 49
-0.9525
 74
    0
  0
LTYPE
  5
34
330
5
100
AcDbSymbolTableRecord
100
AcDbLinetypeTableRecord
  2
DOT2
 70
    0
  3
Dot (.5x) .....................................
 72
   65
 73
    2
 40
3.175
 49
0
 74
    0
 49
-3.175
 74
    0
  0
LTYPE
  5
35
330
5
100
AcDbSymbolTableRecord
100
AcDbLinetypeTableRecord
  2
DOTX2
 70
    0
  3
Dot (2x) .  .  .  .  .  .  .  .  .  .  .  .  .
 72
   65
 73
    2
 40
12.7
 49
0
 74
    0
 49
-12.7
 74
    0
  0
LTYPE
  5
36
330
5
100
AcDbSymbolTableRecord
100
AcDbLinetypeTableRecord
  2
DASHED
 70
    0
  3
Dashed _ _ _ _ _ _ _ _ _ _ _ _ _ _ _ _ _
 72
   65
 73
    2
 40
19.05
 49
12.7
 74
    0
 49
-6.35
 74
    0
  0
LTYPE
  5
37
330
5
100
AcDbSymbolTableRecord
100
AcDbLinetypeTableRecord
  2
DASHEDTINY
 70
    0
  3
Dashed (.15x) _ _ _ _ _ _ _ _ _ _ _ _ _ _ _ _ _
 72
   65
 73
    2
 40
2.8575
 49
1.905
 74
    0
 49
-0.9525
 74
    0
  0
LTYPE
  5
38
330
5
100
AcDbSymbolTableRecord
100
AcDbLinetypeTableRecord
  2
DASHED2
 70
    0
  3
Dashed (.5x) _ _ _ _ _ _ _ _ _ _ _ _ _ _ _ _ _
 72
   65
 73
    2
 40
9.524999999999999
 49
6.35
 74
    0
 49
-3.175
 74
    0
  0
LTYPE
  5
39
330
5
100
AcDbSymbolTableRecord
100
AcDbLinetypeTableRecord
  2
DASHEDX2
 70
    0
  3
Dashed (2x) ____  ____  ____  ____  ____  ___
 72
   65
 73
    2
 40
38.09999999999999
 49
25.4
 74
    0
 49
-12.7
 74
    0
  0
LTYPE
  5
3A
330
5
100
AcDbSymbolTableRecord
100
AcDbLinetypeTableRecord
  2
DASHDOT
 70
    0
  3
Dash dot __ . __ . __ . __ . __ . __ . __ . __
 72
   65
 73
    4
 40
25.4
 49
12.7
 74
    0
 49
-6.35
 74
    0
 49
0
 74
    0
 49
-6.35
 74
    0
  0
LTYPE
  5
3B
330
5
100
AcDbSymbolTableRecord
100
AcDbLinetypeTableRecord
  2
DASHDOTTINY
 70
    0
  3
Dash dot (.15x) _._._._._._._._._._._._._._._.
 72
   65
 73
    4
 40
3.81
 49
1.905
 74
    0
 49
-0.9525
 74
    0
 49
0
 74
    0
 49
-0.9525
 74
    0
  0
LTYPE
  5
3C
330
5
100
AcDbSymbolTableRecord
100
AcDbLinetypeTableRecord
  2
DASHDOT2
 70
    0
  3
Dash dot (.5x) _._._._._._._._._._._._._._._.
 72
   65
 73
    4
 40
12.7
 49
6.35
 74
    0
 49
-3.175
 74
    0
 49
0
 74
    0
 49
-3.175
 74
    0
  0
LTYPE
  5
3D
330
5
100
AcDbSymbolTableRecord
100
AcDbLinetypeTableRecord
  2
DASHDOTX2
 70
    0
  3
Dash dot (2x) ____  .  ____  .  ____  .  ___
 72
   65
 73
    4
 40
50.8
 49
25.4
 74
    0
 49
-12.7
 74
    0
 49
0
 74
    0
 49
-12.7
 74
    0
  0
LTYPE
  5
3E
330
5
100
AcDbSymbolTableRecord
100
AcDbLinetypeTableRecord
  2
DIVIDE
 70
    0
  3
Divide ____ . . ____ . . ____ . . ____ . . ____
 72
   65
 73
    6
 40
31.75
 49
12.7
 74
    0
 49
-6.35
 74
    0
 49
0
 74
    0
 49
-6.35
 74
    0
 49
0
 74
    0
 49
-6.35
 74
    0
  0
LTYPE
  5
3F
330
5
100
AcDbSymbolTableRecord
100
AcDbLinetypeTableRecord
  2
DIVIDETINY
 70
    0
  3
Divide (.15x) __..__..__..__..__..__..__..__.._
 72
   65
 73
    6
 40
4.7625
 49
1.905
 74
    0
 49
-0.9525
 74
    0
 49
0
 74
    0
 49
-0.9525
 74
    0
 49
0
 74
    0
 49
-0.9525
 74
    0
  0
LTYPE
  5
40
330
5
100
AcDbSymbolTableRecord
100
AcDbLinetypeTableRecord
  2
DIVIDE2
 70
    0
  3
Divide (.5x) __..__..__..__..__..__..__..__.._
 72
   65
 73
    6
 40
15.875
 49
6.35
 74
    0
 49
-3.175
 74
    0
 49
0
 74
    0
 49
-3.175
 74
    0
 49
0
 74
    0
 49
-3.175
 74
    0
  0
LTYPE
  5
41
330
5
100
AcDbSymbolTableRecord
100
AcDbLinetypeTableRecord
  2
DIVIDEX2
 70
    0
  3
Divide (2x) ________  .  .  ________  .  .  _
 72
   65
 73
    6
 40
63.5
 49
25.4
 74
    0
 49
-12.7
 74
    0
 49
0
 74
    0
 49
-12.7
 74
    0
 49
0
 74
    0
 49
-12.7
 74
    0
  0
LTYPE
  5
42
330
5
100
AcDbSymbolTableRecord
100
AcDbLinetypeTableRecord
  2
BORDER
 70
    0
  3
Border __ __ . __ __ . __ __ . __ __ . __ __ .
 72
   65
 73
    6
 40
44.45
 49
12.7
 74
    0
 49
-6.35
 74
    0
 49
12.7
 74
    0
 49
-6.35
 74
    0
 49
0
 74
    0
 49
-6.35
 74
    0
  0
LTYPE
  5
43
330
5
100
AcDbSymbolTableRecord
100
AcDbLinetypeTableRecord
  2
BORDERTINY
 70
    0
  3
Border (.15x) __.__.__.__.__.__.__.__.__.__.__.
 72
   65
 73
    6
 40
6.6675
 49
1.905
 74
    0
 49
-0.9525
 74
    0
 49
1.905
 74
    0
 49
-0.9525
 74
    0
 49
0
 74
    0
 49
-0.9525
 74
    0
  0
LTYPE
  5
44
330
5
100
AcDbSymbolTableRecord
100
AcDbLinetypeTableRecord
  2
BORDER2
 70
    0
  3
Border (.5x) __.__.__.__.__.__.__.__.__.__.__.
 72
   65
 73
    6
 40
22.225
 49
6.35
 74
    0
 49
-3.175
 74
    0
 49
6.35
 74
    0
 49
-3.175
 74
    0
 49
0
 74
    0
 49
-3.175
 74
    0
  0
LTYPE
  5
45
330
5
100
AcDbSymbolTableRecord
100
AcDbLinetypeTableRecord
  2
BORDERX2
 70
    0
  3
Border (2x) ____  ____  .  ____  ____  .  ___
 72
   65
 73
    6
 40
88.89999999999999
 49
25.4
 74
    0
 49
-12.7
 74
    0
 49
25.4
 74
    0
 49
-12.7
 74
    0
 49
0
 74
    0
 49
-12.7
 74
    0
  0
LTYPE
  5
46
330
5
100
AcDbSymbolTableRecord
100
AcDbLinetypeTableRecord
  2
CENTER
 70
    0
  3
Center ____ _ ____ _ ____ _ ____ _ ____ _ ____
 72
   65
 73
    4
 40
50.8
 49
31.75
 74
    0
 49
-6.35
 74
    0
 49
6.35
 74
    0
 49
-6.35
 74
    0
  0
LTYPE
  5
47
330
5
100
AcDbSymbolTableRecord
100
AcDbLinetypeTableRecord
  2
CENTERTINY
 70
    0
  3
Center (.15x) ___ _ ___ _ ___ _ ___ _ ___ _ ___
 72
   65
 73
    4
 40
7.619999999999999
 49
4.7625
 74
    0
 49
-0.9525
 74
    0
 49
0.9525
 74
    0
 49
-0.9525
 74
    0
  0
LTYPE
  5
48
330
5
100
AcDbSymbolTableRecord
100
AcDbLinetypeTableRecord
  2
CENTER2
 70
    0
  3
Center (.5x) ___ _ ___ _ ___ _ ___ _ ___ _ ___
 72
   65
 73
    4
 40
28.575
 49
19.05
 74
    0
 49
-3.175
 74
    0
 49
3.175
 74
    0
 49
-3.175
 74
    0
  0
LTYPE
  5
49
330
5
100
AcDbSymbolTableRecord
100
AcDbLinetypeTableRecord
  2
CENTERX2
 70
    0
  3
Center (2x) ________  __  ________  __  _____
 72
   65
 73
    4
 40
101.6
 49
63.5
 74
    0
 49
-12.7
 74
    0
 49
12.7
 74
    0
 49
-12.7
 74
    0
  0
ENDTAB
  0
TABLE
  2
LAYER
  5
2
330
0
100
AcDbSymbolTable
 70
    1
  0
LAYER
  5
10
330
2
100
AcDbSymbolTableRecord
100
AcDbLayerTableRecord
  2
0
 70
    0
 62
    7
  6
CONTINUOUS
370
    0
390
F
  0
LAYER
  5
4A
330
2
100
AcDbSymbolTableRecord
100
AcDbLayerTableRecord
  2
Construction
 70
    1
 62
  136
420
32896
  6
DASHDOT
290
0
370
    0
390
F
  0
LAYER
  5
4B
330
2
100
AcDbSymbolTableRecord
100
AcDbLayerTableRecord
  2
Dashed-Hdden
 70
    0
 62
    7
  6
DASHEDTINY
370
    0
390
F
  0
LAYER
  5
4C
330
2
100
AcDbSymbolTableRecord
100
AcDbLayerTableRecord
  2
Dimensions
 70
    0
 62
    7
  6
CONTINUOUS
370
  100
390
F
  0
LAYER
  5
4D
330
2
100
AcDbSymbolTableRecord
100
AcDbLayerTableRecord
  2
Hatching
 70
    0
 62
    7
  6
CONTINUOUS
370
    0
390
F
  0
ENDTAB
  0
TABLE
  2
STYLE
  5
3
330
0
100
AcDbSymbolTable
 70
    3
  0
STYLE
  5
4E
330
2
100
AcDbSymbolTableRecord
100
AcDbTextStyleTableRecord
  2
romant
 70
    0
 40
0
 41
1
 50
0
 71
    0
 42
1
  3
romant
  4

  0
STYLE
  5
4F
330
2
100
AcDbSymbolTableRecord
100
AcDbTextStyleTableRecord
  2
Standard
 70
    0
 40
0
 41
1
 50
0
 71
    0
 42
1
  3
txt
  4

  0
ENDTAB
  0
TABLE
  2
VIEW
  5
6
330
0
100
AcDbSymbolTable
 70
    0
  0
ENDTAB
  0
TABLE
  2
UCS
  5
7
330
0
100
AcDbSymbolTable
 70
    0
  0
ENDTAB
  0
TABLE
  2
APPID
  5
9
330
0
100
AcDbSymbolTable
 70
    1
  0
APPID
  5
12
330
9
100
AcDbSymbolTableRecord
100
AcDbRegAppTableRecord
  2
ACAD
 70
    0
  0
APPID
  5
50
330
9
100
AcDbSymbolTableRecord
100
AcDbRegAppTableRecord
  2
LibreCad
 70
    0
  0
ENDTAB
  0
TABLE
  2
DIMSTYLE
  5
A
330
0
100
AcDbSymbolTable
 70
    1
100
AcDbDimStyleTable
 71
    1
  0
DIMSTYLE
105
51
330
A
100
AcDbSymbolTableRecord
100
AcDbDimStyleTableRecord
  2
Standard
 70
    0
 40
1
 41
0.1
 42
0.025
 43
0.38
 44
0.05
 45
0
 46
0
 47
0
 48
0
 49
0.04
140
0.1
141
0.09
142
0
143
25.4
144
1
145
0
146
1
147
0.025
148
0
 71
    0
 72
    0
 73
    0
 74
    1
 75
    0
 76
    0
 77
    0
 78
    1
 79
    0
170
    0
171
    2
172
    0
173
    0
174
    0
175
    0
176
    0
177
    0
178
    0
179
    2
271
    4
272
    4
273
    2
274
    2
275
    0
276
    0
277
    2
278
    0
279
    0
280
    0
281
    0
282
    0
283
    1
284
    0
285
    0
286
    0
288
    0
289
    3
340
standard
341

371
   -2
372
   -2
  0
ENDTAB
  0
TABLE
  2
BLOCK_RECORD
  5
1
330
0
100
AcDbSymbolTable
 70
    2
  0
BLOCK_RECORD
  5
1F
330
1
100
AcDbSymbolTableRecord
100
AcDbBlockTableRecord
  2
*Model_Space
 70
    0
280
    1
281
    0
  0
BLOCK_RECORD
  5
1E
330
1
100
AcDbSymbolTableRecord
100
AcDbBlockTableRecord
  2
*Paper_Space
 70
    0
280
    1
281
    0
  0
BLOCK_RECORD
  5
52
330
1
100
AcDbSymbolTableRecord
100
AcDbBlockTableRecord
  2
Neck Block Side
 70
    0
280
    1
281
    0
  0
BLOCK_RECORD
  5
55
330
1
100
AcDbSymbolTableRecord
100
AcDbBlockTableRecord
  2
Uke 4
 70
    0
280
    1
281
    0
  0
BLOCK_RECORD
  5
58
330
1
100
AcDbSymbolTableRecord
100
AcDbBlockTableRecord
  2
Test
 70
    0
280
    1
281
    0
  0
BLOCK_RECORD
  5
5B
330
1
100
AcDbSymbolTableRecord
100
AcDbBlockTableRecord
  2
Baritone Shape
 70
    0
280
    1
281
    0
  0
BLOCK_RECORD
  5
5E
330
1
100
AcDbSymbolTableRecord
100
AcDbBlockTableRecord
  2
Baritone Body as Polylilne
 70
    0
280
    1
281
    0
  0
BLOCK_RECORD
  5
61
330
1
100
AcDbSymbolTableRecord
100
AcDbBlockTableRecord
  2
Uke 4-0
 70
    0
280
    1
281
    0
  0
BLOCK_RECORD
  5
64
330
1
100
AcDbSymbolTableRecord
100
AcDbBlockTableRecord
  2
Test-0
 70
    0
280
    1
281
    0
  0
BLOCK_RECORD
  5
67
330
1
100
AcDbSymbolTableRecord
100
AcDbBlockTableRecord
  2
Baritone Shape-0
 70
    0
280
    1
281
    0
  0
BLOCK_RECORD
  5
6A
330
1
100
AcDbSymbolTableRecord
100
AcDbBlockTableRecord
  2
Baritone Body as Polylilne-0
 70
    0
280
    1
281
    0
  0
ENDTAB
  0
ENDSEC
  0
SECTION
  2
BLOCKS
  0
BLOCK
  5
20
330
1F
100
AcDbEntity
  8
0
100
AcDbBlockBegin
  2
*Model_Space
 70
    0
 10
0
 20
0
 30
0
  3
*Model_Space
  1

  0
ENDBLK
  5
21
330
1F
100
AcDbEntity
  8
0
100
AcDbBlockEnd
  0
BLOCK
  5
1C
330
1B
100
AcDbEntity
  8
0
100
AcDbBlockBegin
  2
*Paper_Space
 70
    0
 10
0
 20
0
 30
0
  3
*Paper_Space
  1

  0
ENDBLK
  5
1D
330
1F
100
AcDbEntity
  8
0
100
AcDbBlockEnd
  0
BLOCK
  5
53
330
52
100
AcDbEntity
  8
0
100
AcDbBlockBegin
  2
Neck Block Side
 70
    0
 10
0
 20
0
  3
Neck Block Side
  1

  0
LWPOLYLINE
  5
6D
100
AcDbEntity
  8
0
  6
ByLayer
 62
  256
370
   -1
100
AcDbPolyline
 90
    4
 70
    1
 43
0
 10
-1.375
 20
3.25
 10
-0.25
 20
3.25
 10
-0.25
 20
0.25
 10
-1.375
 20
0.25
  0
LWPOLYLINE
  5
6E
100
AcDbEntity
  8
0
  6
ByLayer
 62
  256
370
   -1
100
AcDbPolyline
 90
    4
 70
    1
 43
0
 10
-1.375
 20
3.25
 10
-1.375
 20
3.25
 10
-1.375
 20
3.25
 10
-1.375
 20
3.25
  0
LWPOLYLINE
  5
6F
100
AcDbEntity
  8
0
  6
ByLayer
 62
  256
370
   -1
100
AcDbPolyline
 90
    4
 70
    1
 43
0
 10
-1.375
 20
0.25
 10
-0.125
 20
0.25
 10
-0.125
 20
0.1875
 10
-1.375
 20
0.1875
  0
LWPOLYLINE
  5
70
100
AcDbEntity
  8
0
  6
ByLayer
 62
  256
370
   -1
100
AcDbPolyline
 90
    4
 70
    1
 43
0
 10
-0.125
 20
3.3125
 10
-1.375
 20
3.3125
 10
-1.375
 20
3.25
 10
-0.125
 20
3.25
  0
LWPOLYLINE
  5
71
100
AcDbEntity
  8
0
  6
DASHEDTINY
 62
  256
370
   -1
100
AcDbPolyline
 90
    4
 70
    1
 43
0
 10
-0.625
 20
0.625
 10
-1.375
 20
0.625
 10
-1.375
 20
3.3125
 10
-0.625
 20
3.3125
  0
LWPOLYLINE
  5
72
100
AcDbEntity
  8
0
  6
DASHEDTINY
 62
  256
370
   -1
100
AcDbPolyline
 90
    4
 70
    1
 43
0
 10
-0.625
 20
2.625
 10
-0.25
 20
2.625
 10
-0.25
 20
2.375
 10
-0.625
 20
2.375
  0
LWPOLYLINE
  5
73
100
AcDbEntity
  8
0
  6
DASHEDTINY
 62
  256
370
   -1
100
AcDbPolyline
 90
    4
 70
    1
 43
0
 10
-0.625
 20
1.75
 10
-0.25
 20
1.75
 10
-0.25
 20
1.5
 10
-0.625
 20
1.5
  0
ENDBLK
  5
54
330
52
100
AcDbEntity
  8
0
100
AcDbBlockEnd
  0
BLOCK
  5
56
330
55
100
AcDbEntity
  8
0
100
AcDbBlockBegin
  2
Uke 4
 70
    0
 10
0
 20
0
  3
Uke 4
  1

  0
SPLINE
  5
74
100
AcDbEntity
  8
0
  6
ByLayer
 62
    0
370
   35
100
AcDbSpline
210
0
220
0
230
0
 70
    8
 71
    3
 72
   21
 73
   17
 74
    0
 42
1e-07
 43
1e-07
 40
0
 40
1
 40
2
 40
3
 40
4
 40
5
 40
6
 40
7
 40
8
 40
9
 40
10
 40
11
 40
12
 40
13
 40
14
 40
15
 40
16
 40
17
 40
18
 40
19
 40
20
 10
-12
 20
-0.02857142857142857
 30
0
 10
-12
 20
-0.02857142857142857
 30
0
 10
-12
 20
-0.02857142857142857
 30
0
 10
-12
 20
-0.02857142857142857
 30
0
 10
-11.9875
 20
0.7625
 30
0
 10
-11.88571428571429
 20
2.257142857142857
 30
0
 10
-10.609375
 20
4.421875
 30
0
 10
-7.15625
 20
4.796875
 30
0
 10
-4.05
 20
1.9375
 30
0
 10
-2.4375
 20
3.09375
 30
0
 10
-0.859375
 20
3.21875
 30
0
 10
-0.1875
 20
2.1875
 30
0
 10
-0.015625
 20
1.4375
 30
0
 10
0
 20
0
 30
0
 10
0
 20
0
 30
0
 10
0
 20
0
 30
0
 10
0
 20
0
 30
0
  0
SPLINE
  5
75
100
AcDbEntity
  8
0
  6
ByLayer
 62
    0
370
   35
100
AcDbSpline
210
0
220
0
230
0
 70
    8
 71
    3
 72
   21
 73
   17
 74
    0
 42
1e-07
 43
1e-07
 40
0
 40
1
 40
2
 40
3
 40
4
 40
5
 40
6
 40
7
 40
8
 40
9
 40
10
 40
11
 40
12
 40
13
 40
14
 40
15
 40
16
 40
17
 40
18
 40
19
 40
20
 10
-12
 20
0.02857142857142857
 30
0
 10
-12
 20
0.02857142857142857
 30
0
 10
-12
 20
0.02857142857142857
 30
0
 10
-12
 20
0.02857142857142857
 30
0
 10
-11.9875
 20
-0.7625
 30
0
 10
-11.88571428571429
 20
-2.257142857142857
 30
0
 10
-10.609375
 20
-4.421875
 30
0
 10
-7.15625
 20
-4.796875
 30
0
 10
-4.05
 20
-1.9375
 30
0
 10
-2.4375
 20
-3.09375
 30
0
 10
-0.859375
 20
-3.21875
 30
0
 10
-0.1875
 20
-2.1875
 30
0
 10
-0.015625
 20
-1.4375
 30
0
 10
0
 20
0
 30
0
 10
0
 20
0
 30
0
 10
0
 20
0
 30
0
 10
0
 20
0
 30
0
  0
ELLIPSE
  5
76
100
AcDbEntity
  8
0
  6
ByLayer
 62
    0
370
   35
100
AcDbEllipse
 10
-3.63
 20
0
 30
0
 11
-2.415536032914639e-16
 21
-1.315
 31
0
 40
1
 41
1.570796326794897
 42
7.853981633974483
  0
ENDBLK
  5
57
330
55
100
AcDbEntity
  8
0
100
AcDbBlockEnd
  0
BLOCK
  5
59
330
58
100
AcDbEntity
  8
0
100
AcDbBlockBegin
  2
Test
 70
    0
 10
0
 20
0
  3
Test
  1

  0
SPLINE
  5
77
100
AcDbEntity
  8
0
  6
ByLayer
 62
    0
370
   35
100
AcDbSpline
210
0
220
0
230
0
 70
    8
 71
    3
 72
   22
 73
   18
 74
    0
 42
1e-07
 43
1e-07
 40
0
 40
1
 40
2
 40
3
 40
4
 40
5
 40
6
 40
7
 40
8
 40
9
 40
10
 40
11
 40
12
 40
13
 40
14
 40
15
 40
16
 40
17
 40
18
 40
19
 40
20
 40
21
 10
-14.015625
 20
0
 30
0
 10
-14.015625
 20
0
 30
0
 10
-14.015625
 20
0
 30
0
 10
-14.015625
 20
0
 30
0
 10
-14.03125
 20
0.546875
 30
0
 10
-13.765625
 20
3.265625
 30
0
 10
-10.765625
 20
5.578125
 30
0
 10
-7.078125
 20
4.203125
 30
0
 10
-4.984375
 20
2.828125
 30
0
 10
-3.640625
 20
2.625
 30
0
 10
-2.140625
 20
3.671875
 30
0
 10
-0.6875
 20
3.40625
 30
0
 10
-0.140625
 20
2.1875
 30
0
 10
-0.015625
 20
1.390625
 30
0
 10
0
 20
0
 30
0
 10
0
 20
0
 30
0
 10
0
 20
0
 30
0
 10
0
 20
0
 30
0
  0
SPLINE
  5
78
100
AcDbEntity
  8
0
  6
ByLayer
 62
    0
370
   35
100
AcDbSpline
210
0
220
0
230
0
 70
    8
 71
    3
 72
   22
 73
   18
 74
    0
 42
1e-07
 43
1e-07
 40
0
 40
1
 40
2
 40
3
 40
4
 40
5
 40
6
 40
7
 40
8
 40
9
 40
10
 40
11
 40
12
 40
13
 40
14
 40
15
 40
16
 40
17
 40
18
 40
19
 40
20
 40
21
 10
-14.015625
 20
0
 30
0
 10
-14.015625
 20
0
 30
0
 10
-14.015625
 20
0
 30
0
 10
-14.015625
 20
0
 30
0
 10
-14.03125
 20
-0.546875
 30
0
 10
-13.765625
 20
-3.265625
 30
0
 10
-10.765625
 20
-5.578125
 30
0
 10
-7.078125
 20
-4.203125
 30
0
 10
-4.984375
 20
-2.828125
 30
0
 10
-3.640625
 20
-2.625
 30
0
 10
-2.140625
 20
-3.671875
 30
0
 10
-0.6875
 20
-3.40625
 30
0
 10
-0.140625
 20
-2.1875
 30
0
 10
-0.015625
 20
-1.390625
 30
0
 10
0
 20
0
 30
0
 10
0
 20
0
 30
0
 10
0
 20
0
 30
0
 10
0
 20
0
 30
0
  0
ELLIPSE
  5
79
100
AcDbEntity
  8
0
  6
ByLayer
 62
    0
370
   35
100
AcDbEllipse
 10
-4.13
 20
0
 30
0
 11
1.405
 21
0
 31
0
 40
1
 41
6.283185307179586
 42
12.56637061435917
  0
ENDBLK
  5
5A
330
58
100
AcDbEntity
  8
0
100
AcDbBlockEnd
  0
BLOCK
  5
5C
330
5B
100
AcDbEntity
  8
0
100
AcDbBlockBegin
  2
Baritone Shape
 70
    0
 10
0
 20
0
  3
Baritone Shape
  1

  0
ELLIPSE
  5
7A
100
AcDbEntity
  8
0
  6
ByLayer
 62
  256
370
   -1
100
AcDbEllipse
 10
9.896989214175635
 20
0.113528505392904
 30
0
 11
1.405
 21
0
 31
0
 40
1
 41
0
 42
6.283185307179586
  0
LINE
  5
7B
100
AcDbEntity
  8
0
  6
ByLayer
 62
  256
370
   -1
100
AcDbLine
 10
0.01136421417563405
 20
0.113528505392904
 11
0.01136421417563405
 21
0.113528505392904
  0
LINE
  5
7C
100
AcDbEntity
  8
0
  6
ByLayer
 62
  256
370
   -1
100
AcDbLine
 10
0.01136421417563405
 20
0.113528505392904
 11
0.01136421417563405
 21
0.113528505392904
  0
LINE
  5
7D
100
AcDbEntity
  8
0
  6
ByLayer
 62
  256
370
   -1
100
AcDbLine
 10
0.01136421417563405
 20
0.113528505392904
 11
0.01136421417563405
 21
0.113528505392904
  0
LINE
  5
7E
100
AcDbEntity
  8
0
  6
ByLayer
 62
  256
370
   -1
100
AcDbLine
 10
0.01136421417563405
 20
0.113528505392904
 11
0.01136421417563405
 21
0.113528505392904
  0
LINE
  5
7F
100
AcDbEntity
  8
0
  6
ByLayer
 62
  256
370
   -1
100
AcDbLine
 10
0.01136421417563405
 20
0.113528505392904
 11
0.01136421417563405
 21
0.113528505392904
  0
LINE
  5
80
100
AcDbEntity
  8
0
  6
ByLayer
 62
  256
370
   -1
100
AcDbLine
 10
0.01136421417563405
 20
0.113528505392904
 11
0.01136421417563582
 21
0.113528505392904
  0
LINE
  5
81
100
AcDbEntity
  8
0
  6
ByLayer
 62
  256
370
   -1
100
AcDbLine
 10
0.01136421417563582
 20
0.113528505392904
 11
0.01136421417563582
 21
0.113528505392904
  0
LINE
  5
82
100
AcDbEntity
  8
0
  6
ByLayer
 62
  256
370
   -1
100
AcDbLine
 10
0.01136421417563582
 20
0.113528505392904
 11
0.01136421417563405
 21
0.113528505392904
  0
LINE
  5
83
100
AcDbEntity
  8
0
  6
ByLayer
 62
  256
370
   -1
100
AcDbLine
 10
0.01136421417563405
 20
0.113528505392904
 11
0.01136421417563405
 21
0.113528505392904
  0
LINE
  5
84
100
AcDbEntity
  8
0
  6
ByLayer
 62
  256
370
   -1
100
AcDbLine
 10
0.01136421417563405
 20
0.113528505392904
 11
0.01136421417563227
 21
0.113528505392904
  0
LINE
  5
85
100
AcDbEntity
  8
0
  6
ByLayer
 62
  256
370
   -1
100
AcDbLine
 10
0.01136421417563227
 20
0.113528505392904
 11
0.01136421417563405
 21
0.113528505392904
  0
LINE
  5
86
100
AcDbEntity
  8
0
  6
ByLayer
 62
  256
370
   -1
100
AcDbLine
 10
0.01136421417563405
 20
0.113528505392904
 11
0.01136421417563405
 21
0.113528505392904
  0
LINE
  5
87
100
AcDbEntity
  8
0
  6
ByLayer
 62
  256
370
   -1
100
AcDbLine
 10
0.01136421417563405
 20
0.113528505392904
 11
0.01136421417563405
 21
0.1135285053929032
  0
LINE
  5
88
100
AcDbEntity
  8
0
  6
ByLayer
 62
  256
370
   -1
100
AcDbLine
 10
0.01136421417563405
 20
0.1135285053929032
 11
0.01136421417563582
 21
0.1135285053929049
  0
LINE
  5
89
100
AcDbEntity
  8
0
  6
ByLayer
 62
  256
370
   -1
100
AcDbLine
 10
0.01136421417563582
 20
0.1135285053929049
 11
0.01136421417563582
 21
0.1135285053929049
  0
LINE
  5
8A
100
AcDbEntity
  8
0
  6
ByLayer
 62
  256
370
   -1
100
AcDbLine
 10
0.01136421417563582
 20
0.1135285053929049
 11
0.01136421417563405
 21
0.113528505392904
  0
LINE
  5
8B
100
AcDbEntity
  8
0
  6
ByLayer
 62
  256
370
   -1
100
AcDbLine
 10
0.01136421417563405
 20
0.113528505392904
 11
0.01136421417563582
 21
0.1135285053929049
  0
LINE
  5
8C
100
AcDbEntity
  8
0
  6
ByLayer
 62
  256
370
   -1
100
AcDbLine
 10
0.01136421417563582
 20
0.1135285053929049
 11
0.01136421417563405
 21
0.113528505392904
  0
LINE
  5
8D
100
AcDbEntity
  8
0
  6
ByLayer
 62
  256
370
   -1
100
AcDbLine
 10
0.01136421417563405
 20
0.113528505392904
 11
0.01136421417563405
 21
0.1135285053929049
  0
LINE
  5
8E
100
AcDbEntity
  8
0
  6
ByLayer
 62
  256
370
   -1
100
AcDbLine
 10
0.01136421417563405
 20
0.1135285053929049
 11
0.01136421417563227
 21
0.113528505392904
  0
LINE
  5
8F
100
AcDbEntity
  8
0
  6
ByLayer
 62
  256
370
   -1
100
AcDbLine
 10
0.01136421417563227
 20
0.113528505392904
 11
0.01136421417563582
 21
0.1135285053929058
  0
LINE
  5
90
100
AcDbEntity
  8
0
  6
ByLayer
 62
  256
370
   -1
100
AcDbLine
 10
0.01136421417563582
 20
0.1135285053929058
 11
0.01136421417563582
 21
0.113528505392904
  0
LINE
  5
91
100
AcDbEntity
  8
0
  6
ByLayer
 62
  256
370
   -1
100
AcDbLine
 10
0.01136421417563582
 20
0.113528505392904
 11
0.01136421417563405
 21
0.113528505392904
  0
LINE
  5
92
100
AcDbEntity
  8
0
  6
ByLayer
 62
  256
370
   -1
100
AcDbLine
 10
0.01136421417563405
 20
0.113528505392904
 11
0.01136421417563582
 21
0.1135285053929032
  0
LINE
  5
93
100
AcDbEntity
  8
0
  6
ByLayer
 62
  256
370
   -1
100
AcDbLine
 10
0.01136421417563582
 20
0.1135285053929032
 11
0.01136421417563582
 21
0.1135285053929049
  0
LINE
  5
94
100
AcDbEntity
  8
0
  6
ByLayer
 62
  256
370
   -1
100
AcDbLine
 10
0.01136421417563582
 20
0.1135285053929049
 11
0.01136421417563405
 21
0.113528505392904
  0
LINE
  5
95
100
AcDbEntity
  8
0
  6
ByLayer
 62
  256
370
   -1
100
AcDbLine
 10
0.01136421417563405
 20
0.113528505392904
 11
0.01136056646305228
 21
0.1136561753332783
  0
LINE
  5
96
100
AcDbEntity
  8
0
  6
ByLayer
 62
  256
370
   -1
100
AcDbLine
 10
0.01136056646305228
 20
0.1136561753332783
 11
0.01131910490184929
 21
0.1151073299753742
  0
LINE
  5
97
100
AcDbEntity
  8
0
  6
ByLayer
 62
  256
370
   -1
100
AcDbLine
 10
0.01131910490184929
 20
0.1151073299753742
 11
0.01119045624171555
 21
0.1196100330800114
  0
LINE
  5
98
100
AcDbEntity
  8
0
  6
ByLayer
 62
  256
370
   -1
100
AcDbLine
 10
0.01119045624171555
 20
0.1196100330800114
 11
0.01092513591299138
 21
0.1288962445853867
  0
LINE
  5
99
100
AcDbEntity
  8
0
  6
ByLayer
 62
  256
370
   -1
100
AcDbLine
 10
0.01092513591299138
 20
0.1288962445853867
 11
0.01047365934600997
 21
0.1446979244296989
  0
LINE
  5
9A
100
AcDbEntity
  8
0
  6
ByLayer
 62
  256
370
   -1
100
AcDbLine
 10
0.01047365934600997
 20
0.1446979244296989
 11
0.009786541971111617
 21
0.1687470325511491
  0
LINE
  5
9B
100
AcDbEntity
  8
0
  6
ByLayer
 62
  256
370
   -1
100
AcDbLine
 10
0.009786541971111617
 20
0.1687470325511491
 11
0.008814299218634858
 21
0.2027755288879343
  0
LINE
  5
9C
100
AcDbEntity
  8
0
  6
ByLayer
 62
  256
370
   -1
100
AcDbLine
 10
0.008814299218634858
 20
0.2027755288879343
 11
0.007649935291651033
 21
0.2490069596442028
  0
LINE
  5
9D
100
AcDbEntity
  8
0
  6
ByLayer
 62
  256
370
   -1
100
AcDbLine
 10
0.007649935291651033
 20
0.2490069596442028
 11
0.007044057890528421
 21
0.3119336030897593
  0
LINE
  5
9E
100
AcDbEntity
  8
0
  6
ByLayer
 62
  256
370
   -1
100
AcDbLine
 10
0.007044057890528421
 20
0.3119336030897593
 11
0.007936856027766837
 21
0.3967017930212497
  0
LINE
  5
9F
100
AcDbEntity
  8
0
  6
ByLayer
 62
  256
370
   -1
100
AcDbLine
 10
0.007936856027766837
 20
0.3967017930212497
 11
0.01126853652695736
 21
0.5084579246836114
  0
LINE
  5
A0
100
AcDbEntity
  8
0
  6
ByLayer
 62
  256
370
   -1
100
AcDbLine
 10
0.01126853652695736
 20
0.5084579246836114
 11
0.01797930621169641
 21
0.6523483933217733
  0
LINE
  5
A1
100
AcDbEntity
  8
0
  6
ByLayer
 62
  256
370
   -1
100
AcDbLine
 10
0.01797930621169641
 20
0.6523483933217733
 11
0.02900937190557507
 21
0.8335195941806717
  0
LINE
  5
A2
100
AcDbEntity
  8
0
  6
ByLayer
 62
  256
370
   -1
100
AcDbLine
 10
0.02900937190557507
 20
0.8335195941806717
 11
0.04530225863948267
 21
1.05711145440551
  0
LINE
  5
A3
100
AcDbEntity
  8
0
  6
ByLayer
 62
  256
370
   -1
100
AcDbLine
 10
0.04530225863948267
 20
1.05711145440551
 11
0.06948714075025819
 21
1.324978106479901
  0
LINE
  5
A4
100
AcDbEntity
  8
0
  6
ByLayer
 62
  256
370
   -1
100
AcDbLine
 10
0.06948714075025819
 20
1.324978106479901
 11
0.1086163628992018
 21
1.630351705950627
  0
LINE
  5
A5
100
AcDbEntity
  8
0
  6
ByLayer
 62
  256
370
   -1
100
AcDbLine
 10
0.1086163628992018
 20
1.630351705950627
 11
0.1704590025233799
 21
1.965067298823326
  0
LINE
  5
A6
100
AcDbEntity
  8
0
  6
ByLayer
 62
  256
370
   -1
100
AcDbLine
 10
0.1704590025233799
 20
1.965067298823326
 11
0.2627841370598496
 21
2.320959931103631
  0
LINE
  5
A7
100
AcDbEntity
  8
0
  6
ByLayer
 62
  256
370
   -1
100
AcDbLine
 10
0.2627841370598496
 20
2.320959931103631
 11
0.3933608439456808
 21
2.689864648797179
  0
LINE
  5
A8
100
AcDbEntity
  8
0
  6
ByLayer
 62
  256
370
   -1
100
AcDbLine
 10
0.3933608439456808
 20
2.689864648797179
 11
0.5699582006179309
 21
3.063616497909604
  0
LINE
  5
A9
100
AcDbEntity
  8
0
  6
ByLayer
 62
  256
370
   -1
100
AcDbLine
 10
0.5699582006179309
 20
3.063616497909604
 11
0.8002573119453782
 21
3.434036778732747
  0
LINE
  5
AA
100
AcDbEntity
  8
0
  6
ByLayer
 62
  256
370
   -1
100
AcDbLine
 10
0.8002573119453782
 20
3.434036778732747
 11
1.086660928699418
 21
3.792122048730733
  0
LINE
  5
AB
100
AcDbEntity
  8
0
  6
ByLayer
 62
  256
370
   -1
100
AcDbLine
 10
1.086660928699418
 20
3.792122048730733
 11
1.423390352800551
 21
4.127590513984734
  0
LINE
  5
AC
100
AcDbEntity
  8
0
  6
ByLayer
 62
  256
370
   -1
100
AcDbLine
 10
1.423390352800551
 20
4.127590513984734
 11
1.803963105622936
 21
4.430050414865554
  0
LINE
  5
AD
100
AcDbEntity
  8
0
  6
ByLayer
 62
  256
370
   -1
100
AcDbLine
 10
1.803963105622936
 20
4.430050414865554
 11
2.221896708540752
 21
4.689109991744007
  0
LINE
  5
AE
100
AcDbEntity
  8
0
  6
ByLayer
 62
  256
370
   -1
100
AcDbLine
 10
2.221896708540752
 20
4.689109991744007
 11
2.670708682928163
 21
4.894377484990897
  0
LINE
  5
AF
100
AcDbEntity
  8
0
  6
ByLayer
 62
  256
370
   -1
100
AcDbLine
 10
2.670708682928163
 20
4.894377484990897
 11
3.143916550159345
 21
5.035461134977033
  0
LINE
  5
B0
100
AcDbEntity
  8
0
  6
ByLayer
 62
  256
370
   -1
100
AcDbLine
 10
3.143916550159345
 20
5.035461134977033
 11
3.6350200516813
 21
5.102497838574515
  0
LINE
  5
B1
100
AcDbEntity
  8
0
  6
ByLayer
 62
  256
370
   -1
100
AcDbLine
 10
3.6350200516813
 20
5.102497838574515
 11
4.137152323139853
 21
5.096524905143332
  0
LINE
  5
B2
100
AcDbEntity
  8
0
  6
ByLayer
 62
  256
370
   -1
100
AcDbLine
 10
4.137152323139853
 20
5.096524905143332
 11
4.643101975686674
 21
5.028823505669906
  0
LINE
  5
B3
100
AcDbEntity
  8
0
  6
ByLayer
 62
  256
370
   -1
100
AcDbLine
 10
4.643101975686674
 20
5.028823505669906
 11
5.145644262151011
 21
4.91107199859466
  0
LINE
  5
B4
100
AcDbEntity
  8
0
  6
ByLayer
 62
  256
370
   -1
100
AcDbLine
 10
5.145644262151011
 20
4.91107199859466
 11
5.637554435362068
 21
4.754948742358013
  0
LINE
  5
B5
100
AcDbEntity
  8
0
  6
ByLayer
 62
  256
370
   -1
100
AcDbLine
 10
5.637554435362068
 20
4.754948742358013
 11
6.111607748149092
 21
4.572132095400394
  0
LINE
  5
B6
100
AcDbEntity
  8
0
  6
ByLayer
 62
  256
370
   -1
100
AcDbLine
 10
6.111607748149092
 20
4.572132095400394
 11
6.560579453341303
 21
4.374300416162229
  0
LINE
  5
B7
100
AcDbEntity
  8
0
  6
ByLayer
 62
  256
370
   -1
100
AcDbLine
 10
6.560579453341303
 20
4.374300416162229
 11
6.977845928277931
 21
4.172648157853396
  0
LINE
  5
B8
100
AcDbEntity
  8
0
  6
ByLayer
 62
  256
370
   -1
100
AcDbLine
 10
6.977845928277931
 20
4.172648157853396
 11
7.362688997484382
 21
3.973615888698883
  0
LINE
  5
B9
100
AcDbEntity
  8
0
  6
ByLayer
 62
  256
370
   -1
100
AcDbLine
 10
7.362688997484382
 20
3.973615888698883
 11
7.717742355753826
 21
3.780945921358168
  0
LINE
  5
BA
100
AcDbEntity
  8
0
  6
ByLayer
 62
  256
370
   -1
100
AcDbLine
 10
7.717742355753826
 20
3.780945921358168
 11
8.04567816984804
 21
3.598349598555951
  0
LINE
  5
BB
100
AcDbEntity
  8
0
  6
ByLayer
 62
  256
370
   -1
100
AcDbLine
 10
8.04567816984804
 20
3.598349598555951
 11
8.349168606528826
 21
3.429538263016949
  0
LINE
  5
BC
100
AcDbEntity
  8
0
  6
ByLayer
 62
  256
370
   -1
100
AcDbLine
 10
8.349168606528826
 20
3.429538263016949
 11
8.630885832557967
 21
3.278223257465869
  0
LINE
  5
BD
100
AcDbEntity
  8
0
  6
ByLayer
 62
  256
370
   -1
100
AcDbLine
 10
8.630885832557967
 20
3.278223257465869
 11
8.893502014697267
 21
3.148115924627427
  0
LINE
  5
BE
100
AcDbEntity
  8
0
  6
ByLayer
 62
  256
370
   -1
100
AcDbLine
 10
8.893502014697267
 20
3.148115924627427
 11
9.139713752970811
 21
3.042500025135985
  0
LINE
  5
BF
100
AcDbEntity
  8
0
  6
ByLayer
 62
  256
370
   -1
100
AcDbLine
 10
9.139713752970811
 20
3.042500025135985
 11
9.372347896389863
 21
2.962379962350586
  0
LINE
  5
C0
100
AcDbEntity
  8
0
  6
ByLayer
 62
  256
370
   -1
100
AcDbLine
 10
9.372347896389863
 20
2.962379962350586
 11
9.594274521497118
 21
2.908003657830247
  0
LINE
  5
C1
100
AcDbEntity
  8
0
  6
ByLayer
 62
  256
370
   -1
100
AcDbLine
 10
9.594274521497118
 20
2.908003657830247
 11
9.808363733333008
 21
2.879618534423284
  0
LINE
  5
C2
100
AcDbEntity
  8
0
  6
ByLayer
 62
  256
370
   -1
100
AcDbLine
 10
9.808363733333008
 20
2.879618534423284
 11
10.01748563693799
 21
2.87747201497801
  0
LINE
  5
C3
100
AcDbEntity
  8
0
  6
ByLayer
 62
  256
370
   -1
100
AcDbLine
 10
10.01748563693799
 20
2.87747201497801
 11
10.22451033735249
 21
2.901811522342739
  0
LINE
  5
C4
100
AcDbEntity
  8
0
  6
ByLayer
 62
  256
370
   -1
100
AcDbLine
 10
10.22451033735249
 20
2.901811522342739
 11
10.43230743378182
 21
2.952883275335656
  0
LINE
  5
C5
100
AcDbEntity
  8
0
  6
ByLayer
 62
  256
370
   -1
100
AcDbLine
 10
10.43230743378182
 20
2.952883275335656
 11
10.6429792367484
 21
3.029107129572034
  0
LINE
  5
C6
100
AcDbEntity
  8
0
  6
ByLayer
 62
  256
370
   -1
100
AcDbLine
 10
10.6429792367484
 20
3.029107129572034
 11
10.85631613725254
 21
3.123399920959577
  0
LINE
  5
C7
100
AcDbEntity
  8
0
  6
ByLayer
 62
  256
370
   -1
100
AcDbLine
 10
10.85631613725254
 20
3.123399920959577
 11
11.07167483588861
 21
3.227646180073585
  0
LINE
  5
C8
100
AcDbEntity
  8
0
  6
ByLayer
 62
  256
370
   -1
100
AcDbLine
 10
11.07167483588861
 20
3.227646180073585
 11
11.28841203325102
 21
3.33373043748936
  0
LINE
  5
C9
100
AcDbEntity
  8
0
  6
ByLayer
 62
  256
370
   -1
100
AcDbLine
 10
11.28841203325102
 20
3.33373043748936
 11
11.50588442993411
 21
3.43353722378219
  0
LINE
  5
CA
100
AcDbEntity
  8
0
  6
ByLayer
 62
  256
370
   -1
100
AcDbLine
 10
11.50588442993411
 20
3.43353722378219
 11
11.7234487265323
 21
3.51895106952738
  0
LINE
  5
CB
100
AcDbEntity
  8
0
  6
ByLayer
 62
  256
370
   -1
100
AcDbLine
 10
11.7234487265323
 20
3.51895106952738
 11
11.94045354452655
 21
3.581892476590904
  0
LINE
  5
CC
100
AcDbEntity
  8
0
  6
ByLayer
 62
  256
370
   -1
100
AcDbLine
 10
11.94045354452655
 20
3.581892476590904
 11
12.15554361264159
 21
3.61741594553907
  0
LINE
  5
CD
100
AcDbEntity
  8
0
  6
ByLayer
 62
  256
370
   -1
100
AcDbLine
 10
12.15554361264159
 20
3.61741594553907
 11
12.36612351569309
 21
3.626097570057275
  0
LINE
  5
CE
100
AcDbEntity
  8
0
  6
ByLayer
 62
  256
370
   -1
100
AcDbLine
 10
12.36612351569309
 20
3.626097570057275
 11
12.56947160234957
 21
3.609075495247761
  0
LINE
  5
CF
100
AcDbEntity
  8
0
  6
ByLayer
 62
  256
370
   -1
100
AcDbLine
 10
12.56947160234957
 20
3.609075495247761
 11
12.76286622127959
 21
3.567487866212782
  0
LINE
  5
D0
100
AcDbEntity
  8
0
  6
ByLayer
 62
  256
370
   -1
100
AcDbLine
 10
12.76286622127959
 20
3.567487866212782
 11
12.9435857211517
 21
3.502472828054578
  0
LINE
  5
D1
100
AcDbEntity
  8
0
  6
ByLayer
 62
  256
370
   -1
100
AcDbLine
 10
12.9435857211517
 20
3.502472828054578
 11
13.10890845063443
 21
3.41516852587539
  0
LINE
  5
D2
100
AcDbEntity
  8
0
  6
ByLayer
 62
  256
370
   -1
100
AcDbLine
 10
13.10890845063443
 20
3.41516852587539
 11
13.25618934611168
 21
3.306770990841392
  0
LINE
  5
D3
100
AcDbEntity
  8
0
  6
ByLayer
 62
  256
370
   -1
100
AcDbLine
 10
13.25618934611168
 20
3.306770990841392
 11
13.38475861773386
 21
3.179969193593455
  0
LINE
  5
D4
100
AcDbEntity
  8
0
  6
ByLayer
 62
  256
370
   -1
100
AcDbLine
 10
13.38475861773386
 20
3.179969193593455
 11
13.49604834891141
 21
3.039040729910826
  0
LINE
  5
D5
100
AcDbEntity
  8
0
  6
ByLayer
 62
  256
370
   -1
100
AcDbLine
 10
13.49604834891141
 20
3.039040729910826
 11
13.59159256130387
 21
2.888340241923827
  0
LINE
  5
D6
100
AcDbEntity
  8
0
  6
ByLayer
 62
  256
370
   -1
100
AcDbLine
 10
13.59159256130387
 20
2.888340241923827
 11
13.67292527657078
 21
2.732222371762787
  0
LINE
  5
D7
100
AcDbEntity
  8
0
  6
ByLayer
 62
  256
370
   -1
100
AcDbLine
 10
13.67292527657078
 20
2.732222371762787
 11
13.74158051637169
 21
2.575041761558039
  0
LINE
  5
D8
100
AcDbEntity
  8
0
  6
ByLayer
 62
  256
370
   -1
100
AcDbLine
 10
13.74158051637169
 20
2.575041761558039
 11
13.79909230236615
 21
2.421153053439906
  0
LINE
  5
D9
100
AcDbEntity
  8
0
  6
ByLayer
 62
  256
370
   -1
100
AcDbLine
 10
13.79909230236615
 20
2.421153053439906
 11
13.84696777570673
 21
2.274537006123489
  0
LINE
  5
DA
100
AcDbEntity
  8
0
  6
ByLayer
 62
  256
370
   -1
100
AcDbLine
 10
13.84696777570673
 20
2.274537006123489
 11
13.88640159165239
 21
2.134827983621832
  0
LINE
  5
DB
100
AcDbEntity
  8
0
  6
ByLayer
 62
  256
370
   -1
100
AcDbLine
 10
13.88640159165239
 20
2.134827983621832
 11
13.91838680165975
 21
1.998856224333758
  0
LINE
  5
DC
100
AcDbEntity
  8
0
  6
ByLayer
 62
  256
370
   -1
100
AcDbLine
 10
13.91838680165975
 20
1.998856224333758
 11
13.94391309712208
 21
1.863405231231186
  0
LINE
  5
DD
100
AcDbEntity
  8
0
  6
ByLayer
 62
  256
370
   -1
100
AcDbLine
 10
13.94391309712208
 20
1.863405231231186
 11
13.96397016943262
 21
1.725258507286026
  0
LINE
  5
DE
100
AcDbEntity
  8
0
  6
ByLayer
 62
  256
370
   -1
100
AcDbLine
 10
13.96397016943262
 20
1.725258507286026
 11
13.97954770998464
 21
1.581199555470201
  0
LINE
  5
DF
100
AcDbEntity
  8
0
  6
ByLayer
 62
  256
370
   -1
100
AcDbLine
 10
13.97954770998464
 20
1.581199555470201
 11
13.99163541017139
 21
1.428011878755627
  0
LINE
  5
E0
100
AcDbEntity
  8
0
  6
ByLayer
 62
  256
370
   -1
100
AcDbLine
 10
13.99163541017139
 20
1.428011878755627
 11
14.0011502493654
 21
1.263476173541361
  0
LINE
  5
E1
100
AcDbEntity
  8
0
  6
ByLayer
 62
  256
370
   -1
100
AcDbLine
 10
14.0011502493654
 20
1.263476173541361
 11
14.00856047951498
 21
1.091527112330065
  0
LINE
  5
E2
100
AcDbEntity
  8
0
  6
ByLayer
 62
  256
370
   -1
100
AcDbLine
 10
14.00856047951498
 20
1.091527112330065
 11
14.01416334466782
 21
0.918444618832682
  0
LINE
  5
E3
100
AcDbEntity
  8
0
  6
ByLayer
 62
  256
370
   -1
100
AcDbLine
 10
14.01416334466782
 20
0.918444618832682
 11
14.01825575224191
 21
0.7505132333963909
  0
LINE
  5
E4
100
AcDbEntity
  8
0
  6
ByLayer
 62
  256
370
   -1
100
AcDbLine
 10
14.01825575224191
 20
0.7505132333963909
 11
14.02113460965522
 21
0.5940174963683669
  0
LINE
  5
E5
100
AcDbEntity
  8
0
  6
ByLayer
 62
  256
370
   -1
100
AcDbLine
 10
14.02113460965522
 20
0.5940174963683669
 11
14.02309682432572
 21
0.4552419480957903
  0
LINE
  5
E6
100
AcDbEntity
  8
0
  6
ByLayer
 62
  256
370
   -1
100
AcDbLine
 10
14.02309682432572
 20
0.4552419480957903
 11
14.02443929921864
 21
0.3404709365659953
  0
LINE
  5
E7
100
AcDbEntity
  8
0
  6
ByLayer
 62
  256
370
   -1
100
AcDbLine
 10
14.02443929921864
 20
0.3404709365659953
 11
14.02541154197112
 21
0.2539413315953114
  0
LINE
  5
E8
100
AcDbEntity
  8
0
  6
ByLayer
 62
  256
370
   -1
100
AcDbLine
 10
14.02541154197112
 20
0.2539413315953114
 11
14.02609865934601
 21
0.1927878852293361
  0
LINE
  5
E9
100
AcDbEntity
  8
0
  6
ByLayer
 62
  256
370
   -1
100
AcDbLine
 10
14.02609865934601
 20
0.1927878852293361
 11
14.026550135913
 21
0.1526064707680801
  0
LINE
  5
EA
100
AcDbEntity
  8
0
  6
ByLayer
 62
  256
370
   -1
100
AcDbLine
 10
14.026550135913
 20
0.1526064707680801
 11
14.02681545624172
 21
0.1289929615115506
  0
LINE
  5
EB
100
AcDbEntity
  8
0
  6
ByLayer
 62
  256
370
   -1
100
AcDbLine
 10
14.02681545624172
 20
0.1289929615115506
 11
14.02694410490185
 21
0.1175432307597601
  0
LINE
  5
EC
100
AcDbEntity
  8
0
  6
ByLayer
 62
  256
370
   -1
100
AcDbLine
 10
14.02694410490185
 20
0.1175432307597601
 11
14.02698556646305
 21
0.113853151812715
  0
LINE
  5
ED
100
AcDbEntity
  8
0
  6
ByLayer
 62
  256
370
   -1
100
AcDbLine
 10
14.02698556646305
 20
0.113853151812715
 11
14.02698921417564
 21
0.1135285053929049
  0
LINE
  5
EE
100
AcDbEntity
  8
0
  6
ByLayer
 62
  256
370
   -1
100
AcDbLine
 10
14.02698921417564
 20
0.1135285053929049
 11
14.02698921417564
 21
0.113528505392904
  0
LINE
  5
EF
100
AcDbEntity
  8
0
  6
ByLayer
 62
  256
370
   -1
100
AcDbLine
 10
14.02698921417564
 20
0.113528505392904
 11
14.02698921417563
 21
0.113528505392904
  0
LINE
  5
F0
100
AcDbEntity
  8
0
  6
ByLayer
 62
  256
370
   -1
100
AcDbLine
 10
14.02698921417563
 20
0.113528505392904
 11
14.02698921417563
 21
0.113528505392904
  0
LINE
  5
F1
100
AcDbEntity
  8
0
  6
ByLayer
 62
  256
370
   -1
100
AcDbLine
 10
14.02698921417563
 20
0.113528505392904
 11
14.02698921417564
 21
0.1135285053929049
  0
LINE
  5
F2
100
AcDbEntity
  8
0
  6
ByLayer
 62
  256
370
   -1
100
AcDbLine
 10
14.02698921417564
 20
0.1135285053929049
 11
14.02698921417564
 21
0.113528505392904
  0
LINE
  5
F3
100
AcDbEntity
  8
0
  6
ByLayer
 62
  256
370
   -1
100
AcDbLine
 10
14.02698921417564
 20
0.113528505392904
 11
14.02698921417563
 21
0.1135285053929032
  0
LINE
  5
F4
100
AcDbEntity
  8
0
  6
ByLayer
 62
  256
370
   -1
100
AcDbLine
 10
14.02698921417563
 20
0.1135285053929032
 11
14.02698921417564
 21
0.113528505392904
  0
LINE
  5
F5
100
AcDbEntity
  8
0
  6
ByLayer
 62
  256
370
   -1
100
AcDbLine
 10
14.02698921417564
 20
0.113528505392904
 11
14.02698921417563
 21
0.113528505392904
  0
LINE
  5
F6
100
AcDbEntity
  8
0
  6
ByLayer
 62
  256
370
   -1
100
AcDbLine
 10
14.02698921417563
 20
0.113528505392904
 11
14.02698921417564
 21
0.113528505392904
  0
LINE
  5
F7
100
AcDbEntity
  8
0
  6
ByLayer
 62
  256
370
   -1
100
AcDbLine
 10
14.02698921417564
 20
0.113528505392904
 11
14.02698921417563
 21
0.113528505392904
  0
LINE
  5
F8
100
AcDbEntity
  8
0
  6
ByLayer
 62
  256
370
   -1
100
AcDbLine
 10
14.02698921417563
 20
0.113528505392904
 11
14.02698921417563
 21
0.113528505392904
  0
LINE
  5
F9
100
AcDbEntity
  8
0
  6
ByLayer
 62
  256
370
   -1
100
AcDbLine
 10
14.02698921417563
 20
0.113528505392904
 11
14.02698921417563
 21
0.113528505392904
  0
LINE
  5
FA
100
AcDbEntity
  8
0
  6
ByLayer
 62
  256
370
   -1
100
AcDbLine
 10
14.02698921417563
 20
0.113528505392904
 11
14.02698921417564
 21
0.1135285053929049
  0
LINE
  5
FB
100
AcDbEntity
  8
0
  6
ByLayer
 62
  256
370
   -1
100
AcDbLine
 10
14.02698921417564
 20
0.1135285053929049
 11
14.02698921417563
 21
0.113528505392904
  0
LINE
  5
FC
100
AcDbEntity
  8
0
  6
ByLayer
 62
  256
370
   -1
100
AcDbLine
 10
14.02698921417563
 20
0.113528505392904
 11
14.02698921417563
 21
0.1135285053929032
  0
LINE
  5
FD
100
AcDbEntity
  8
0
  6
ByLayer
 62
  256
370
   -1
100
AcDbLine
 10
14.02698921417563
 20
0.1135285053929032
 11
14.02698921417563
 21
0.1135285053929032
  0
LINE
  5
FE
100
AcDbEntity
  8
0
  6
ByLayer
 62
  256
370
   -1
100
AcDbLine
 10
14.02698921417563
 20
0.1135285053929032
 11
14.02698921417563
 21
0.113528505392904
  0
LINE
  5
FF
100
AcDbEntity
  8
0
  6
ByLayer
 62
  256
370
   -1
100
AcDbLine
 10
14.02698921417563
 20
0.113528505392904
 11
14.02698921417563
 21
0.1135285053929032
  0
LINE
  5
100
100
AcDbEntity
  8
0
  6
ByLayer
 62
  256
370
   -1
100
AcDbLine
 10
14.02698921417563
 20
0.1135285053929032
 11
14.02698921417563
 21
0.113528505392904
  0
LINE
  5
101
100
AcDbEntity
  8
0
  6
ByLayer
 62
  256
370
   -1
100
AcDbLine
 10
14.02698921417563
 20
0.113528505392904
 11
14.02698921417563
 21
0.113528505392904
  0
LINE
  5
102
100
AcDbEntity
  8
0
  6
ByLayer
 62
  256
370
   -1
100
AcDbLine
 10
14.02698921417563
 20
0.113528505392904
 11
14.02698921417563
 21
0.113528505392904
  0
LINE
  5
103
100
AcDbEntity
  8
0
  6
ByLayer
 62
  256
370
   -1
100
AcDbLine
 10
14.02698921417563
 20
0.113528505392904
 11
14.02698921417563
 21
0.113528505392904
  0
LINE
  5
104
100
AcDbEntity
  8
0
  6
ByLayer
 62
  256
370
   -1
100
AcDbLine
 10
14.02698921417563
 20
0.113528505392904
 11
14.02698921417563
 21
0.113528505392904
  0
LINE
  5
105
100
AcDbEntity
  8
0
  6
ByLayer
 62
  256
370
   -1
100
AcDbLine
 10
14.02698921417563
 20
0.113528505392904
 11
14.02698921417563
 21
0.113528505392904
  0
LINE
  5
106
100
AcDbEntity
  8
0
  6
ByLayer
 62
  256
370
   -1
100
AcDbLine
 10
14.02698921417563
 20
0.113528505392904
 11
14.02698921417563
 21
0.113528505392904
  0
LINE
  5
107
100
AcDbEntity
  8
0
  6
ByLayer
 62
  256
370
   -1
100
AcDbLine
 10
14.02698921417563
 20
0.113528505392904
 11
14.02698921417563
 21
0.113528505392904
  0
LINE
  5
108
100
AcDbEntity
  8
0
  6
ByLayer
 62
  256
370
   -1
100
AcDbLine
 10
14.02698921417563
 20
0.113528505392904
 11
14.02698921417563
 21
0.113528505392904
  0
LINE
  5
109
100
AcDbEntity
  8
0
  6
ByLayer
 62
  256
370
   -1
100
AcDbLine
 10
0.01136421417563405
 20
0.113528505392904
 11
0.01136421417563405
 21
0.113528505392904
  0
LINE
  5
10A
100
AcDbEntity
  8
0
  6
ByLayer
 62
  256
370
   -1
100
AcDbLine
 10
0.01136421417563405
 20
0.113528505392904
 11
0.01136421417563405
 21
0.113528505392904
  0
LINE
  5
10B
100
AcDbEntity
  8
0
  6
ByLayer
 62
  256
370
   -1
100
AcDbLine
 10
0.01136421417563405
 20
0.113528505392904
 11
0.01136421417563405
 21
0.113528505392904
  0
LINE
  5
10C
100
AcDbEntity
  8
0
  6
ByLayer
 62
  256
370
   -1
100
AcDbLine
 10
0.01136421417563405
 20
0.113528505392904
 11
0.01136421417563405
 21
0.113528505392904
  0
LINE
  5
10D
100
AcDbEntity
  8
0
  6
ByLayer
 62
  256
370
   -1
100
AcDbLine
 10
0.01136421417563405
 20
0.113528505392904
 11
0.01136421417563405
 21
0.113528505392904
  0
LINE
  5
10E
100
AcDbEntity
  8
0
  6
ByLayer
 62
  256
370
   -1
100
AcDbLine
 10
0.01136421417563405
 20
0.113528505392904
 11
0.01136421417563582
 21
0.113528505392904
  0
LINE
  5
10F
100
AcDbEntity
  8
0
  6
ByLayer
 62
  256
370
   -1
100
AcDbLine
 10
0.01136421417563582
 20
0.113528505392904
 11
0.01136421417563582
 21
0.113528505392904
  0
LINE
  5
110
100
AcDbEntity
  8
0
  6
ByLayer
 62
  256
370
   -1
100
AcDbLine
 10
0.01136421417563582
 20
0.113528505392904
 11
0.01136421417563405
 21
0.113528505392904
  0
LINE
  5
111
100
AcDbEntity
  8
0
  6
ByLayer
 62
  256
370
   -1
100
AcDbLine
 10
0.01136421417563405
 20
0.113528505392904
 11
0.01136421417563405
 21
0.113528505392904
  0
LINE
  5
112
100
AcDbEntity
  8
0
  6
ByLayer
 62
  256
370
   -1
100
AcDbLine
 10
0.01136421417563405
 20
0.113528505392904
 11
0.01136421417563227
 21
0.113528505392904
  0
LINE
  5
113
100
AcDbEntity
  8
0
  6
ByLayer
 62
  256
370
   -1
100
AcDbLine
 10
0.01136421417563227
 20
0.113528505392904
 11
0.01136421417563405
 21
0.113528505392904
  0
LINE
  5
114
100
AcDbEntity
  8
0
  6
ByLayer
 62
  256
370
   -1
100
AcDbLine
 10
0.01136421417563405
 20
0.113528505392904
 11
0.01136421417563405
 21
0.113528505392904
  0
LINE
  5
115
100
AcDbEntity
  8
0
  6
ByLayer
 62
  256
370
   -1
100
AcDbLine
 10
0.01136421417563405
 20
0.113528505392904
 11
0.01136421417563405
 21
0.1135285053929032
  0
LINE
  5
116
100
AcDbEntity
  8
0
  6
ByLayer
 62
  256
370
   -1
100
AcDbLine
 10
0.01136421417563405
 20
0.1135285053929032
 11
0.01136421417563582
 21
0.1135285053929049
  0
LINE
  5
117
100
AcDbEntity
  8
0
  6
ByLayer
 62
  256
370
   -1
100
AcDbLine
 10
0.01136421417563582
 20
0.1135285053929049
 11
0.01136421417563582
 21
0.1135285053929049
  0
LINE
  5
118
100
AcDbEntity
  8
0
  6
ByLayer
 62
  256
370
   -1
100
AcDbLine
 10
0.01136421417563582
 20
0.1135285053929049
 11
0.01136421417563405
 21
0.113528505392904
  0
LINE
  5
119
100
AcDbEntity
  8
0
  6
ByLayer
 62
  256
370
   -1
100
AcDbLine
 10
0.01136421417563405
 20
0.113528505392904
 11
0.01136421417563582
 21
0.1135285053929049
  0
LINE
  5
11A
100
AcDbEntity
  8
0
  6
ByLayer
 62
  256
370
   -1
100
AcDbLine
 10
0.01136421417563582
 20
0.1135285053929049
 11
0.01136421417563405
 21
0.113528505392904
  0
LINE
  5
11B
100
AcDbEntity
  8
0
  6
ByLayer
 62
  256
370
   -1
100
AcDbLine
 10
0.01136421417563405
 20
0.113528505392904
 11
0.01136421417563405
 21
0.1135285053929049
  0
LINE
  5
11C
100
AcDbEntity
  8
0
  6
ByLayer
 62
  256
370
   -1
100
AcDbLine
 10
0.01136421417563405
 20
0.1135285053929049
 11
0.01136421417563227
 21
0.113528505392904
  0
LINE
  5
11D
100
AcDbEntity
  8
0
  6
ByLayer
 62
  256
370
   -1
100
AcDbLine
 10
0.01136421417563227
 20
0.113528505392904
 11
0.01136421417563582
 21
0.1135285053929058
  0
LINE
  5
11E
100
AcDbEntity
  8
0
  6
ByLayer
 62
  256
370
   -1
100
AcDbLine
 10
0.01136421417563582
 20
0.1135285053929058
 11
0.01136421417563582
 21
0.113528505392904
  0
LINE
  5
11F
100
AcDbEntity
  8
0
  6
ByLayer
 62
  256
370
   -1
100
AcDbLine
 10
0.01136421417563582
 20
0.113528505392904
 11
0.01136421417563405
 21
0.113528505392904
  0
LINE
  5
120
100
AcDbEntity
  8
0
  6
ByLayer
 62
  256
370
   -1
100
AcDbLine
 10
0.01136421417563405
 20
0.113528505392904
 11
0.01136421417563582
 21
0.1135285053929032
  0
LINE
  5
121
100
AcDbEntity
  8
0
  6
ByLayer
 62
  256
370
   -1
100
AcDbLine
 10
0.01136421417563582
 20
0.1135285053929032
 11
0.01136421417563582
 21
0.1135285053929049
  0
LINE
  5
122
100
AcDbEntity
  8
0
  6
ByLayer
 62
  256
370
   -1
100
AcDbLine
 10
0.01136421417563582
 20
0.1135285053929049
 11
0.01136421417563405
 21
0.113528505392904
  0
LINE
  5
123
100
AcDbEntity
  8
0
  6
ByLayer
 62
  256
370
   -1
100
AcDbLine
 10
0.01136421417563405
 20
0.113528505392904
 11
0.01136056646305228
 21
0.1134008354525289
  0
LINE
  5
124
100
AcDbEntity
  8
0
  6
ByLayer
 62
  256
370
   -1
100
AcDbLine
 10
0.01136056646305228
 20
0.1134008354525289
 11
0.01131910490184929
 21
0.111949680810433
  0
LINE
  5
125
100
AcDbEntity
  8
0
  6
ByLayer
 62
  256
370
   -1
100
AcDbLine
 10
0.01131910490184929
 20
0.111949680810433
 11
0.01119045624171555
 21
0.1074469777057967
  0
LINE
  5
126
100
AcDbEntity
  8
0
  6
ByLayer
 62
  256
370
   -1
100
AcDbLine
 10
0.01119045624171555
 20
0.1074469777057967
 11
0.01092513591299138
 21
0.09816076620042136
  0
LINE
  5
127
100
AcDbEntity
  8
0
  6
ByLayer
 62
  256
370
   -1
100
AcDbLine
 10
0.01092513591299138
 20
0.09816076620042136
 11
0.01047365934600997
 21
0.08235908635610745
  0
LINE
  5
128
100
AcDbEntity
  8
0
  6
ByLayer
 62
  256
370
   -1
100
AcDbLine
 10
0.01047365934600997
 20
0.08235908635610745
 11
0.009786541971111617
 21
0.05830997823465811
  0
LINE
  5
129
100
AcDbEntity
  8
0
  6
ByLayer
 62
  256
370
   -1
100
AcDbLine
 10
0.009786541971111617
 20
0.05830997823465811
 11
0.008814299218634858
 21
0.0242814818978756
  0
LINE
  5
12A
100
AcDbEntity
  8
0
  6
ByLayer
 62
  256
370
   -1
100
AcDbLine
 10
0.008814299218634858
 20
0.0242814818978756
 11
0.007649935291651033
 21
-0.02194994885839385
  0
LINE
  5
12B
100
AcDbEntity
  8
0
  6
ByLayer
 62
  256
370
   -1
100
AcDbLine
 10
0.007649935291651033
 20
-0.02194994885839385
 11
0.007044057890528421
 21
-0.08487659230395028
  0
LINE
  5
12C
100
AcDbEntity
  8
0
  6
ByLayer
 62
  256
370
   -1
100
AcDbLine
 10
0.007044057890528421
 20
-0.08487659230395028
 11
0.007936856027766837
 21
-0.1696447822354425
  0
LINE
  5
12D
100
AcDbEntity
  8
0
  6
ByLayer
 62
  256
370
   -1
100
AcDbLine
 10
0.007936856027766837
 20
-0.1696447822354425
 11
0.01126853652695736
 21
-0.2814009138978024
  0
LINE
  5
12E
100
AcDbEntity
  8
0
  6
ByLayer
 62
  256
370
   -1
100
AcDbLine
 10
0.01126853652695736
 20
-0.2814009138978024
 11
0.01797930621169641
 21
-0.4252913825359661
  0
LINE
  5
12F
100
AcDbEntity
  8
0
  6
ByLayer
 62
  256
370
   -1
100
AcDbLine
 10
0.01797930621169641
 20
-0.4252913825359661
 11
0.02900937190557507
 21
-0.6064625833948645
  0
LINE
  5
130
100
AcDbEntity
  8
0
  6
ByLayer
 62
  256
370
   -1
100
AcDbLine
 10
0.02900937190557507
 20
-0.6064625833948645
 11
0.04530225863948267
 21
-0.8300544436197015
  0
LINE
  5
131
100
AcDbEntity
  8
0
  6
ByLayer
 62
  256
370
   -1
100
AcDbLine
 10
0.04530225863948267
 20
-0.8300544436197015
 11
0.06948714075025819
 21
-1.09792109569409
  0
LINE
  5
132
100
AcDbEntity
  8
0
  6
ByLayer
 62
  256
370
   -1
100
AcDbLine
 10
0.06948714075025819
 20
-1.09792109569409
 11
0.1086163628992018
 21
-1.403294695164818
  0
LINE
  5
133
100
AcDbEntity
  8
0
  6
ByLayer
 62
  256
370
   -1
100
AcDbLine
 10
0.1086163628992018
 20
-1.403294695164818
 11
0.1704590025233799
 21
-1.738010288037516
  0
LINE
  5
134
100
AcDbEntity
  8
0
  6
ByLayer
 62
  256
370
   -1
100
AcDbLine
 10
0.1704590025233799
 20
-1.738010288037516
 11
0.2627841370598496
 21
-2.093902920317823
  0
LINE
  5
135
100
AcDbEntity
  8
0
  6
ByLayer
 62
  256
370
   -1
100
AcDbLine
 10
0.2627841370598496
 20
-2.093902920317823
 11
0.3933608439456808
 21
-2.462807638011371
  0
LINE
  5
136
100
AcDbEntity
  8
0
  6
ByLayer
 62
  256
370
   -1
100
AcDbLine
 10
0.3933608439456808
 20
-2.462807638011371
 11
0.5699582006179309
 21
-2.836559487123797
  0
LINE
  5
137
100
AcDbEntity
  8
0
  6
ByLayer
 62
  256
370
   -1
100
AcDbLine
 10
0.5699582006179309
 20
-2.836559487123797
 11
0.8002573119453782
 21
-3.206979767946939
  0
LINE
  5
138
100
AcDbEntity
  8
0
  6
ByLayer
 62
  256
370
   -1
100
AcDbLine
 10
0.8002573119453782
 20
-3.206979767946939
 11
1.086660928699418
 21
-3.565065037944925
  0
LINE
  5
139
100
AcDbEntity
  8
0
  6
ByLayer
 62
  256
370
   -1
100
AcDbLine
 10
1.086660928699418
 20
-3.565065037944925
 11
1.423390352800551
 21
-3.900533503198925
  0
LINE
  5
13A
100
AcDbEntity
  8
0
  6
ByLayer
 62
  256
370
   -1
100
AcDbLine
 10
1.423390352800551
 20
-3.900533503198925
 11
1.803963105622936
 21
-4.202993404079747
  0
LINE
  5
13B
100
AcDbEntity
  8
0
  6
ByLayer
 62
  256
370
   -1
100
AcDbLine
 10
1.803963105622936
 20
-4.202993404079747
 11
2.221896708540752
 21
-4.462052980958198
  0
LINE
  5
13C
100
AcDbEntity
  8
0
  6
ByLayer
 62
  256
370
   -1
100
AcDbLine
 10
2.221896708540752
 20
-4.462052980958198
 11
2.670708682928163
 21
-4.667320474205088
  0
LINE
  5
13D
100
AcDbEntity
  8
0
  6
ByLayer
 62
  256
370
   -1
100
AcDbLine
 10
2.670708682928163
 20
-4.667320474205088
 11
3.143916550159345
 21
-4.808404124191225
  0
LINE
  5
13E
100
AcDbEntity
  8
0
  6
ByLayer
 62
  256
370
   -1
100
AcDbLine
 10
3.143916550159345
 20
-4.808404124191225
 11
3.6350200516813
 21
-4.875440827788706
  0
LINE
  5
13F
100
AcDbEntity
  8
0
  6
ByLayer
 62
  256
370
   -1
100
AcDbLine
 10
3.6350200516813
 20
-4.875440827788706
 11
4.137152323139853
 21
-4.869467894357526
  0
LINE
  5
140
100
AcDbEntity
  8
0
  6
ByLayer
 62
  256
370
   -1
100
AcDbLine
 10
4.137152323139853
 20
-4.869467894357526
 11
4.643101975686674
 21
-4.8017664948841
  0
LINE
  5
141
100
AcDbEntity
  8
0
  6
ByLayer
 62
  256
370
   -1
100
AcDbLine
 10
4.643101975686674
 20
-4.8017664948841
 11
5.145644262151011
 21
-4.68401498780885
  0
LINE
  5
142
100
AcDbEntity
  8
0
  6
ByLayer
 62
  256
370
   -1
100
AcDbLine
 10
5.145644262151011
 20
-4.68401498780885
 11
5.637554435362068
 21
-4.527891731572204
  0
LINE
  5
143
100
AcDbEntity
  8
0
  6
ByLayer
 62
  256
370
   -1
100
AcDbLine
 10
5.637554435362068
 20
-4.527891731572204
 11
6.111607748149092
 21
-4.345075084614585
  0
LINE
  5
144
100
AcDbEntity
  8
0
  6
ByLayer
 62
  256
370
   -1
100
AcDbLine
 10
6.111607748149092
 20
-4.345075084614585
 11
6.560579453341303
 21
-4.14724340537642
  0
LINE
  5
145
100
AcDbEntity
  8
0
  6
ByLayer
 62
  256
370
   -1
100
AcDbLine
 10
6.560579453341303
 20
-4.14724340537642
 11
6.977845928277931
 21
-3.945591147067587
  0
LINE
  5
146
100
AcDbEntity
  8
0
  6
ByLayer
 62
  256
370
   -1
100
AcDbLine
 10
6.977845928277931
 20
-3.945591147067587
 11
7.362688997484382
 21
-3.746558877913078
  0
LINE
  5
147
100
AcDbEntity
  8
0
  6
ByLayer
 62
  256
370
   -1
100
AcDbLine
 10
7.362688997484382
 20
-3.746558877913078
 11
7.717742355753826
 21
-3.553888910572359
  0
LINE
  5
148
100
AcDbEntity
  8
0
  6
ByLayer
 62
  256
370
   -1
100
AcDbLine
 10
7.717742355753826
 20
-3.553888910572359
 11
8.04567816984804
 21
-3.371292587770143
  0
LINE
  5
149
100
AcDbEntity
  8
0
  6
ByLayer
 62
  256
370
   -1
100
AcDbLine
 10
8.04567816984804
 20
-3.371292587770143
 11
8.349168606528826
 21
-3.202481252231139
  0
LINE
  5
14A
100
AcDbEntity
  8
0
  6
ByLayer
 62
  256
370
   -1
100
AcDbLine
 10
8.349168606528826
 20
-3.202481252231139
 11
8.630885832557967
 21
-3.051166246680061
  0
LINE
  5
14B
100
AcDbEntity
  8
0
  6
ByLayer
 62
  256
370
   -1
100
AcDbLine
 10
8.630885832557967
 20
-3.051166246680061
 11
8.893502014697267
 21
-2.921058913841618
  0
LINE
  5
14C
100
AcDbEntity
  8
0
  6
ByLayer
 62
  256
370
   -1
100
AcDbLine
 10
8.893502014697267
 20
-2.921058913841618
 11
9.139713752970811
 21
-2.815443014350175
  0
LINE
  5
14D
100
AcDbEntity
  8
0
  6
ByLayer
 62
  256
370
   -1
100
AcDbLine
 10
9.139713752970811
 20
-2.815443014350175
 11
9.372347896389863
 21
-2.735322951564776
  0
LINE
  5
14E
100
AcDbEntity
  8
0
  6
ByLayer
 62
  256
370
   -1
100
AcDbLine
 10
9.372347896389863
 20
-2.735322951564776
 11
9.594274521497118
 21
-2.680946647044438
  0
LINE
  5
14F
100
AcDbEntity
  8
0
  6
ByLayer
 62
  256
370
   -1
100
AcDbLine
 10
9.594274521497118
 20
-2.680946647044438
 11
9.808363733333008
 21
-2.652561523637475
  0
LINE
  5
150
100
AcDbEntity
  8
0
  6
ByLayer
 62
  256
370
   -1
100
AcDbLine
 10
9.808363733333008
 20
-2.652561523637475
 11
10.01748563693799
 21
-2.650415004192201
  0
LINE
  5
151
100
AcDbEntity
  8
0
  6
ByLayer
 62
  256
370
   -1
100
AcDbLine
 10
10.01748563693799
 20
-2.650415004192201
 11
10.22451033735249
 21
-2.67475451155693
  0
LINE
  5
152
100
AcDbEntity
  8
0
  6
ByLayer
 62
  256
370
   -1
100
AcDbLine
 10
10.22451033735249
 20
-2.67475451155693
 11
10.43230743378182
 21
-2.725826264549848
  0
LINE
  5
153
100
AcDbEntity
  8
0
  6
ByLayer
 62
  256
370
   -1
100
AcDbLine
 10
10.43230743378182
 20
-2.725826264549848
 11
10.6429792367484
 21
-2.802050118786226
  0
LINE
  5
154
100
AcDbEntity
  8
0
  6
ByLayer
 62
  256
370
   -1
100
AcDbLine
 10
10.6429792367484
 20
-2.802050118786226
 11
10.85631613725254
 21
-2.89634291017377
  0
LINE
  5
155
100
AcDbEntity
  8
0
  6
ByLayer
 62
  256
370
   -1
100
AcDbLine
 10
10.85631613725254
 20
-2.89634291017377
 11
11.07167483588861
 21
-3.000589169287779
  0
LINE
  5
156
100
AcDbEntity
  8
0
  6
ByLayer
 62
  256
370
   -1
100
AcDbLine
 10
11.07167483588861
 20
-3.000589169287779
 11
11.28841203325102
 21
-3.106673426703549
  0
LINE
  5
157
100
AcDbEntity
  8
0
  6
ByLayer
 62
  256
370
   -1
100
AcDbLine
 10
11.28841203325102
 20
-3.106673426703549
 11
11.50588442993411
 21
-3.206480212996381
  0
LINE
  5
158
100
AcDbEntity
  8
0
  6
ByLayer
 62
  256
370
   -1
100
AcDbLine
 10
11.50588442993411
 20
-3.206480212996381
 11
11.7234487265323
 21
-3.291894058741571
  0
LINE
  5
159
100
AcDbEntity
  8
0
  6
ByLayer
 62
  256
370
   -1
100
AcDbLine
 10
11.7234487265323
 20
-3.291894058741571
 11
11.94045354452655
 21
-3.354835465805095
  0
LINE
  5
15A
100
AcDbEntity
  8
0
  6
ByLayer
 62
  256
370
   -1
100
AcDbLine
 10
11.94045354452655
 20
-3.354835465805095
 11
12.15554361264159
 21
-3.39035893475326
  0
LINE
  5
15B
100
AcDbEntity
  8
0
  6
ByLayer
 62
  256
370
   -1
100
AcDbLine
 10
12.15554361264159
 20
-3.39035893475326
 11
12.36612351569309
 21
-3.399040559271465
  0
LINE
  5
15C
100
AcDbEntity
  8
0
  6
ByLayer
 62
  256
370
   -1
100
AcDbLine
 10
12.36612351569309
 20
-3.399040559271465
 11
12.56947160234957
 21
-3.382018484461955
  0
LINE
  5
15D
100
AcDbEntity
  8
0
  6
ByLayer
 62
  256
370
   -1
100
AcDbLine
 10
12.56947160234957
 20
-3.382018484461955
 11
12.76286622127959
 21
-3.340430855426974
  0
LINE
  5
15E
100
AcDbEntity
  8
0
  6
ByLayer
 62
  256
370
   -1
100
AcDbLine
 10
12.76286622127959
 20
-3.340430855426974
 11
12.9435857211517
 21
-3.275415817268768
  0
LINE
  5
15F
100
AcDbEntity
  8
0
  6
ByLayer
 62
  256
370
   -1
100
AcDbLine
 10
12.9435857211517
 20
-3.275415817268768
 11
13.10890845063443
 21
-3.188111515089582
  0
LINE
  5
160
100
AcDbEntity
  8
0
  6
ByLayer
 62
  256
370
   -1
100
AcDbLine
 10
13.10890845063443
 20
-3.188111515089582
 11
13.25618934611168
 21
-3.079713980055584
  0
LINE
  5
161
100
AcDbEntity
  8
0
  6
ByLayer
 62
  256
370
   -1
100
AcDbLine
 10
13.25618934611168
 20
-3.079713980055584
 11
13.38475861773386
 21
-2.952912182807649
  0
LINE
  5
162
100
AcDbEntity
  8
0
  6
ByLayer
 62
  256
370
   -1
100
AcDbLine
 10
13.38475861773386
 20
-2.952912182807649
 11
13.49604834891141
 21
-2.811983719125017
  0
LINE
  5
163
100
AcDbEntity
  8
0
  6
ByLayer
 62
  256
370
   -1
100
AcDbLine
 10
13.49604834891141
 20
-2.811983719125017
 11
13.59159256130387
 21
-2.661283231138018
  0
LINE
  5
164
100
AcDbEntity
  8
0
  6
ByLayer
 62
  256
370
   -1
100
AcDbLine
 10
13.59159256130387
 20
-2.661283231138018
 11
13.67292527657078
 21
-2.50516536097698
  0
LINE
  5
165
100
AcDbEntity
  8
0
  6
ByLayer
 62
  256
370
   -1
100
AcDbLine
 10
13.67292527657078
 20
-2.50516536097698
 11
13.74158051637169
 21
-2.347984750772231
  0
LINE
  5
166
100
AcDbEntity
  8
0
  6
ByLayer
 62
  256
370
   -1
100
AcDbLine
 10
13.74158051637169
 20
-2.347984750772231
 11
13.79909230236615
 21
-2.194096042654098
  0
LINE
  5
167
100
AcDbEntity
  8
0
  6
ByLayer
 62
  256
370
   -1
100
AcDbLine
 10
13.79909230236615
 20
-2.194096042654098
 11
13.84696777570673
 21
-2.047479995337679
  0
LINE
  5
168
100
AcDbEntity
  8
0
  6
ByLayer
 62
  256
370
   -1
100
AcDbLine
 10
13.84696777570673
 20
-2.047479995337679
 11
13.88640159165239
 21
-1.907770972836023
  0
LINE
  5
169
100
AcDbEntity
  8
0
  6
ByLayer
 62
  256
370
   -1
100
AcDbLine
 10
13.88640159165239
 20
-1.907770972836023
 11
13.91838680165975
 21
-1.77179921354795
  0
LINE
  5
16A
100
AcDbEntity
  8
0
  6
ByLayer
 62
  256
370
   -1
100
AcDbLine
 10
13.91838680165975
 20
-1.77179921354795
 11
13.94391309712208
 21
-1.636348220445375
  0
LINE
  5
16B
100
AcDbEntity
  8
0
  6
ByLayer
 62
  256
370
   -1
100
AcDbLine
 10
13.94391309712208
 20
-1.636348220445375
 11
13.96397016943262
 21
-1.498201496500218
  0
LINE
  5
16C
100
AcDbEntity
  8
0
  6
ByLayer
 62
  256
370
   -1
100
AcDbLine
 10
13.96397016943262
 20
-1.498201496500218
 11
13.97954770998464
 21
-1.354142544684392
  0
LINE
  5
16D
100
AcDbEntity
  8
0
  6
ByLayer
 62
  256
370
   -1
100
AcDbLine
 10
13.97954770998464
 20
-1.354142544684392
 11
13.99163541017139
 21
-1.200954867969818
  0
LINE
  5
16E
100
AcDbEntity
  8
0
  6
ByLayer
 62
  256
370
   -1
100
AcDbLine
 10
13.99163541017139
 20
-1.200954867969818
 11
14.0011502493654
 21
-1.036419162755551
  0
LINE
  5
16F
100
AcDbEntity
  8
0
  6
ByLayer
 62
  256
370
   -1
100
AcDbLine
 10
14.0011502493654
 20
-1.036419162755551
 11
14.00856047951498
 21
-0.8644701015442555
  0
LINE
  5
170
100
AcDbEntity
  8
0
  6
ByLayer
 62
  256
370
   -1
100
AcDbLine
 10
14.00856047951498
 20
-0.8644701015442555
 11
14.01416334466782
 21
-0.691387608046873
  0
LINE
  5
171
100
AcDbEntity
  8
0
  6
ByLayer
 62
  256
370
   -1
100
AcDbLine
 10
14.01416334466782
 20
-0.691387608046873
 11
14.01825575224191
 21
-0.5234562226105819
  0
LINE
  5
172
100
AcDbEntity
  8
0
  6
ByLayer
 62
  256
370
   -1
100
AcDbLine
 10
14.01825575224191
 20
-0.5234562226105819
 11
14.02113460965522
 21
-0.3669604855825588
  0
LINE
  5
173
100
AcDbEntity
  8
0
  6
ByLayer
 62
  256
370
   -1
100
AcDbLine
 10
14.02113460965522
 20
-0.3669604855825588
 11
14.02309682432572
 21
-0.2281849373099814
  0
LINE
  5
174
100
AcDbEntity
  8
0
  6
ByLayer
 62
  256
370
   -1
100
AcDbLine
 10
14.02309682432572
 20
-0.2281849373099814
 11
14.02443929921864
 21
-0.1134139257801854
  0
LINE
  5
175
100
AcDbEntity
  8
0
  6
ByLayer
 62
  256
370
   -1
100
AcDbLine
 10
14.02443929921864
 20
-0.1134139257801854
 11
14.02541154197112
 21
-0.02688432080950154
  0
LINE
  5
176
100
AcDbEntity
  8
0
  6
ByLayer
 62
  256
370
   -1
100
AcDbLine
 10
14.02541154197112
 20
-0.02688432080950154
 11
14.02609865934601
 21
0.03426912555647288
  0
LINE
  5
177
100
AcDbEntity
  8
0
  6
ByLayer
 62
  256
370
   -1
100
AcDbLine
 10
14.02609865934601
 20
0.03426912555647288
 11
14.026550135913
 21
0.07445054001772977
  0
LINE
  5
178
100
AcDbEntity
  8
0
  6
ByLayer
 62
  256
370
   -1
100
AcDbLine
 10
14.026550135913
 20
0.07445054001772977
 11
14.02681545624172
 21
0.09806404927425749
  0
LINE
  5
179
100
AcDbEntity
  8
0
  6
ByLayer
 62
  256
370
   -1
100
AcDbLine
 10
14.02681545624172
 20
0.09806404927425749
 11
14.02694410490185
 21
0.1095137800260488
  0
LINE
  5
17A
100
AcDbEntity
  8
0
  6
ByLayer
 62
  256
370
   -1
100
AcDbLine
 10
14.02694410490185
 20
0.1095137800260488
 11
14.02698556646305
 21
0.1132038589730948
  0
LINE
  5
17B
100
AcDbEntity
  8
0
  6
ByLayer
 62
  256
370
   -1
100
AcDbLine
 10
14.02698556646305
 20
0.1132038589730948
 11
14.02698921417564
 21
0.1135285053929049
  0
LINE
  5
17C
100
AcDbEntity
  8
0
  6
ByLayer
 62
  256
370
   -1
100
AcDbLine
 10
14.02698921417564
 20
0.1135285053929049
 11
14.02698921417564
 21
0.113528505392904
  0
LINE
  5
17D
100
AcDbEntity
  8
0
  6
ByLayer
 62
  256
370
   -1
100
AcDbLine
 10
14.02698921417564
 20
0.113528505392904
 11
14.02698921417563
 21
0.113528505392904
  0
LINE
  5
17E
100
AcDbEntity
  8
0
  6
ByLayer
 62
  256
370
   -1
100
AcDbLine
 10
14.02698921417563
 20
0.113528505392904
 11
14.02698921417563
 21
0.113528505392904
  0
LINE
  5
17F
100
AcDbEntity
  8
0
  6
ByLayer
 62
  256
370
   -1
100
AcDbLine
 10
14.02698921417563
 20
0.113528505392904
 11
14.02698921417564
 21
0.1135285053929049
  0
LINE
  5
180
100
AcDbEntity
  8
0
  6
ByLayer
 62
  256
370
   -1
100
AcDbLine
 10
14.02698921417564
 20
0.1135285053929049
 11
14.02698921417564
 21
0.113528505392904
  0
LINE
  5
181
100
AcDbEntity
  8
0
  6
ByLayer
 62
  256
370
   -1
100
AcDbLine
 10
14.02698921417564
 20
0.113528505392904
 11
14.02698921417563
 21
0.1135285053929032
  0
LINE
  5
182
100
AcDbEntity
  8
0
  6
ByLayer
 62
  256
370
   -1
100
AcDbLine
 10
14.02698921417563
 20
0.1135285053929032
 11
14.02698921417564
 21
0.113528505392904
  0
LINE
  5
183
100
AcDbEntity
  8
0
  6
ByLayer
 62
  256
370
   -1
100
AcDbLine
 10
14.02698921417564
 20
0.113528505392904
 11
14.02698921417563
 21
0.113528505392904
  0
LINE
  5
184
100
AcDbEntity
  8
0
  6
ByLayer
 62
  256
370
   -1
100
AcDbLine
 10
14.02698921417563
 20
0.113528505392904
 11
14.02698921417564
 21
0.113528505392904
  0
LINE
  5
185
100
AcDbEntity
  8
0
  6
ByLayer
 62
  256
370
   -1
100
AcDbLine
 10
14.02698921417564
 20
0.113528505392904
 11
14.02698921417563
 21
0.113528505392904
  0
LINE
  5
186
100
AcDbEntity
  8
0
  6
ByLayer
 62
  256
370
   -1
100
AcDbLine
 10
14.02698921417563
 20
0.113528505392904
 11
14.02698921417563
 21
0.113528505392904
  0
LINE
  5
187
100
AcDbEntity
  8
0
  6
ByLayer
 62
  256
370
   -1
100
AcDbLine
 10
14.02698921417563
 20
0.113528505392904
 11
14.02698921417563
 21
0.113528505392904
  0
LINE
  5
188
100
AcDbEntity
  8
0
  6
ByLayer
 62
  256
370
   -1
100
AcDbLine
 10
14.02698921417563
 20
0.113528505392904
 11
14.02698921417564
 21
0.1135285053929049
  0
LINE
  5
189
100
AcDbEntity
  8
0
  6
ByLayer
 62
  256
370
   -1
100
AcDbLine
 10
14.02698921417564
 20
0.1135285053929049
 11
14.02698921417563
 21
0.113528505392904
  0
LINE
  5
18A
100
AcDbEntity
  8
0
  6
ByLayer
 62
  256
370
   -1
100
AcDbLine
 10
14.02698921417563
 20
0.113528505392904
 11
14.02698921417563
 21
0.1135285053929032
  0
LINE
  5
18B
100
AcDbEntity
  8
0
  6
ByLayer
 62
  256
370
   -1
100
AcDbLine
 10
14.02698921417563
 20
0.1135285053929032
 11
14.02698921417563
 21
0.1135285053929032
  0
LINE
  5
18C
100
AcDbEntity
  8
0
  6
ByLayer
 62
  256
370
   -1
100
AcDbLine
 10
14.02698921417563
 20
0.1135285053929032
 11
14.02698921417563
 21
0.113528505392904
  0
LINE
  5
18D
100
AcDbEntity
  8
0
  6
ByLayer
 62
  256
370
   -1
100
AcDbLine
 10
14.02698921417563
 20
0.113528505392904
 11
14.02698921417563
 21
0.1135285053929032
  0
LINE
  5
18E
100
AcDbEntity
  8
0
  6
ByLayer
 62
  256
370
   -1
100
AcDbLine
 10
14.02698921417563
 20
0.1135285053929032
 11
14.02698921417563
 21
0.113528505392904
  0
LINE
  5
18F
100
AcDbEntity
  8
0
  6
ByLayer
 62
  256
370
   -1
100
AcDbLine
 10
14.02698921417563
 20
0.113528505392904
 11
14.02698921417563
 21
0.113528505392904
  0
LINE
  5
190
100
AcDbEntity
  8
0
  6
ByLayer
 62
  256
370
   -1
100
AcDbLine
 10
14.02698921417563
 20
0.113528505392904
 11
14.02698921417563
 21
0.113528505392904
  0
LINE
  5
191
100
AcDbEntity
  8
0
  6
ByLayer
 62
  256
370
   -1
100
AcDbLine
 10
14.02698921417563
 20
0.113528505392904
 11
14.02698921417563
 21
0.113528505392904
  0
LINE
  5
192
100
AcDbEntity
  8
0
  6
ByLayer
 62
  256
370
   -1
100
AcDbLine
 10
14.02698921417563
 20
0.113528505392904
 11
14.02698921417563
 21
0.113528505392904
  0
LINE
  5
193
100
AcDbEntity
  8
0
  6
ByLayer
 62
  256
370
   -1
100
AcDbLine
 10
14.02698921417563
 20
0.113528505392904
 11
14.02698921417563
 21
0.113528505392904
  0
LINE
  5
194
100
AcDbEntity
  8
0
  6
ByLayer
 62
  256
370
   -1
100
AcDbLine
 10
14.02698921417563
 20
0.113528505392904
 11
14.02698921417563
 21
0.113528505392904
  0
LINE
  5
195
100
AcDbEntity
  8
0
  6
ByLayer
 62
  256
370
   -1
100
AcDbLine
 10
14.02698921417563
 20
0.113528505392904
 11
14.02698921417563
 21
0.113528505392904
  0
LINE
  5
196
100
AcDbEntity
  8
0
  6
ByLayer
 62
  256
370
   -1
100
AcDbLine
 10
14.02698921417563
 20
0.113528505392904
 11
14.02698921417563
 21
0.113528505392904
  0
ENDBLK
  5
5D
330
5B
100
AcDbEntity
  8
0
100
AcDbBlockEnd
  0
BLOCK
  5
5F
330
5E
100
AcDbEntity
  8
0
100
AcDbBlockBegin
  2
Baritone Body as Polylilne
 70
    0
 10
0
 20
0
  3
Baritone Body as Polylilne
  1

  0
INSERT
  5
197
100
AcDbEntity
  8
0
  6
ByLayer
 62
  256
370
   -1
100
AcDbBlockReference
  2
Baritone Shape
 10
15.47301078582437
 20
5.886471494607096
 30
0
 41
1
 42
1
 43
0
 50
0
 70
    1
 71
    1
 44
0
 45
0
  0
ENDBLK
  5
60
330
5E
100
AcDbEntity
  8
0
100
AcDbBlockEnd
  0
BLOCK
  5
62
330
61
100
AcDbEntity
  8
0
100
AcDbBlockBegin
  2
Uke 4-0
 70
    0
 10
0
 20
0
  3
Uke 4-0
  1

  0
SPLINE
  5
198
100
AcDbEntity
  8
0
  6
ByLayer
 62
    0
370
   35
100
AcDbSpline
210
0
220
0
230
0
 70
    8
 71
    3
 72
   21
 73
   17
 74
    0
 42
1e-07
 43
1e-07
 40
0
 40
1
 40
2
 40
3
 40
4
 40
5
 40
6
 40
7
 40
8
 40
9
 40
10
 40
11
 40
12
 40
13
 40
14
 40
15
 40
16
 40
17
 40
18
 40
19
 40
20
 10
-12
 20
-0.02857142857142857
 30
0
 10
-12
 20
-0.02857142857142857
 30
0
 10
-12
 20
-0.02857142857142857
 30
0
 10
-12
 20
-0.02857142857142857
 30
0
 10
-11.9875
 20
0.7625
 30
0
 10
-11.88571428571429
 20
2.257142857142857
 30
0
 10
-10.609375
 20
4.421875
 30
0
 10
-7.15625
 20
4.796875
 30
0
 10
-4.05
 20
1.9375
 30
0
 10
-2.4375
 20
3.09375
 30
0
 10
-0.859375
 20
3.21875
 30
0
 10
-0.1875
 20
2.1875
 30
0
 10
-0.015625
 20
1.4375
 30
0
 10
0
 20
0
 30
0
 10
0
 20
0
 30
0
 10
0
 20
0
 30
0
 10
0
 20
0
 30
0
  0
SPLINE
  5
199
100
AcDbEntity
  8
0
  6
ByLayer
 62
    0
370
   35
100
AcDbSpline
210
0
220
0
230
0
 70
    8
 71
    3
 72
   21
 73
   17
 74
    0
 42
1e-07
 43
1e-07
 40
0
 40
1
 40
2
 40
3
 40
4
 40
5
 40
6
 40
7
 40
8
 40
9
 40
10
 40
11
 40
12
 40
13
 40
14
 40
15
 40
16
 40
17
 40
18
 40
19
 40
20
 10
-12
 20
0.02857142857142857
 30
0
 10
-12
 20
0.02857142857142857
 30
0
 10
-12
 20
0.02857142857142857
 30
0
 10
-12
 20
0.02857142857142857
 30
0
 10
-11.9875
 20
-0.7625
 30
0
 10
-11.88571428571429
 20
-2.257142857142857
 30
0
 10
-10.609375
 20
-4.421875
 30
0
 10
-7.15625
 20
-4.796875
 30
0
 10
-4.05
 20
-1.9375
 30
0
 10
-2.4375
 20
-3.09375
 30
0
 10
-0.859375
 20
-3.21875
 30
0
 10
-0.1875
 20
-2.1875
 30
0
 10
-0.015625
 20
-1.4375
 30
0
 10
0
 20
0
 30
0
 10
0
 20
0
 30
0
 10
0
 20
0
 30
0
 10
0
 20
0
 30
0
  0
ELLIPSE
  5
19A
100
AcDbEntity
  8
0
  6
ByLayer
 62
    0
370
   35
100
AcDbEllipse
 10
-3.63
 20
0
 30
0
 11
-2.415536032914639e-16
 21
-1.315
 31
0
 40
1
 41
1.570796326794897
 42
7.853981633974483
  0
ENDBLK
  5
63
330
61
100
AcDbEntity
  8
0
100
AcDbBlockEnd
  0
BLOCK
  5
65
330
64
100
AcDbEntity
  8
0
100
AcDbBlockBegin
  2
Test-0
 70
    0
 10
0
 20
0
  3
Test-0
  1

  0
SPLINE
  5
19B
100
AcDbEntity
  8
0
  6
ByLayer
 62
    0
370
   35
100
AcDbSpline
210
0
220
0
230
0
 70
    8
 71
    3
 72
   22
 73
   18
 74
    0
 42
1e-07
 43
1e-07
 40
0
 40
1
 40
2
 40
3
 40
4
 40
5
 40
6
 40
7
 40
8
 40
9
 40
10
 40
11
 40
12
 40
13
 40
14
 40
15
 40
16
 40
17
 40
18
 40
19
 40
20
 40
21
 10
-14.015625
 20
0
 30
0
 10
-14.015625
 20
0
 30
0
 10
-14.015625
 20
0
 30
0
 10
-14.015625
 20
0
 30
0
 10
-14.03125
 20
0.546875
 30
0
 10
-13.765625
 20
3.265625
 30
0
 10
-10.765625
 20
5.578125
 30
0
 10
-7.078125
 20
4.203125
 30
0
 10
-4.984375
 20
2.828125
 30
0
 10
-3.640625
 20
2.625
 30
0
 10
-2.140625
 20
3.671875
 30
0
 10
-0.6875
 20
3.40625
 30
0
 10
-0.140625
 20
2.1875
 30
0
 10
-0.015625
 20
1.390625
 30
0
 10
0
 20
0
 30
0
 10
0
 20
0
 30
0
 10
0
 20
0
 30
0
 10
0
 20
0
 30
0
  0
SPLINE
  5
19C
100
AcDbEntity
  8
0
  6
ByLayer
 62
    0
370
   35
100
AcDbSpline
210
0
220
0
230
0
 70
    8
 71
    3
 72
   22
 73
   18
 74
    0
 42
1e-07
 43
1e-07
 40
0
 40
1
 40
2
 40
3
 40
4
 40
5
 40
6
 40
7
 40
8
 40
9
 40
10
 40
11
 40
12
 40
13
 40
14
 40
15
 40
16
 40
17
 40
18
 40
19
 40
20
 40
21
 10
-14.015625
 20
0
 30
0
 10
-14.015625
 20
0
 30
0
 10
-14.015625
 20
0
 30
0
 10
-14.015625
 20
0
 30
0
 10
-14.03125
 20
-0.546875
 30
0
 10
-13.765625
 20
-3.265625
 30
0
 10
-10.765625
 20
-5.578125
 30
0
 10
-7.078125
 20
-4.203125
 30
0
 10
-4.984375
 20
-2.828125
 30
0
 10
-3.640625
 20
-2.625
 30
0
 10
-2.140625
 20
-3.671875
 30
0
 10
-0.6875
 20
-3.40625
 30
0
 10
-0.140625
 20
-2.1875
 30
0
 10
-0.015625
 20
-1.390625
 30
0
 10
0
 20
0
 30
0
 10
0
 20
0
 30
0
 10
0
 20
0
 30
0
 10
0
 20
0
 30
0
  0
ELLIPSE
  5
19D
100
AcDbEntity
  8
0
  6
ByLayer
 62
    0
370
   35
100
AcDbEllipse
 10
-4.13
 20
0
 30
0
 11
1.405
 21
0
 31
0
 40
1
 41
6.283185307179586
 42
12.56637061435917
  0
ENDBLK
  5
66
330
64
100
AcDbEntity
  8
0
100
AcDbBlockEnd
  0
BLOCK
  5
68
330
67
100
AcDbEntity
  8
0
100
AcDbBlockBegin
  2
Baritone Shape-0
 70
    0
 10
0
 20
0
  3
Baritone Shape-0
  1

  0
ELLIPSE
  5
19E
100
AcDbEntity
  8
0
  6
ByLayer
 62
  256
370
   -1
100
AcDbEllipse
 10
9.896989214175635
 20
0.113528505392904
 30
0
 11
1.405
 21
0
 31
0
 40
1
 41
0
 42
6.283185307179586
  0
LINE
  5
19F
100
AcDbEntity
  8
0
  6
ByLayer
 62
  256
370
   -1
100
AcDbLine
 10
0.01136421417563405
 20
0.113528505392904
 11
0.01136421417563405
 21
0.113528505392904
  0
LINE
  5
1A0
100
AcDbEntity
  8
0
  6
ByLayer
 62
  256
370
   -1
100
AcDbLine
 10
0.01136421417563405
 20
0.113528505392904
 11
0.01136421417563405
 21
0.113528505392904
  0
LINE
  5
1A1
100
AcDbEntity
  8
0
  6
ByLayer
 62
  256
370
   -1
100
AcDbLine
 10
0.01136421417563405
 20
0.113528505392904
 11
0.01136421417563405
 21
0.113528505392904
  0
LINE
  5
1A2
100
AcDbEntity
  8
0
  6
ByLayer
 62
  256
370
   -1
100
AcDbLine
 10
0.01136421417563405
 20
0.113528505392904
 11
0.01136421417563405
 21
0.113528505392904
  0
LINE
  5
1A3
100
AcDbEntity
  8
0
  6
ByLayer
 62
  256
370
   -1
100
AcDbLine
 10
0.01136421417563405
 20
0.113528505392904
 11
0.01136421417563405
 21
0.113528505392904
  0
LINE
  5
1A4
100
AcDbEntity
  8
0
  6
ByLayer
 62
  256
370
   -1
100
AcDbLine
 10
0.01136421417563405
 20
0.113528505392904
 11
0.01136421417563582
 21
0.113528505392904
  0
LINE
  5
1A5
100
AcDbEntity
  8
0
  6
ByLayer
 62
  256
370
   -1
100
AcDbLine
 10
0.01136421417563582
 20
0.113528505392904
 11
0.01136421417563582
 21
0.113528505392904
  0
LINE
  5
1A6
100
AcDbEntity
  8
0
  6
ByLayer
 62
  256
370
   -1
100
AcDbLine
 10
0.01136421417563582
 20
0.113528505392904
 11
0.01136421417563405
 21
0.113528505392904
  0
LINE
  5
1A7
100
AcDbEntity
  8
0
  6
ByLayer
 62
  256
370
   -1
100
AcDbLine
 10
0.01136421417563405
 20
0.113528505392904
 11
0.01136421417563405
 21
0.113528505392904
  0
LINE
  5
1A8
100
AcDbEntity
  8
0
  6
ByLayer
 62
  256
370
   -1
100
AcDbLine
 10
0.01136421417563405
 20
0.113528505392904
 11
0.01136421417563227
 21
0.113528505392904
  0
LINE
  5
1A9
100
AcDbEntity
  8
0
  6
ByLayer
 62
  256
370
   -1
100
AcDbLine
 10
0.01136421417563227
 20
0.113528505392904
 11
0.01136421417563405
 21
0.113528505392904
  0
LINE
  5
1AA
100
AcDbEntity
  8
0
  6
ByLayer
 62
  256
370
   -1
100
AcDbLine
 10
0.01136421417563405
 20
0.113528505392904
 11
0.01136421417563405
 21
0.113528505392904
  0
LINE
  5
1AB
100
AcDbEntity
  8
0
  6
ByLayer
 62
  256
370
   -1
100
AcDbLine
 10
0.01136421417563405
 20
0.113528505392904
 11
0.01136421417563405
 21
0.1135285053929032
  0
LINE
  5
1AC
100
AcDbEntity
  8
0
  6
ByLayer
 62
  256
370
   -1
100
AcDbLine
 10
0.01136421417563405
 20
0.1135285053929032
 11
0.01136421417563582
 21
0.1135285053929049
  0
LINE
  5
1AD
100
AcDbEntity
  8
0
  6
ByLayer
 62
  256
370
   -1
100
AcDbLine
 10
0.01136421417563582
 20
0.1135285053929049
 11
0.01136421417563582
 21
0.1135285053929049
  0
LINE
  5
1AE
100
AcDbEntity
  8
0
  6
ByLayer
 62
  256
370
   -1
100
AcDbLine
 10
0.01136421417563582
 20
0.1135285053929049
 11
0.01136421417563405
 21
0.113528505392904
  0
LINE
  5
1AF
100
AcDbEntity
  8
0
  6
ByLayer
 62
  256
370
   -1
100
AcDbLine
 10
0.01136421417563405
 20
0.113528505392904
 11
0.01136421417563582
 21
0.1135285053929049
  0
LINE
  5
1B0
100
AcDbEntity
  8
0
  6
ByLayer
 62
  256
370
   -1
100
AcDbLine
 10
0.01136421417563582
 20
0.1135285053929049
 11
0.01136421417563405
 21
0.113528505392904
  0
LINE
  5
1B1
100
AcDbEntity
  8
0
  6
ByLayer
 62
  256
370
   -1
100
AcDbLine
 10
0.01136421417563405
 20
0.113528505392904
 11
0.01136421417563405
 21
0.1135285053929049
  0
LINE
  5
1B2
100
AcDbEntity
  8
0
  6
ByLayer
 62
  256
370
   -1
100
AcDbLine
 10
0.01136421417563405
 20
0.1135285053929049
 11
0.01136421417563227
 21
0.113528505392904
  0
LINE
  5
1B3
100
AcDbEntity
  8
0
  6
ByLayer
 62
  256
370
   -1
100
AcDbLine
 10
0.01136421417563227
 20
0.113528505392904
 11
0.01136421417563582
 21
0.1135285053929058
  0
LINE
  5
1B4
100
AcDbEntity
  8
0
  6
ByLayer
 62
  256
370
   -1
100
AcDbLine
 10
0.01136421417563582
 20
0.1135285053929058
 11
0.01136421417563582
 21
0.113528505392904
  0
LINE
  5
1B5
100
AcDbEntity
  8
0
  6
ByLayer
 62
  256
370
   -1
100
AcDbLine
 10
0.01136421417563582
 20
0.113528505392904
 11
0.01136421417563405
 21
0.113528505392904
  0
LINE
  5
1B6
100
AcDbEntity
  8
0
  6
ByLayer
 62
  256
370
   -1
100
AcDbLine
 10
0.01136421417563405
 20
0.113528505392904
 11
0.01136421417563582
 21
0.1135285053929032
  0
LINE
  5
1B7
100
AcDbEntity
  8
0
  6
ByLayer
 62
  256
370
   -1
100
AcDbLine
 10
0.01136421417563582
 20
0.1135285053929032
 11
0.01136421417563582
 21
0.1135285053929049
  0
LINE
  5
1B8
100
AcDbEntity
  8
0
  6
ByLayer
 62
  256
370
   -1
100
AcDbLine
 10
0.01136421417563582
 20
0.1135285053929049
 11
0.01136421417563405
 21
0.113528505392904
  0
LINE
  5
1B9
100
AcDbEntity
  8
0
  6
ByLayer
 62
  256
370
   -1
100
AcDbLine
 10
0.01136421417563405
 20
0.113528505392904
 11
0.01136056646305228
 21
0.1136561753332783
  0
LINE
  5
1BA
100
AcDbEntity
  8
0
  6
ByLayer
 62
  256
370
   -1
100
AcDbLine
 10
0.01136056646305228
 20
0.1136561753332783
 11
0.01131910490184929
 21
0.1151073299753742
  0
LINE
  5
1BB
100
AcDbEntity
  8
0
  6
ByLayer
 62
  256
370
   -1
100
AcDbLine
 10
0.01131910490184929
 20
0.1151073299753742
 11
0.01119045624171555
 21
0.1196100330800114
  0
LINE
  5
1BC
100
AcDbEntity
  8
0
  6
ByLayer
 62
  256
370
   -1
100
AcDbLine
 10
0.01119045624171555
 20
0.1196100330800114
 11
0.01092513591299138
 21
0.1288962445853867
  0
LINE
  5
1BD
100
AcDbEntity
  8
0
  6
ByLayer
 62
  256
370
   -1
100
AcDbLine
 10
0.01092513591299138
 20
0.1288962445853867
 11
0.01047365934600997
 21
0.1446979244296989
  0
LINE
  5
1BE
100
AcDbEntity
  8
0
  6
ByLayer
 62
  256
370
   -1
100
AcDbLine
 10
0.01047365934600997
 20
0.1446979244296989
 11
0.009786541971111617
 21
0.1687470325511491
  0
LINE
  5
1BF
100
AcDbEntity
  8
0
  6
ByLayer
 62
  256
370
   -1
100
AcDbLine
 10
0.009786541971111617
 20
0.1687470325511491
 11
0.008814299218634858
 21
0.2027755288879343
  0
LINE
  5
1C0
100
AcDbEntity
  8
0
  6
ByLayer
 62
  256
370
   -1
100
AcDbLine
 10
0.008814299218634858
 20
0.2027755288879343
 11
0.007649935291651033
 21
0.2490069596442028
  0
LINE
  5
1C1
100
AcDbEntity
  8
0
  6
ByLayer
 62
  256
370
   -1
100
AcDbLine
 10
0.007649935291651033
 20
0.2490069596442028
 11
0.007044057890528421
 21
0.3119336030897593
  0
LINE
  5
1C2
100
AcDbEntity
  8
0
  6
ByLayer
 62
  256
370
   -1
100
AcDbLine
 10
0.007044057890528421
 20
0.3119336030897593
 11
0.007936856027766837
 21
0.3967017930212497
  0
LINE
  5
1C3
100
AcDbEntity
  8
0
  6
ByLayer
 62
  256
370
   -1
100
AcDbLine
 10
0.007936856027766837
 20
0.3967017930212497
 11
0.01126853652695736
 21
0.5084579246836114
  0
LINE
  5
1C4
100
AcDbEntity
  8
0
  6
ByLayer
 62
  256
370
   -1
100
AcDbLine
 10
0.01126853652695736
 20
0.5084579246836114
 11
0.01797930621169641
 21
0.6523483933217733
  0
LINE
  5
1C5
100
AcDbEntity
  8
0
  6
ByLayer
 62
  256
370
   -1
100
AcDbLine
 10
0.01797930621169641
 20
0.6523483933217733
 11
0.02900937190557507
 21
0.8335195941806717
  0
LINE
  5
1C6
100
AcDbEntity
  8
0
  6
ByLayer
 62
  256
370
   -1
100
AcDbLine
 10
0.02900937190557507
 20
0.8335195941806717
 11
0.04530225863948267
 21
1.05711145440551
  0
LINE
  5
1C7
100
AcDbEntity
  8
0
  6
ByLayer
 62
  256
370
   -1
100
AcDbLine
 10
0.04530225863948267
 20
1.05711145440551
 11
0.06948714075025819
 21
1.324978106479901
  0
LINE
  5
1C8
100
AcDbEntity
  8
0
  6
ByLayer
 62
  256
370
   -1
100
AcDbLine
 10
0.06948714075025819
 20
1.324978106479901
 11
0.1086163628992018
 21
1.630351705950627
  0
LINE
  5
1C9
100
AcDbEntity
  8
0
  6
ByLayer
 62
  256
370
   -1
100
AcDbLine
 10
0.1086163628992018
 20
1.630351705950627
 11
0.1704590025233799
 21
1.965067298823326
  0
LINE
  5
1CA
100
AcDbEntity
  8
0
  6
ByLayer
 62
  256
370
   -1
100
AcDbLine
 10
0.1704590025233799
 20
1.965067298823326
 11
0.2627841370598496
 21
2.320959931103631
  0
LINE
  5
1CB
100
AcDbEntity
  8
0
  6
ByLayer
 62
  256
370
   -1
100
AcDbLine
 10
0.2627841370598496
 20
2.320959931103631
 11
0.3933608439456808
 21
2.689864648797179
  0
LINE
  5
1CC
100
AcDbEntity
  8
0
  6
ByLayer
 62
  256
370
   -1
100
AcDbLine
 10
0.3933608439456808
 20
2.689864648797179
 11
0.5699582006179309
 21
3.063616497909604
  0
LINE
  5
1CD
100
AcDbEntity
  8
0
  6
ByLayer
 62
  256
370
   -1
100
AcDbLine
 10
0.5699582006179309
 20
3.063616497909604
 11
0.8002573119453782
 21
3.434036778732747
  0
LINE
  5
1CE
100
AcDbEntity
  8
0
  6
ByLayer
 62
  256
370
   -1
100
AcDbLine
 10
0.8002573119453782
 20
3.434036778732747
 11
1.086660928699418
 21
3.792122048730733
  0
LINE
  5
1CF
100
AcDbEntity
  8
0
  6
ByLayer
 62
  256
370
   -1
100
AcDbLine
 10
1.086660928699418
 20
3.792122048730733
 11
1.423390352800551
 21
4.127590513984734
  0
LINE
  5
1D0
100
AcDbEntity
  8
0
  6
ByLayer
 62
  256
370
   -1
100
AcDbLine
 10
1.423390352800551
 20
4.127590513984734
 11
1.803963105622936
 21
4.430050414865554
  0
LINE
  5
1D1
100
AcDbEntity
  8
0
  6
ByLayer
 62
  256
370
   -1
100
AcDbLine
 10
1.803963105622936
 20
4.430050414865554
 11
2.221896708540752
 21
4.689109991744007
  0
LINE
  5
1D2
100
AcDbEntity
  8
0
  6
ByLayer
 62
  256
370
   -1
100
AcDbLine
 10
2.221896708540752
 20
4.689109991744007
 11
2.670708682928163
 21
4.894377484990897
  0
LINE
  5
1D3
100
AcDbEntity
  8
0
  6
ByLayer
 62
  256
370
   -1
100
AcDbLine
 10
2.670708682928163
 20
4.894377484990897
 11
3.143916550159345
 21
5.035461134977033
  0
LINE
  5
1D4
100
AcDbEntity
  8
0
  6
ByLayer
 62
  256
370
   -1
100
AcDbLine
 10
3.143916550159345
 20
5.035461134977033
 11
3.6350200516813
 21
5.102497838574515
  0
LINE
  5
1D5
100
AcDbEntity
  8
0
  6
ByLayer
 62
  256
370
   -1
100
AcDbLine
 10
3.6350200516813
 20
5.102497838574515
 11
4.137152323139853
 21
5.096524905143332
  0
LINE
  5
1D6
100
AcDbEntity
  8
0
  6
ByLayer
 62
  256
370
   -1
100
AcDbLine
 10
4.137152323139853
 20
5.096524905143332
 11
4.643101975686674
 21
5.028823505669906
  0
LINE
  5
1D7
100
AcDbEntity
  8
0
  6
ByLayer
 62
  256
370
   -1
100
AcDbLine
 10
4.643101975686674
 20
5.028823505669906
 11
5.145644262151011
 21
4.91107199859466
  0
LINE
  5
1D8
100
AcDbEntity
  8
0
  6
ByLayer
 62
  256
370
   -1
100
AcDbLine
 10
5.145644262151011
 20
4.91107199859466
 11
5.637554435362068
 21
4.754948742358013
  0
LINE
  5
1D9
100
AcDbEntity
  8
0
  6
ByLayer
 62
  256
370
   -1
100
AcDbLine
 10
5.637554435362068
 20
4.754948742358013
 11
6.111607748149092
 21
4.572132095400394
  0
LINE
  5
1DA
100
AcDbEntity
  8
0
  6
ByLayer
 62
  256
370
   -1
100
AcDbLine
 10
6.111607748149092
 20
4.572132095400394
 11
6.560579453341303
 21
4.374300416162229
  0
LINE
  5
1DB
100
AcDbEntity
  8
0
  6
ByLayer
 62
  256
370
   -1
100
AcDbLine
 10
6.560579453341303
 20
4.374300416162229
 11
6.977845928277931
 21
4.172648157853396
  0
LINE
  5
1DC
100
AcDbEntity
  8
0
  6
ByLayer
 62
  256
370
   -1
100
AcDbLine
 10
6.977845928277931
 20
4.172648157853396
 11
7.362688997484382
 21
3.973615888698883
  0
LINE
  5
1DD
100
AcDbEntity
  8
0
  6
ByLayer
 62
  256
370
   -1
100
AcDbLine
 10
7.362688997484382
 20
3.973615888698883
 11
7.717742355753826
 21
3.780945921358168
  0
LINE
  5
1DE
100
AcDbEntity
  8
0
  6
ByLayer
 62
  256
370
   -1
100
AcDbLine
 10
7.717742355753826
 20
3.780945921358168
 11
8.04567816984804
 21
3.598349598555951
  0
LINE
  5
1DF
100
AcDbEntity
  8
0
  6
ByLayer
 62
  256
370
   -1
100
AcDbLine
 10
8.04567816984804
 20
3.598349598555951
 11
8.349168606528826
 21
3.429538263016949
  0
LINE
  5
1E0
100
AcDbEntity
  8
0
  6
ByLayer
 62
  256
370
   -1
100
AcDbLine
 10
8.349168606528826
 20
3.429538263016949
 11
8.630885832557967
 21
3.278223257465869
  0
LINE
  5
1E1
100
AcDbEntity
  8
0
  6
ByLayer
 62
  256
370
   -1
100
AcDbLine
 10
8.630885832557967
 20
3.278223257465869
 11
8.893502014697267
 21
3.148115924627427
  0
LINE
  5
1E2
100
AcDbEntity
  8
0
  6
ByLayer
 62
  256
370
   -1
100
AcDbLine
 10
8.893502014697267
 20
3.148115924627427
 11
9.139713752970811
 21
3.042500025135985
  0
LINE
  5
1E3
100
AcDbEntity
  8
0
  6
ByLayer
 62
  256
370
   -1
100
AcDbLine
 10
9.139713752970811
 20
3.042500025135985
 11
9.372347896389863
 21
2.962379962350586
  0
LINE
  5
1E4
100
AcDbEntity
  8
0
  6
ByLayer
 62
  256
370
   -1
100
AcDbLine
 10
9.372347896389863
 20
2.962379962350586
 11
9.594274521497118
 21
2.908003657830247
  0
LINE
  5
1E5
100
AcDbEntity
  8
0
  6
ByLayer
 62
  256
370
   -1
100
AcDbLine
 10
9.594274521497118
 20
2.908003657830247
 11
9.808363733333008
 21
2.879618534423284
  0
LINE
  5
1E6
100
AcDbEntity
  8
0
  6
ByLayer
 62
  256
370
   -1
100
AcDbLine
 10
9.808363733333008
 20
2.879618534423284
 11
10.01748563693799
 21
2.87747201497801
  0
LINE
  5
1E7
100
AcDbEntity
  8
0
  6
ByLayer
 62
  256
370
   -1
100
AcDbLine
 10
10.01748563693799
 20
2.87747201497801
 11
10.22451033735249
 21
2.901811522342739
  0
LINE
  5
1E8
100
AcDbEntity
  8
0
  6
ByLayer
 62
  256
370
   -1
100
AcDbLine
 10
10.22451033735249
 20
2.901811522342739
 11
10.43230743378182
 21
2.952883275335656
  0
LINE
  5
1E9
100
AcDbEntity
  8
0
  6
ByLayer
 62
  256
370
   -1
100
AcDbLine
 10
10.43230743378182
 20
2.952883275335656
 11
10.6429792367484
 21
3.029107129572034
  0
LINE
  5
1EA
100
AcDbEntity
  8
0
  6
ByLayer
 62
  256
370
   -1
100
AcDbLine
 10
10.6429792367484
 20
3.029107129572034
 11
10.85631613725254
 21
3.123399920959577
  0
LINE
  5
1EB
100
AcDbEntity
  8
0
  6
ByLayer
 62
  256
370
   -1
100
AcDbLine
 10
10.85631613725254
 20
3.123399920959577
 11
11.07167483588861
 21
3.227646180073585
  0
LINE
  5
1EC
100
AcDbEntity
  8
0
  6
ByLayer
 62
  256
370
   -1
100
AcDbLine
 10
11.07167483588861
 20
3.227646180073585
 11
11.28841203325102
 21
3.33373043748936
  0
LINE
  5
1ED
100
AcDbEntity
  8
0
  6
ByLayer
 62
  256
370
   -1
100
AcDbLine
 10
11.28841203325102
 20
3.33373043748936
 11
11.50588442993411
 21
3.43353722378219
  0
LINE
  5
1EE
100
AcDbEntity
  8
0
  6
ByLayer
 62
  256
370
   -1
100
AcDbLine
 10
11.50588442993411
 20
3.43353722378219
 11
11.7234487265323
 21
3.51895106952738
  0
LINE
  5
1EF
100
AcDbEntity
  8
0
  6
ByLayer
 62
  256
370
   -1
100
AcDbLine
 10
11.7234487265323
 20
3.51895106952738
 11
11.94045354452655
 21
3.581892476590904
  0
LINE
  5
1F0
100
AcDbEntity
  8
0
  6
ByLayer
 62
  256
370
   -1
100
AcDbLine
 10
11.94045354452655
 20
3.581892476590904
 11
12.15554361264159
 21
3.61741594553907
  0
LINE
  5
1F1
100
AcDbEntity
  8
0
  6
ByLayer
 62
  256
370
   -1
100
AcDbLine
 10
12.15554361264159
 20
3.61741594553907
 11
12.36612351569309
 21
3.626097570057275
  0
LINE
  5
1F2
100
AcDbEntity
  8
0
  6
ByLayer
 62
  256
370
   -1
100
AcDbLine
 10
12.36612351569309
 20
3.626097570057275
 11
12.56947160234957
 21
3.609075495247761
  0
LINE
  5
1F3
100
AcDbEntity
  8
0
  6
ByLayer
 62
  256
370
   -1
100
AcDbLine
 10
12.56947160234957
 20
3.609075495247761
 11
12.76286622127959
 21
3.567487866212782
  0
LINE
  5
1F4
100
AcDbEntity
  8
0
  6
ByLayer
 62
  256
370
   -1
100
AcDbLine
 10
12.76286622127959
 20
3.567487866212782
 11
12.9435857211517
 21
3.502472828054578
  0
LINE
  5
1F5
100
AcDbEntity
  8
0
  6
ByLayer
 62
  256
370
   -1
100
AcDbLine
 10
12.9435857211517
 20
3.502472828054578
 11
13.10890845063443
 21
3.41516852587539
  0
LINE
  5
1F6
100
AcDbEntity
  8
0
  6
ByLayer
 62
  256
370
   -1
100
AcDbLine
 10
13.10890845063443
 20
3.41516852587539
 11
13.25618934611168
 21
3.306770990841392
  0
LINE
  5
1F7
100
AcDbEntity
  8
0
  6
ByLayer
 62
  256
370
   -1
100
AcDbLine
 10
13.25618934611168
 20
3.306770990841392
 11
13.38475861773386
 21
3.179969193593455
  0
LINE
  5
1F8
100
AcDbEntity
  8
0
  6
ByLayer
 62
  256
370
   -1
100
AcDbLine
 10
13.38475861773386
 20
3.179969193593455
 11
13.49604834891141
 21
3.039040729910826
  0
LINE
  5
1F9
100
AcDbEntity
  8
0
  6
ByLayer
 62
  256
370
   -1
100
AcDbLine
 10
13.49604834891141
 20
3.039040729910826
 11
13.59159256130387
 21
2.888340241923827
  0
LINE
  5
1FA
100
AcDbEntity
  8
0
  6
ByLayer
 62
  256
370
   -1
100
AcDbLine
 10
13.59159256130387
 20
2.888340241923827
 11
13.67292527657078
 21
2.732222371762787
  0
LINE
  5
1FB
100
AcDbEntity
  8
0
  6
ByLayer
 62
  256
370
   -1
100
AcDbLine
 10
13.67292527657078
 20
2.732222371762787
 11
13.74158051637169
 21
2.575041761558039
  0
LINE
  5
1FC
100
AcDbEntity
  8
0
  6
ByLayer
 62
  256
370
   -1
100
AcDbLine
 10
13.74158051637169
 20
2.575041761558039
 11
13.79909230236615
 21
2.421153053439906
  0
LINE
  5
1FD
100
AcDbEntity
  8
0
  6
ByLayer
 62
  256
370
   -1
100
AcDbLine
 10
13.79909230236615
 20
2.421153053439906
 11
13.84696777570673
 21
2.274537006123489
  0
LINE
  5
1FE
100
AcDbEntity
  8
0
  6
ByLayer
 62
  256
370
   -1
100
AcDbLine
 10
13.84696777570673
 20
2.274537006123489
 11
13.88640159165239
 21
2.134827983621832
  0
LINE
  5
1FF
100
AcDbEntity
  8
0
  6
ByLayer
 62
  256
370
   -1
100
AcDbLine
 10
13.88640159165239
 20
2.134827983621832
 11
13.91838680165975
 21
1.998856224333758
  0
LINE
  5
200
100
AcDbEntity
  8
0
  6
ByLayer
 62
  256
370
   -1
100
AcDbLine
 10
13.91838680165975
 20
1.998856224333758
 11
13.94391309712208
 21
1.863405231231186
  0
LINE
  5
201
100
AcDbEntity
  8
0
  6
ByLayer
 62
  256
370
   -1
100
AcDbLine
 10
13.94391309712208
 20
1.863405231231186
 11
13.96397016943262
 21
1.725258507286026
  0
LINE
  5
202
100
AcDbEntity
  8
0
  6
ByLayer
 62
  256
370
   -1
100
AcDbLine
 10
13.96397016943262
 20
1.725258507286026
 11
13.97954770998464
 21
1.581199555470201
  0
LINE
  5
203
100
AcDbEntity
  8
0
  6
ByLayer
 62
  256
370
   -1
100
AcDbLine
 10
13.97954770998464
 20
1.581199555470201
 11
13.99163541017139
 21
1.428011878755627
  0
LINE
  5
204
100
AcDbEntity
  8
0
  6
ByLayer
 62
  256
370
   -1
100
AcDbLine
 10
13.99163541017139
 20
1.428011878755627
 11
14.0011502493654
 21
1.263476173541361
  0
LINE
  5
205
100
AcDbEntity
  8
0
  6
ByLayer
 62
  256
370
   -1
100
AcDbLine
 10
14.0011502493654
 20
1.263476173541361
 11
14.00856047951498
 21
1.091527112330065
  0
LINE
  5
206
100
AcDbEntity
  8
0
  6
ByLayer
 62
  256
370
   -1
100
AcDbLine
 10
14.00856047951498
 20
1.091527112330065
 11
14.01416334466782
 21
0.918444618832682
  0
LINE
  5
207
100
AcDbEntity
  8
0
  6
ByLayer
 62
  256
370
   -1
100
AcDbLine
 10
14.01416334466782
 20
0.918444618832682
 11
14.01825575224191
 21
0.7505132333963909
  0
LINE
  5
208
100
AcDbEntity
  8
0
  6
ByLayer
 62
  256
370
   -1
100
AcDbLine
 10
14.01825575224191
 20
0.7505132333963909
 11
14.02113460965522
 21
0.5940174963683669
  0
LINE
  5
209
100
AcDbEntity
  8
0
  6
ByLayer
 62
  256
370
   -1
100
AcDbLine
 10
14.02113460965522
 20
0.5940174963683669
 11
14.02309682432572
 21
0.4552419480957903
  0
LINE
  5
20A
100
AcDbEntity
  8
0
  6
ByLayer
 62
  256
370
   -1
100
AcDbLine
 10
14.02309682432572
 20
0.4552419480957903
 11
14.02443929921864
 21
0.3404709365659953
  0
LINE
  5
20B
100
AcDbEntity
  8
0
  6
ByLayer
 62
  256
370
   -1
100
AcDbLine
 10
14.02443929921864
 20
0.3404709365659953
 11
14.02541154197112
 21
0.2539413315953114
  0
LINE
  5
20C
100
AcDbEntity
  8
0
  6
ByLayer
 62
  256
370
   -1
100
AcDbLine
 10
14.02541154197112
 20
0.2539413315953114
 11
14.02609865934601
 21
0.1927878852293361
  0
LINE
  5
20D
100
AcDbEntity
  8
0
  6
ByLayer
 62
  256
370
   -1
100
AcDbLine
 10
14.02609865934601
 20
0.1927878852293361
 11
14.026550135913
 21
0.1526064707680801
  0
LINE
  5
20E
100
AcDbEntity
  8
0
  6
ByLayer
 62
  256
370
   -1
100
AcDbLine
 10
14.026550135913
 20
0.1526064707680801
 11
14.02681545624172
 21
0.1289929615115506
  0
LINE
  5
20F
100
AcDbEntity
  8
0
  6
ByLayer
 62
  256
370
   -1
100
AcDbLine
 10
14.02681545624172
 20
0.1289929615115506
 11
14.02694410490185
 21
0.1175432307597601
  0
LINE
  5
210
100
AcDbEntity
  8
0
  6
ByLayer
 62
  256
370
   -1
100
AcDbLine
 10
14.02694410490185
 20
0.1175432307597601
 11
14.02698556646305
 21
0.113853151812715
  0
LINE
  5
211
100
AcDbEntity
  8
0
  6
ByLayer
 62
  256
370
   -1
100
AcDbLine
 10
14.02698556646305
 20
0.113853151812715
 11
14.02698921417564
 21
0.1135285053929049
  0
LINE
  5
212
100
AcDbEntity
  8
0
  6
ByLayer
 62
  256
370
   -1
100
AcDbLine
 10
14.02698921417564
 20
0.1135285053929049
 11
14.02698921417564
 21
0.113528505392904
  0
LINE
  5
213
100
AcDbEntity
  8
0
  6
ByLayer
 62
  256
370
   -1
100
AcDbLine
 10
14.02698921417564
 20
0.113528505392904
 11
14.02698921417563
 21
0.113528505392904
  0
LINE
  5
214
100
AcDbEntity
  8
0
  6
ByLayer
 62
  256
370
   -1
100
AcDbLine
 10
14.02698921417563
 20
0.113528505392904
 11
14.02698921417563
 21
0.113528505392904
  0
LINE
  5
215
100
AcDbEntity
  8
0
  6
ByLayer
 62
  256
370
   -1
100
AcDbLine
 10
14.02698921417563
 20
0.113528505392904
 11
14.02698921417564
 21
0.1135285053929049
  0
LINE
  5
216
100
AcDbEntity
  8
0
  6
ByLayer
 62
  256
370
   -1
100
AcDbLine
 10
14.02698921417564
 20
0.1135285053929049
 11
14.02698921417564
 21
0.113528505392904
  0
LINE
  5
217
100
AcDbEntity
  8
0
  6
ByLayer
 62
  256
370
   -1
100
AcDbLine
 10
14.02698921417564
 20
0.113528505392904
 11
14.02698921417563
 21
0.1135285053929032
  0
LINE
  5
218
100
AcDbEntity
  8
0
  6
ByLayer
 62
  256
370
   -1
100
AcDbLine
 10
14.02698921417563
 20
0.1135285053929032
 11
14.02698921417564
 21
0.113528505392904
  0
LINE
  5
219
100
AcDbEntity
  8
0
  6
ByLayer
 62
  256
370
   -1
100
AcDbLine
 10
14.02698921417564
 20
0.113528505392904
 11
14.02698921417563
 21
0.113528505392904
  0
LINE
  5
21A
100
AcDbEntity
  8
0
  6
ByLayer
 62
  256
370
   -1
100
AcDbLine
 10
14.02698921417563
 20
0.113528505392904
 11
14.02698921417564
 21
0.113528505392904
  0
LINE
  5
21B
100
AcDbEntity
  8
0
  6
ByLayer
 62
  256
370
   -1
100
AcDbLine
 10
14.02698921417564
 20
0.113528505392904
 11
14.02698921417563
 21
0.113528505392904
  0
LINE
  5
21C
100
AcDbEntity
  8
0
  6
ByLayer
 62
  256
370
   -1
100
AcDbLine
 10
14.02698921417563
 20
0.113528505392904
 11
14.02698921417563
 21
0.113528505392904
  0
LINE
  5
21D
100
AcDbEntity
  8
0
  6
ByLayer
 62
  256
370
   -1
100
AcDbLine
 10
14.02698921417563
 20
0.113528505392904
 11
14.02698921417563
 21
0.113528505392904
  0
LINE
  5
21E
100
AcDbEntity
  8
0
  6
ByLayer
 62
  256
370
   -1
100
AcDbLine
 10
14.02698921417563
 20
0.113528505392904
 11
14.02698921417564
 21
0.1135285053929049
  0
LINE
  5
21F
100
AcDbEntity
  8
0
  6
ByLayer
 62
  256
370
   -1
100
AcDbLine
 10
14.02698921417564
 20
0.1135285053929049
 11
14.02698921417563
 21
0.113528505392904
  0
LINE
  5
220
100
AcDbEntity
  8
0
  6
ByLayer
 62
  256
370
   -1
100
AcDbLine
 10
14.02698921417563
 20
0.113528505392904
 11
14.02698921417563
 21
0.1135285053929032
  0
LINE
  5
221
100
AcDbEntity
  8
0
  6
ByLayer
 62
  256
370
   -1
100
AcDbLine
 10
14.02698921417563
 20
0.1135285053929032
 11
14.02698921417563
 21
0.1135285053929032
  0
LINE
  5
222
100
AcDbEntity
  8
0
  6
ByLayer
 62
  256
370
   -1
100
AcDbLine
 10
14.02698921417563
 20
0.1135285053929032
 11
14.02698921417563
 21
0.113528505392904
  0
LINE
  5
223
100
AcDbEntity
  8
0
  6
ByLayer
 62
  256
370
   -1
100
AcDbLine
 10
14.02698921417563
 20
0.113528505392904
 11
14.02698921417563
 21
0.1135285053929032
  0
LINE
  5
224
100
AcDbEntity
  8
0
  6
ByLayer
 62
  256
370
   -1
100
AcDbLine
 10
14.02698921417563
 20
0.1135285053929032
 11
14.02698921417563
 21
0.113528505392904
  0
LINE
  5
225
100
AcDbEntity
  8
0
  6
ByLayer
 62
  256
370
   -1
100
AcDbLine
 10
14.02698921417563
 20
0.113528505392904
 11
14.02698921417563
 21
0.113528505392904
  0
LINE
  5
226
100
AcDbEntity
  8
0
  6
ByLayer
 62
  256
370
   -1
100
AcDbLine
 10
14.02698921417563
 20
0.113528505392904
 11
14.02698921417563
 21
0.113528505392904
  0
LINE
  5
227
100
AcDbEntity
  8
0
  6
ByLayer
 62
  256
370
   -1
100
AcDbLine
 10
14.02698921417563
 20
0.113528505392904
 11
14.02698921417563
 21
0.113528505392904
  0
LINE
  5
228
100
AcDbEntity
  8
0
  6
ByLayer
 62
  256
370
   -1
100
AcDbLine
 10
14.02698921417563
 20
0.113528505392904
 11
14.02698921417563
 21
0.113528505392904
  0
LINE
  5
229
100
AcDbEntity
  8
0
  6
ByLayer
 62
  256
370
   -1
100
AcDbLine
 10
14.02698921417563
 20
0.113528505392904
 11
14.02698921417563
 21
0.113528505392904
  0
LINE
  5
22A
100
AcDbEntity
  8
0
  6
ByLayer
 62
  256
370
   -1
100
AcDbLine
 10
14.02698921417563
 20
0.113528505392904
 11
14.02698921417563
 21
0.113528505392904
  0
LINE
  5
22B
100
AcDbEntity
  8
0
  6
ByLayer
 62
  256
370
   -1
100
AcDbLine
 10
14.02698921417563
 20
0.113528505392904
 11
14.02698921417563
 21
0.113528505392904
  0
LINE
  5
22C
100
AcDbEntity
  8
0
  6
ByLayer
 62
  256
370
   -1
100
AcDbLine
 10
14.02698921417563
 20
0.113528505392904
 11
14.02698921417563
 21
0.113528505392904
  0
LINE
  5
22D
100
AcDbEntity
  8
0
  6
ByLayer
 62
  256
370
   -1
100
AcDbLine
 10
0.01136421417563405
 20
0.113528505392904
 11
0.01136421417563405
 21
0.113528505392904
  0
LINE
  5
22E
100
AcDbEntity
  8
0
  6
ByLayer
 62
  256
370
   -1
100
AcDbLine
 10
0.01136421417563405
 20
0.113528505392904
 11
0.01136421417563405
 21
0.113528505392904
  0
LINE
  5
22F
100
AcDbEntity
  8
0
  6
ByLayer
 62
  256
370
   -1
100
AcDbLine
 10
0.01136421417563405
 20
0.113528505392904
 11
0.01136421417563405
 21
0.113528505392904
  0
LINE
  5
230
100
AcDbEntity
  8
0
  6
ByLayer
 62
  256
370
   -1
100
AcDbLine
 10
0.01136421417563405
 20
0.113528505392904
 11
0.01136421417563405
 21
0.113528505392904
  0
LINE
  5
231
100
AcDbEntity
  8
0
  6
ByLayer
 62
  256
370
   -1
100
AcDbLine
 10
0.01136421417563405
 20
0.113528505392904
 11
0.01136421417563405
 21
0.113528505392904
  0
LINE
  5
232
100
AcDbEntity
  8
0
  6
ByLayer
 62
  256
370
   -1
100
AcDbLine
 10
0.01136421417563405
 20
0.113528505392904
 11
0.01136421417563582
 21
0.113528505392904
  0
LINE
  5
233
100
AcDbEntity
  8
0
  6
ByLayer
 62
  256
370
   -1
100
AcDbLine
 10
0.01136421417563582
 20
0.113528505392904
 11
0.01136421417563582
 21
0.113528505392904
  0
LINE
  5
234
100
AcDbEntity
  8
0
  6
ByLayer
 62
  256
370
   -1
100
AcDbLine
 10
0.01136421417563582
 20
0.113528505392904
 11
0.01136421417563405
 21
0.113528505392904
  0
LINE
  5
235
100
AcDbEntity
  8
0
  6
ByLayer
 62
  256
370
   -1
100
AcDbLine
 10
0.01136421417563405
 20
0.113528505392904
 11
0.01136421417563405
 21
0.113528505392904
  0
LINE
  5
236
100
AcDbEntity
  8
0
  6
ByLayer
 62
  256
370
   -1
100
AcDbLine
 10
0.01136421417563405
 20
0.113528505392904
 11
0.01136421417563227
 21
0.113528505392904
  0
LINE
  5
237
100
AcDbEntity
  8
0
  6
ByLayer
 62
  256
370
   -1
100
AcDbLine
 10
0.01136421417563227
 20
0.113528505392904
 11
0.01136421417563405
 21
0.113528505392904
  0
LINE
  5
238
100
AcDbEntity
  8
0
  6
ByLayer
 62
  256
370
   -1
100
AcDbLine
 10
0.01136421417563405
 20
0.113528505392904
 11
0.01136421417563405
 21
0.113528505392904
  0
LINE
  5
239
100
AcDbEntity
  8
0
  6
ByLayer
 62
  256
370
   -1
100
AcDbLine
 10
0.01136421417563405
 20
0.113528505392904
 11
0.01136421417563405
 21
0.1135285053929032
  0
LINE
  5
23A
100
AcDbEntity
  8
0
  6
ByLayer
 62
  256
370
   -1
100
AcDbLine
 10
0.01136421417563405
 20
0.1135285053929032
 11
0.01136421417563582
 21
0.1135285053929049
  0
LINE
  5
23B
100
AcDbEntity
  8
0
  6
ByLayer
 62
  256
370
   -1
100
AcDbLine
 10
0.01136421417563582
 20
0.1135285053929049
 11
0.01136421417563582
 21
0.1135285053929049
  0
LINE
  5
23C
100
AcDbEntity
  8
0
  6
ByLayer
 62
  256
370
   -1
100
AcDbLine
 10
0.01136421417563582
 20
0.1135285053929049
 11
0.01136421417563405
 21
0.113528505392904
  0
LINE
  5
23D
100
AcDbEntity
  8
0
  6
ByLayer
 62
  256
370
   -1
100
AcDbLine
 10
0.01136421417563405
 20
0.113528505392904
 11
0.01136421417563582
 21
0.1135285053929049
  0
LINE
  5
23E
100
AcDbEntity
  8
0
  6
ByLayer
 62
  256
370
   -1
100
AcDbLine
 10
0.01136421417563582
 20
0.1135285053929049
 11
0.01136421417563405
 21
0.113528505392904
  0
LINE
  5
23F
100
AcDbEntity
  8
0
  6
ByLayer
 62
  256
370
   -1
100
AcDbLine
 10
0.01136421417563405
 20
0.113528505392904
 11
0.01136421417563405
 21
0.1135285053929049
  0
LINE
  5
240
100
AcDbEntity
  8
0
  6
ByLayer
 62
  256
370
   -1
100
AcDbLine
 10
0.01136421417563405
 20
0.1135285053929049
 11
0.01136421417563227
 21
0.113528505392904
  0
LINE
  5
241
100
AcDbEntity
  8
0
  6
ByLayer
 62
  256
370
   -1
100
AcDbLine
 10
0.01136421417563227
 20
0.113528505392904
 11
0.01136421417563582
 21
0.1135285053929058
  0
LINE
  5
242
100
AcDbEntity
  8
0
  6
ByLayer
 62
  256
370
   -1
100
AcDbLine
 10
0.01136421417563582
 20
0.1135285053929058
 11
0.01136421417563582
 21
0.113528505392904
  0
LINE
  5
243
100
AcDbEntity
  8
0
  6
ByLayer
 62
  256
370
   -1
100
AcDbLine
 10
0.01136421417563582
 20
0.113528505392904
 11
0.01136421417563405
 21
0.113528505392904
  0
LINE
  5
244
100
AcDbEntity
  8
0
  6
ByLayer
 62
  256
370
   -1
100
AcDbLine
 10
0.01136421417563405
 20
0.113528505392904
 11
0.01136421417563582
 21
0.1135285053929032
  0
LINE
  5
245
100
AcDbEntity
  8
0
  6
ByLayer
 62
  256
370
   -1
100
AcDbLine
 10
0.01136421417563582
 20
0.1135285053929032
 11
0.01136421417563582
 21
0.1135285053929049
  0
LINE
  5
246
100
AcDbEntity
  8
0
  6
ByLayer
 62
  256
370
   -1
100
AcDbLine
 10
0.01136421417563582
 20
0.1135285053929049
 11
0.01136421417563405
 21
0.113528505392904
  0
LINE
  5
247
100
AcDbEntity
  8
0
  6
ByLayer
 62
  256
370
   -1
100
AcDbLine
 10
0.01136421417563405
 20
0.113528505392904
 11
0.01136056646305228
 21
0.1134008354525289
  0
LINE
  5
248
100
AcDbEntity
  8
0
  6
ByLayer
 62
  256
370
   -1
100
AcDbLine
 10
0.01136056646305228
 20
0.1134008354525289
 11
0.01131910490184929
 21
0.111949680810433
  0
LINE
  5
249
100
AcDbEntity
  8
0
  6
ByLayer
 62
  256
370
   -1
100
AcDbLine
 10
0.01131910490184929
 20
0.111949680810433
 11
0.01119045624171555
 21
0.1074469777057967
  0
LINE
  5
24A
100
AcDbEntity
  8
0
  6
ByLayer
 62
  256
370
   -1
100
AcDbLine
 10
0.01119045624171555
 20
0.1074469777057967
 11
0.01092513591299138
 21
0.09816076620042136
  0
LINE
  5
24B
100
AcDbEntity
  8
0
  6
ByLayer
 62
  256
370
   -1
100
AcDbLine
 10
0.01092513591299138
 20
0.09816076620042136
 11
0.01047365934600997
 21
0.08235908635610745
  0
LINE
  5
24C
100
AcDbEntity
  8
0
  6
ByLayer
 62
  256
370
   -1
100
AcDbLine
 10
0.01047365934600997
 20
0.08235908635610745
 11
0.009786541971111617
 21
0.05830997823465811
  0
LINE
  5
24D
100
AcDbEntity
  8
0
  6
ByLayer
 62
  256
370
   -1
100
AcDbLine
 10
0.009786541971111617
 20
0.05830997823465811
 11
0.008814299218634858
 21
0.0242814818978756
  0
LINE
  5
24E
100
AcDbEntity
  8
0
  6
ByLayer
 62
  256
370
   -1
100
AcDbLine
 10
0.008814299218634858
 20
0.0242814818978756
 11
0.007649935291651033
 21
-0.02194994885839385
  0
LINE
  5
24F
100
AcDbEntity
  8
0
  6
ByLayer
 62
  256
370
   -1
100
AcDbLine
 10
0.007649935291651033
 20
-0.02194994885839385
 11
0.007044057890528421
 21
-0.08487659230395028
  0
LINE
  5
250
100
AcDbEntity
  8
0
  6
ByLayer
 62
  256
370
   -1
100
AcDbLine
 10
0.007044057890528421
 20
-0.08487659230395028
 11
0.007936856027766837
 21
-0.1696447822354425
  0
LINE
  5
251
100
AcDbEntity
  8
0
  6
ByLayer
 62
  256
370
   -1
100
AcDbLine
 10
0.007936856027766837
 20
-0.1696447822354425
 11
0.01126853652695736
 21
-0.2814009138978024
  0
LINE
  5
252
100
AcDbEntity
  8
0
  6
ByLayer
 62
  256
370
   -1
100
AcDbLine
 10
0.01126853652695736
 20
-0.2814009138978024
 11
0.01797930621169641
 21
-0.4252913825359661
  0
LINE
  5
253
100
AcDbEntity
  8
0
  6
ByLayer
 62
  256
370
   -1
100
AcDbLine
 10
0.01797930621169641
 20
-0.4252913825359661
 11
0.02900937190557507
 21
-0.6064625833948645
  0
LINE
  5
254
100
AcDbEntity
  8
0
  6
ByLayer
 62
  256
370
   -1
100
AcDbLine
 10
0.02900937190557507
 20
-0.6064625833948645
 11
0.04530225863948267
 21
-0.8300544436197015
  0
LINE
  5
255
100
AcDbEntity
  8
0
  6
ByLayer
 62
  256
370
   -1
100
AcDbLine
 10
0.04530225863948267
 20
-0.8300544436197015
 11
0.06948714075025819
 21
-1.09792109569409
  0
LINE
  5
256
100
AcDbEntity
  8
0
  6
ByLayer
 62
  256
370
   -1
100
AcDbLine
 10
0.06948714075025819
 20
-1.09792109569409
 11
0.1086163628992018
 21
-1.403294695164818
  0
LINE
  5
257
100
AcDbEntity
  8
0
  6
ByLayer
 62
  256
370
   -1
100
AcDbLine
 10
0.1086163628992018
 20
-1.403294695164818
 11
0.1704590025233799
 21
-1.738010288037516
  0
LINE
  5
258
100
AcDbEntity
  8
0
  6
ByLayer
 62
  256
370
   -1
100
AcDbLine
 10
0.1704590025233799
 20
-1.738010288037516
 11
0.2627841370598496
 21
-2.093902920317823
  0
LINE
  5
259
100
AcDbEntity
  8
0
  6
ByLayer
 62
  256
370
   -1
100
AcDbLine
 10
0.2627841370598496
 20
-2.093902920317823
 11
0.3933608439456808
 21
-2.462807638011371
  0
LINE
  5
25A
100
AcDbEntity
  8
0
  6
ByLayer
 62
  256
370
   -1
100
AcDbLine
 10
0.3933608439456808
 20
-2.462807638011371
 11
0.5699582006179309
 21
-2.836559487123797
  0
LINE
  5
25B
100
AcDbEntity
  8
0
  6
ByLayer
 62
  256
370
   -1
100
AcDbLine
 10
0.5699582006179309
 20
-2.836559487123797
 11
0.8002573119453782
 21
-3.206979767946939
  0
LINE
  5
25C
100
AcDbEntity
  8
0
  6
ByLayer
 62
  256
370
   -1
100
AcDbLine
 10
0.8002573119453782
 20
-3.206979767946939
 11
1.086660928699418
 21
-3.565065037944925
  0
LINE
  5
25D
100
AcDbEntity
  8
0
  6
ByLayer
 62
  256
370
   -1
100
AcDbLine
 10
1.086660928699418
 20
-3.565065037944925
 11
1.423390352800551
 21
-3.900533503198925
  0
LINE
  5
25E
100
AcDbEntity
  8
0
  6
ByLayer
 62
  256
370
   -1
100
AcDbLine
 10
1.423390352800551
 20
-3.900533503198925
 11
1.803963105622936
 21
-4.202993404079747
  0
LINE
  5
25F
100
AcDbEntity
  8
0
  6
ByLayer
 62
  256
370
   -1
100
AcDbLine
 10
1.803963105622936
 20
-4.202993404079747
 11
2.221896708540752
 21
-4.462052980958198
  0
LINE
  5
260
100
AcDbEntity
  8
0
  6
ByLayer
 62
  256
370
   -1
100
AcDbLine
 10
2.221896708540752
 20
-4.462052980958198
 11
2.670708682928163
 21
-4.667320474205088
  0
LINE
  5
261
100
AcDbEntity
  8
0
  6
ByLayer
 62
  256
370
   -1
100
AcDbLine
 10
2.670708682928163
 20
-4.667320474205088
 11
3.143916550159345
 21
-4.808404124191225
  0
LINE
  5
262
100
AcDbEntity
  8
0
  6
ByLayer
 62
  256
370
   -1
100
AcDbLine
 10
3.143916550159345
 20
-4.808404124191225
 11
3.6350200516813
 21
-4.875440827788706
  0
LINE
  5
263
100
AcDbEntity
  8
0
  6
ByLayer
 62
  256
370
   -1
100
AcDbLine
 10
3.6350200516813
 20
-4.875440827788706
 11
4.137152323139853
 21
-4.869467894357526
  0
LINE
  5
264
100
AcDbEntity
  8
0
  6
ByLayer
 62
  256
370
   -1
100
AcDbLine
 10
4.137152323139853
 20
-4.869467894357526
 11
4.643101975686674
 21
-4.8017664948841
  0
LINE
  5
265
100
AcDbEntity
  8
0
  6
ByLayer
 62
  256
370
   -1
100
AcDbLine
 10
4.643101975686674
 20
-4.8017664948841
 11
5.145644262151011
 21
-4.68401498780885
  0
LINE
  5
266
100
AcDbEntity
  8
0
  6
ByLayer
 62
  256
370
   -1
100
AcDbLine
 10
5.145644262151011
 20
-4.68401498780885
 11
5.637554435362068
 21
-4.527891731572204
  0
LINE
  5
267
100
AcDbEntity
  8
0
  6
ByLayer
 62
  256
370
   -1
100
AcDbLine
 10
5.637554435362068
 20
-4.527891731572204
 11
6.111607748149092
 21
-4.345075084614585
  0
LINE
  5
268
100
AcDbEntity
  8
0
  6
ByLayer
 62
  256
370
   -1
100
AcDbLine
 10
6.111607748149092
 20
-4.345075084614585
 11
6.560579453341303
 21
-4.14724340537642
  0
LINE
  5
269
100
AcDbEntity
  8
0
  6
ByLayer
 62
  256
370
   -1
100
AcDbLine
 10
6.560579453341303
 20
-4.14724340537642
 11
6.977845928277931
 21
-3.945591147067587
  0
LINE
  5
26A
100
AcDbEntity
  8
0
  6
ByLayer
 62
  256
370
   -1
100
AcDbLine
 10
6.977845928277931
 20
-3.945591147067587
 11
7.362688997484382
 21
-3.746558877913078
  0
LINE
  5
26B
100
AcDbEntity
  8
0
  6
ByLayer
 62
  256
370
   -1
100
AcDbLine
 10
7.362688997484382
 20
-3.746558877913078
 11
7.717742355753826
 21
-3.553888910572359
  0
LINE
  5
26C
100
AcDbEntity
  8
0
  6
ByLayer
 62
  256
370
   -1
100
AcDbLine
 10
7.717742355753826
 20
-3.553888910572359
 11
8.04567816984804
 21
-3.371292587770143
  0
LINE
  5
26D
100
AcDbEntity
  8
0
  6
ByLayer
 62
  256
370
   -1
100
AcDbLine
 10
8.04567816984804
 20
-3.371292587770143
 11
8.349168606528826
 21
-3.202481252231139
  0
LINE
  5
26E
100
AcDbEntity
  8
0
  6
ByLayer
 62
  256
370
   -1
100
AcDbLine
 10
8.349168606528826
 20
-3.202481252231139
 11
8.630885832557967
 21
-3.051166246680061
  0
LINE
  5
26F
100
AcDbEntity
  8
0
  6
ByLayer
 62
  256
370
   -1
100
AcDbLine
 10
8.630885832557967
 20
-3.051166246680061
 11
8.893502014697267
 21
-2.921058913841618
  0
LINE
  5
270
100
AcDbEntity
  8
0
  6
ByLayer
 62
  256
370
   -1
100
AcDbLine
 10
8.893502014697267
 20
-2.921058913841618
 11
9.139713752970811
 21
-2.815443014350175
  0
LINE
  5
271
100
AcDbEntity
  8
0
  6
ByLayer
 62
  256
370
   -1
100
AcDbLine
 10
9.139713752970811
 20
-2.815443014350175
 11
9.372347896389863
 21
-2.735322951564776
  0
LINE
  5
272
100
AcDbEntity
  8
0
  6
ByLayer
 62
  256
370
   -1
100
AcDbLine
 10
9.372347896389863
 20
-2.735322951564776
 11
9.594274521497118
 21
-2.680946647044438
  0
LINE
  5
273
100
AcDbEntity
  8
0
  6
ByLayer
 62
  256
370
   -1
100
AcDbLine
 10
9.594274521497118
 20
-2.680946647044438
 11
9.808363733333008
 21
-2.652561523637475
  0
LINE
  5
274
100
AcDbEntity
  8
0
  6
ByLayer
 62
  256
370
   -1
100
AcDbLine
 10
9.808363733333008
 20
-2.652561523637475
 11
10.01748563693799
 21
-2.650415004192201
  0
LINE
  5
275
100
AcDbEntity
  8
0
  6
ByLayer
 62
  256
370
   -1
100
AcDbLine
 10
10.01748563693799
 20
-2.650415004192201
 11
10.22451033735249
 21
-2.67475451155693
  0
LINE
  5
276
100
AcDbEntity
  8
0
  6
ByLayer
 62
  256
370
   -1
100
AcDbLine
 10
10.22451033735249
 20
-2.67475451155693
 11
10.43230743378182
 21
-2.725826264549848
  0
LINE
  5
277
100
AcDbEntity
  8
0
  6
ByLayer
 62
  256
370
   -1
100
AcDbLine
 10
10.43230743378182
 20
-2.725826264549848
 11
10.6429792367484
 21
-2.802050118786226
  0
LINE
  5
278
100
AcDbEntity
  8
0
  6
ByLayer
 62
  256
370
   -1
100
AcDbLine
 10
10.6429792367484
 20
-2.802050118786226
 11
10.85631613725254
 21
-2.89634291017377
  0
LINE
  5
279
100
AcDbEntity
  8
0
  6
ByLayer
 62
  256
370
   -1
100
AcDbLine
 10
10.85631613725254
 20
-2.89634291017377
 11
11.07167483588861
 21
-3.000589169287779
  0
LINE
  5
27A
100
AcDbEntity
  8
0
  6
ByLayer
 62
  256
370
   -1
100
AcDbLine
 10
11.07167483588861
 20
-3.000589169287779
 11
11.28841203325102
 21
-3.106673426703549
  0
LINE
  5
27B
100
AcDbEntity
  8
0
  6
ByLayer
 62
  256
370
   -1
100
AcDbLine
 10
11.28841203325102
 20
-3.106673426703549
 11
11.50588442993411
 21
-3.206480212996381
  0
LINE
  5
27C
100
AcDbEntity
  8
0
  6
ByLayer
 62
  256
370
   -1
100
AcDbLine
 10
11.50588442993411
 20
-3.206480212996381
 11
11.7234487265323
 21
-3.291894058741571
  0
LINE
  5
27D
100
AcDbEntity
  8
0
  6
ByLayer
 62
  256
370
   -1
100
AcDbLine
 10
11.7234487265323
 20
-3.291894058741571
 11
11.94045354452655
 21
-3.354835465805095
  0
LINE
  5
27E
100
AcDbEntity
  8
0
  6
ByLayer
 62
  256
370
   -1
100
AcDbLine
 10
11.94045354452655
 20
-3.354835465805095
 11
12.15554361264159
 21
-3.39035893475326
  0
LINE
  5
27F
100
AcDbEntity
  8
0
  6
ByLayer
 62
  256
370
   -1
100
AcDbLine
 10
12.15554361264159
 20
-3.39035893475326
 11
12.36612351569309
 21
-3.399040559271465
  0
LINE
  5
280
100
AcDbEntity
  8
0
  6
ByLayer
 62
  256
370
   -1
100
AcDbLine
 10
12.36612351569309
 20
-3.399040559271465
 11
12.56947160234957
 21
-3.382018484461955
  0
LINE
  5
281
100
AcDbEntity
  8
0
  6
ByLayer
 62
  256
370
   -1
100
AcDbLine
 10
12.56947160234957
 20
-3.382018484461955
 11
12.76286622127959
 21
-3.340430855426974
  0
LINE
  5
282
100
AcDbEntity
  8
0
  6
ByLayer
 62
  256
370
   -1
100
AcDbLine
 10
12.76286622127959
 20
-3.340430855426974
 11
12.9435857211517
 21
-3.275415817268768
  0
LINE
  5
283
100
AcDbEntity
  8
0
  6
ByLayer
 62
  256
370
   -1
100
AcDbLine
 10
12.9435857211517
 20
-3.275415817268768
 11
13.10890845063443
 21
-3.188111515089582
  0
LINE
  5
284
100
AcDbEntity
  8
0
  6
ByLayer
 62
  256
370
   -1
100
AcDbLine
 10
13.10890845063443
 20
-3.188111515089582
 11
13.25618934611168
 21
-3.079713980055584
  0
LINE
  5
285
100
AcDbEntity
  8
0
  6
ByLayer
 62
  256
370
   -1
100
AcDbLine
 10
13.25618934611168
 20
-3.079713980055584
 11
13.38475861773386
 21
-2.952912182807649
  0
LINE
  5
286
100
AcDbEntity
  8
0
  6
ByLayer
 62
  256
370
   -1
100
AcDbLine
 10
13.38475861773386
 20
-2.952912182807649
 11
13.49604834891141
 21
-2.811983719125017
  0
LINE
  5
287
100
AcDbEntity
  8
0
  6
ByLayer
 62
  256
370
   -1
100
AcDbLine
 10
13.49604834891141
 20
-2.811983719125017
 11
13.59159256130387
 21
-2.661283231138018
  0
LINE
  5
288
100
AcDbEntity
  8
0
  6
ByLayer
 62
  256
370
   -1
100
AcDbLine
 10
13.59159256130387
 20
-2.661283231138018
 11
13.67292527657078
 21
-2.50516536097698
  0
LINE
  5
289
100
AcDbEntity
  8
0
  6
ByLayer
 62
  256
370
   -1
100
AcDbLine
 10
13.67292527657078
 20
-2.50516536097698
 11
13.74158051637169
 21
-2.347984750772231
  0
LINE
  5
28A
100
AcDbEntity
  8
0
  6
ByLayer
 62
  256
370
   -1
100
AcDbLine
 10
13.74158051637169
 20
-2.347984750772231
 11
13.79909230236615
 21
-2.194096042654098
  0
LINE
  5
28B
100
AcDbEntity
  8
0
  6
ByLayer
 62
  256
370
   -1
100
AcDbLine
 10
13.79909230236615
 20
-2.194096042654098
 11
13.84696777570673
 21
-2.047479995337679
  0
LINE
  5
28C
100
AcDbEntity
  8
0
  6
ByLayer
 62
  256
370
   -1
100
AcDbLine
 10
13.84696777570673
 20
-2.047479995337679
 11
13.88640159165239
 21
-1.907770972836023
  0
LINE
  5
28D
100
AcDbEntity
  8
0
  6
ByLayer
 62
  256
370
   -1
100
AcDbLine
 10
13.88640159165239
 20
-1.907770972836023
 11
13.91838680165975
 21
-1.77179921354795
  0
LINE
  5
28E
100
AcDbEntity
  8
0
  6
ByLayer
 62
  256
370
   -1
100
AcDbLine
 10
13.91838680165975
 20
-1.77179921354795
 11
13.94391309712208
 21
-1.636348220445375
  0
LINE
  5
28F
100
AcDbEntity
  8
0
  6
ByLayer
 62
  256
370
   -1
100
AcDbLine
 10
13.94391309712208
 20
-1.636348220445375
 11
13.96397016943262
 21
-1.498201496500218
  0
LINE
  5
290
100
AcDbEntity
  8
0
  6
ByLayer
 62
  256
370
   -1
100
AcDbLine
 10
13.96397016943262
 20
-1.498201496500218
 11
13.97954770998464
 21
-1.354142544684392
  0
LINE
  5
291
100
AcDbEntity
  8
0
  6
ByLayer
 62
  256
370
   -1
100
AcDbLine
 10
13.97954770998464
 20
-1.354142544684392
 11
13.99163541017139
 21
-1.200954867969818
  0
LINE
  5
292
100
AcDbEntity
  8
0
  6
ByLayer
 62
  256
370
   -1
100
AcDbLine
 10
13.99163541017139
 20
-1.200954867969818
 11
14.0011502493654
 21
-1.036419162755551
  0
LINE
  5
293
100
AcDbEntity
  8
0
  6
ByLayer
 62
  256
370
   -1
100
AcDbLine
 10
14.0011502493654
 20
-1.036419162755551
 11
14.00856047951498
 21
-0.8644701015442555
  0
LINE
  5
294
100
AcDbEntity
  8
0
  6
ByLayer
 62
  256
370
   -1
100
AcDbLine
 10
14.00856047951498
 20
-0.8644701015442555
 11
14.01416334466782
 21
-0.691387608046873
  0
LINE
  5
295
100
AcDbEntity
  8
0
  6
ByLayer
 62
  256
370
   -1
100
AcDbLine
 10
14.01416334466782
 20
-0.691387608046873
 11
14.01825575224191
 21
-0.5234562226105819
  0
LINE
  5
296
100
AcDbEntity
  8
0
  6
ByLayer
 62
  256
370
   -1
100
AcDbLine
 10
14.01825575224191
 20
-0.5234562226105819
 11
14.02113460965522
 21
-0.3669604855825588
  0
LINE
  5
297
100
AcDbEntity
  8
0
  6
ByLayer
 62
  256
370
   -1
100
AcDbLine
 10
14.02113460965522
 20
-0.3669604855825588
 11
14.02309682432572
 21
-0.2281849373099814
  0
LINE
  5
298
100
AcDbEntity
  8
0
  6
ByLayer
 62
  256
370
   -1
100
AcDbLine
 10
14.02309682432572
 20
-0.2281849373099814
 11
14.02443929921864
 21
-0.1134139257801854
  0
LINE
  5
299
100
AcDbEntity
  8
0
  6
ByLayer
 62
  256
370
   -1
100
AcDbLine
 10
14.02443929921864
 20
-0.1134139257801854
 11
14.02541154197112
 21
-0.02688432080950154
  0
LINE
  5
29A
100
AcDbEntity
  8
0
  6
ByLayer
 62
  256
370
   -1
100
AcDbLine
 10
14.02541154197112
 20
-0.02688432080950154
 11
14.02609865934601
 21
0.03426912555647288
  0
LINE
  5
29B
100
AcDbEntity
  8
0
  6
ByLayer
 62
  256
370
   -1
100
AcDbLine
 10
14.02609865934601
 20
0.03426912555647288
 11
14.026550135913
 21
0.07445054001772977
  0
LINE
  5
29C
100
AcDbEntity
  8
0
  6
ByLayer
 62
  256
370
   -1
100
AcDbLine
 10
14.026550135913
 20
0.07445054001772977
 11
14.02681545624172
 21
0.09806404927425749
  0
LINE
  5
29D
100
AcDbEntity
  8
0
  6
ByLayer
 62
  256
370
   -1
100
AcDbLine
 10
14.02681545624172
 20
0.09806404927425749
 11
14.02694410490185
 21
0.1095137800260488
  0
LINE
  5
29E
100
AcDbEntity
  8
0
  6
ByLayer
 62
  256
370
   -1
100
AcDbLine
 10
14.02694410490185
 20
0.1095137800260488
 11
14.02698556646305
 21
0.1132038589730948
  0
LINE
  5
29F
100
AcDbEntity
  8
0
  6
ByLayer
 62
  256
370
   -1
100
AcDbLine
 10
14.02698556646305
 20
0.1132038589730948
 11
14.02698921417564
 21
0.1135285053929049
  0
LINE
  5
2A0
100
AcDbEntity
  8
0
  6
ByLayer
 62
  256
370
   -1
100
AcDbLine
 10
14.02698921417564
 20
0.1135285053929049
 11
14.02698921417564
 21
0.113528505392904
  0
LINE
  5
2A1
100
AcDbEntity
  8
0
  6
ByLayer
 62
  256
370
   -1
100
AcDbLine
 10
14.02698921417564
 20
0.113528505392904
 11
14.02698921417563
 21
0.113528505392904
  0
LINE
  5
2A2
100
AcDbEntity
  8
0
  6
ByLayer
 62
  256
370
   -1
100
AcDbLine
 10
14.02698921417563
 20
0.113528505392904
 11
14.02698921417563
 21
0.113528505392904
  0
LINE
  5
2A3
100
AcDbEntity
  8
0
  6
ByLayer
 62
  256
370
   -1
100
AcDbLine
 10
14.02698921417563
 20
0.113528505392904
 11
14.02698921417564
 21
0.1135285053929049
  0
LINE
  5
2A4
100
AcDbEntity
  8
0
  6
ByLayer
 62
  256
370
   -1
100
AcDbLine
 10
14.02698921417564
 20
0.1135285053929049
 11
14.02698921417564
 21
0.113528505392904
  0
LINE
  5
2A5
100
AcDbEntity
  8
0
  6
ByLayer
 62
  256
370
   -1
100
AcDbLine
 10
14.02698921417564
 20
0.113528505392904
 11
14.02698921417563
 21
0.1135285053929032
  0
LINE
  5
2A6
100
AcDbEntity
  8
0
  6
ByLayer
 62
  256
370
   -1
100
AcDbLine
 10
14.02698921417563
 20
0.1135285053929032
 11
14.02698921417564
 21
0.113528505392904
  0
LINE
  5
2A7
100
AcDbEntity
  8
0
  6
ByLayer
 62
  256
370
   -1
100
AcDbLine
 10
14.02698921417564
 20
0.113528505392904
 11
14.02698921417563
 21
0.113528505392904
  0
LINE
  5
2A8
100
AcDbEntity
  8
0
  6
ByLayer
 62
  256
370
   -1
100
AcDbLine
 10
14.02698921417563
 20
0.113528505392904
 11
14.02698921417564
 21
0.113528505392904
  0
LINE
  5
2A9
100
AcDbEntity
  8
0
  6
ByLayer
 62
  256
370
   -1
100
AcDbLine
 10
14.02698921417564
 20
0.113528505392904
 11
14.02698921417563
 21
0.113528505392904
  0
LINE
  5
2AA
100
AcDbEntity
  8
0
  6
ByLayer
 62
  256
370
   -1
100
AcDbLine
 10
14.02698921417563
 20
0.113528505392904
 11
14.02698921417563
 21
0.113528505392904
  0
LINE
  5
2AB
100
AcDbEntity
  8
0
  6
ByLayer
 62
  256
370
   -1
100
AcDbLine
 10
14.02698921417563
 20
0.113528505392904
 11
14.02698921417563
 21
0.113528505392904
  0
LINE
  5
2AC
100
AcDbEntity
  8
0
  6
ByLayer
 62
  256
370
   -1
100
AcDbLine
 10
14.02698921417563
 20
0.113528505392904
 11
14.02698921417564
 21
0.1135285053929049
  0
LINE
  5
2AD
100
AcDbEntity
  8
0
  6
ByLayer
 62
  256
370
   -1
100
AcDbLine
 10
14.02698921417564
 20
0.1135285053929049
 11
14.02698921417563
 21
0.113528505392904
  0
LINE
  5
2AE
100
AcDbEntity
  8
0
  6
ByLayer
 62
  256
370
   -1
100
AcDbLine
 10
14.02698921417563
 20
0.113528505392904
 11
14.02698921417563
 21
0.1135285053929032
  0
LINE
  5
2AF
100
AcDbEntity
  8
0
  6
ByLayer
 62
  256
370
   -1
100
AcDbLine
 10
14.02698921417563
 20
0.1135285053929032
 11
14.02698921417563
 21
0.1135285053929032
  0
LINE
  5
2B0
100
AcDbEntity
  8
0
  6
ByLayer
 62
  256
370
   -1
100
AcDbLine
 10
14.02698921417563
 20
0.1135285053929032
 11
14.02698921417563
 21
0.113528505392904
  0
LINE
  5
2B1
100
AcDbEntity
  8
0
  6
ByLayer
 62
  256
370
   -1
100
AcDbLine
 10
14.02698921417563
 20
0.113528505392904
 11
14.02698921417563
 21
0.1135285053929032
  0
LINE
  5
2B2
100
AcDbEntity
  8
0
  6
ByLayer
 62
  256
370
   -1
100
AcDbLine
 10
14.02698921417563
 20
0.1135285053929032
 11
14.02698921417563
 21
0.113528505392904
  0
LINE
  5
2B3
100
AcDbEntity
  8
0
  6
ByLayer
 62
  256
370
   -1
100
AcDbLine
 10
14.02698921417563
 20
0.113528505392904
 11
14.02698921417563
 21
0.113528505392904
  0
LINE
  5
2B4
100
AcDbEntity
  8
0
  6
ByLayer
 62
  256
370
   -1
100
AcDbLine
 10
14.02698921417563
 20
0.113528505392904
 11
14.02698921417563
 21
0.113528505392904
  0
LINE
  5
2B5
100
AcDbEntity
  8
0
  6
ByLayer
 62
  256
370
   -1
100
AcDbLine
 10
14.02698921417563
 20
0.113528505392904
 11
14.02698921417563
 21
0.113528505392904
  0
LINE
  5
2B6
100
AcDbEntity
  8
0
  6
ByLayer
 62
  256
370
   -1
100
AcDbLine
 10
14.02698921417563
 20
0.113528505392904
 11
14.02698921417563
 21
0.113528505392904
  0
LINE
  5
2B7
100
AcDbEntity
  8
0
  6
ByLayer
 62
  256
370
   -1
100
AcDbLine
 10
14.02698921417563
 20
0.113528505392904
 11
14.02698921417563
 21
0.113528505392904
  0
LINE
  5
2B8
100
AcDbEntity
  8
0
  6
ByLayer
 62
  256
370
   -1
100
AcDbLine
 10
14.02698921417563
 20
0.113528505392904
 11
14.02698921417563
 21
0.113528505392904
  0
LINE
  5
2B9
100
AcDbEntity
  8
0
  6
ByLayer
 62
  256
370
   -1
100
AcDbLine
 10
14.02698921417563
 20
0.113528505392904
 11
14.02698921417563
 21
0.113528505392904
  0
LINE
  5
2BA
100
AcDbEntity
  8
0
  6
ByLayer
 62
  256
370
   -1
100
AcDbLine
 10
14.02698921417563
 20
0.113528505392904
 11
14.02698921417563
 21
0.113528505392904
  0
ENDBLK
  5
69
330
67
100
AcDbEntity
  8
0
100
AcDbBlockEnd
  0
BLOCK
  5
6B
330
6A
100
AcDbEntity
  8
0
100
AcDbBlockBegin
  2
Baritone Body as Polylilne-0
 70
    0
 10
0
 20
0
  3
Baritone Body as Polylilne-0
  1

  0
INSERT
  5
2BB
100
AcDbEntity
  8
0
  6
ByLayer
 62
  256
370
   -1
100
AcDbBlockReference
  2
Baritone Shape-0
 10
15.47301078582437
 20
5.886471494607096
 30
0
 41
1
 42
1
 43
0
 50
0
 70
    1
 71
    1
 44
0
 45
0
  0
ENDBLK
  5
6C
330
6A
100
AcDbEntity
  8
0
100
AcDbBlockEnd
  0
ENDSEC
  0
SECTION
  2
ENTITIES
  0
HATCH
  5
2BC
100
AcDbEntity
  8
Hatching
  6
ByLayer
 62
  256
370
   -1
100
AcDbHatch
 10
0
 20
0
 30
0
210
0
220
0
230
1
  2
gost_wood1
 70
    0
 71
    0
 91
    1
 92
    0
 93
    4
 72
    1
 10
34
 20
15.0625
 11
33.9375
 21
15.0625
 72
    1
 10
33.9375
 20
15.0625
 11
33.9375
 21
12.060546875
 72
    1
 10
33.9375
 20
12.060546875
 11
34
 21
12.0625
 72
    1
 10
34
 20
12.0625
 11
34
 21
15.0625
 97
    0
 75
    0
 76
    1
 52
0.2617993877991494
 41
0.05
 77
    0
 78
    0
 98
    0
  0
HATCH
  5
2BD
100
AcDbEntity
  8
Hatching
  6
ByLayer
 62
  256
370
   -1
100
AcDbHatch
 10
0
 20
0
 30
0
210
0
220
0
230
1
  2
gost_wood1
 70
    0
 71
    0
 91
    1
 92
    0
 93
    7
 72
    1
 10
33.9375
 20
15.0625
 11
33.625
 21
15.0625
 72
    1
 10
33.625
 20
15.0625
 11
33.4375
 21
14.1875
 72
    1
 10
33.4375
 20
14.1875
 11
33.4375
 21
12.9375
 72
    1
 10
33.4375
 20
12.9375
 11
33.625
 21
12.048828125
 72
    1
 10
33.625
 20
12.048828125
 11
33.9375
 21
12.060546875
 72
    1
 10
33.9375
 20
12.060546875
 11
33.9375
 21
15
 72
    1
 10
33.9375
 20
15
 11
33.9375
 21
15.0625
 97
    0
 75
    0
 76
    1
 52
2.094395102393195
 41
0.05
 77
    0
 78
    0
 98
    0
  0
HATCH
  5
2BE
100
AcDbEntity
  8
Hatching
  6
ByLayer
 62
  256
370
   -1
100
AcDbHatch
 10
0
 20
0
 30
0
210
0
220
0
230
1
  2
gost_wood1
 70
    0
 71
    0
 91
    1
 92
    0
 93
    4
 72
    1
 10
20.75
 20
15.0625
 11
34
 21
15.0625
 72
    1
 10
34
 20
15.0625
 11
34
 21
15.125
 72
    1
 10
34
 20
15.125
 11
20.75
 21
15.125
 72
    1
 10
20.75
 20
15.125
 11
20.75
 21
15.0625
 97
    0
 75
    0
 76
    1
 52
1.047197551196598
 41
0.05
 77
    0
 78
    0
 98
    0
  0
HATCH
  5
2BF
100
AcDbEntity
  8
Hatching
  6
ByLayer
 62
  256
370
   -1
100
AcDbHatch
 10
0
 20
0
 30
0
210
0
220
0
230
1
  2
gost_wood1
 70
    0
 71
    0
 91
    1
 92
    0
 93
    4
 72
    1
 10
20.75
 20
15.0625
 11
21.125
 21
15.0625
 72
    1
 10
21.125
 20
15.0625
 11
21.125
 21
14.4375
 72
    1
 10
21.125
 20
14.4375
 11
20.75
 21
14.4375
 72
    1
 10
20.75
 20
14.4375
 11
20.75
 21
15.0625
 97
    0
 75
    0
 76
    1
 52
2.094395102393195
 41
0.05
 77
    0
 78
    0
 98
    0
  0
HATCH
  5
2C0
100
AcDbEntity
  8
Hatching
  6
ByLayer
 62
  256
370
   -1
100
AcDbHatch
 10
0
 20
0
 30
0
210
0
220
0
230
1
  2
gost_wood1
 70
    0
 71
    0
 91
    1
 92
    0
 93
    4
 72
    1
 10
20.75
 20
13.5625
 11
20.75
 21
14.1875
 72
    1
 10
20.75
 20
14.1875
 11
21.125
 21
14.1875
 72
    1
 10
21.125
 20
14.1875
 11
21.125
 21
13.5625
 72
    1
 10
21.125
 20
13.5625
 11
20.75
 21
13.5625
 97
    0
 75
    0
 76
    1
 52
2.094395102393195
 41
0.05
 77
    0
 78
    0
 98
    0
  0
HATCH
  5
2C1
100
AcDbEntity
  8
Hatching
  6
ByLayer
 62
  256
370
   -1
100
AcDbHatch
 10
0
 20
0
 30
0
210
0
220
0
230
1
  2
gost_wood1
 70
    0
 71
    0
 91
    1
 92
    0
 93
    6
 72
    1
 10
21.125
 20
12.021484375
 11
21.125
 21
13.3125
 72
    1
 10
21.125
 20
13.3125
 11
20.75
 21
13.3125
 72
    1
 10
20.75
 20
13.3125
 11
20.75
 21
12.4375
 72
    1
 10
20.75
 20
12.4375
 11
20.0625
 21
12.4375
 72
    1
 10
20.0625
 20
12.4375
 11
20.0625
 21
12.060546875
 72
    1
 10
20.0625
 20
12.060546875
 11
21.125
 21
12.021484375
 97
    0
 75
    0
 76
    1
 52
2.094395102393195
 41
0.05
 77
    0
 78
    0
 98
    0
  0
HATCH
  5
2C2
100
AcDbEntity
  8
Hatching
  6
ByLayer
 62
  256
370
   -1
100
AcDbHatch
 10
0
 20
0
 30
0
210
0
220
0
230
1
  2
gost_wood1
 70
    0
 71
    0
 91
    1
 92
    0
 93
    4
 72
    1
 10
20.0625
 20
12.4375
 11
20
 21
12.4375
 72
    1
 10
20
 20
12.4375
 11
20
 21
12.0625
 72
    1
 10
20
 20
12.0625
 11
20.0625
 21
12.060546875
 72
    1
 10
20.0625
 20
12.060546875
 11
20.0625
 21
12.4375
 97
    0
 75
    0
 76
    1
 52
0.2617993877991494
 41
0.05
 77
    0
 78
    0
 98
    0
  0
HATCH
  5
2C3
100
AcDbEntity
  8
Hatching
  6
ByLayer
 62
  256
370
   -1
100
AcDbHatch
 10
0
 20
0
 30
0
210
0
220
0
230
1
  2
gost_wood1
 70
    0
 71
    0
 91
    1
 92
    0
 93
    4
 72
    2
 10
27
 20
186.1519097222222
 40
174.2925347222222
 50
267.6982470436532
 51
272.3017529563468
 73
    1
 72
    1
 10
34
 20
12
 11
34
 21
12.0625
 72
    2
 10
27.00000000000037
 20
186.2144097222221
 40
174.2925347222221
 50
87.69824704365335
 51
92.30175295634696
 73
    0
 72
    1
 10
20
 20
12.0625
 11
20
 21
12
 97
    0
 75
    0
 76
    1
 52
1.047197551196598
 41
0.05
 77
    0
 78
    0
 98
    0
  0
HATCH
  5
2C4
100
AcDbEntity
  8
0
  6
ByLayer
 62
  256
370
   -1
100
AcDbHatch
 10
0
 20
0
 30
0
210
0
220
0
230
1
  2
iso03w100
 70
    0
 71
    0
 91
    1
 92
    0
 93
    4
 72
    1
 10
6
 20
17
 11
4.5
 21
17
 72
    1
 10
4.5
 20
17
 11
4.5
 21
17.75
 72
    1
 10
4.5
 20
17.75
 11
6
 21
17.75
 72
    1
 10
6
 20
17.75
 11
6
 21
17
 97
    0
 75
    0
 76
    1
 52
0.5235987755982988
 41
0.1
 77
    0
 78
    0
 98
    0
  0
HATCH
  5
2C5
100
AcDbEntity
  8
0
  6
ByLayer
 62
  256
370
   -1
100
AcDbHatch
 10
0
 20
0
 30
0
210
0
220
0
230
1
  2
iso03w100
 70
    0
 71
    0
 91
    1
 92
    0
 93
    4
 72
    1
 10
6
 20
17
 11
4.5
 21
17
 72
    1
 10
4.5
 20
17
 11
4.5
 21
17.75
 72
    1
 10
4.5
 20
17.75
 11
6
 21
17.75
 72
    1
 10
6
 20
17.75
 11
6
 21
17
 97
    0
 75
    0
 76
    1
 52
0.5235987755982988
 41
0.1
 77
    0
 78
    0
 98
    0
  0
HATCH
  5
2C6
100
AcDbEntity
  8
0
  6
ByLayer
 62
  256
370
   -1
100
AcDbHatch
 10
0
 20
0
 30
0
210
0
220
0
230
1
  2
iso03w100
 70
    0
 71
    0
 91
    1
 92
    0
 93
    4
 72
    1
 10
6
 20
17
 11
4.5
 21
17
 72
    1
 10
4.5
 20
17
 11
4.5
 21
17.75
 72
    1
 10
4.5
 20
17.75
 11
6
 21
17.75
 72
    1
 10
6
 20
17.75
 11
6
 21
17
 97
    0
 75
    0
 76
    1
 52
0.5235987755982988
 41
1
 77
    0
 78
    0
 98
    0
  0
HATCH
  5
2C7
100
AcDbEntity
  8
0
  6
ByLayer
 62
  256
370
   -1
100
AcDbHatch
 10
0
 20
0
 30
0
210
0
220
0
230
1
  2
iso03w100
 70
    0
 71
    0
 91
    1
 92
    0
 93
    4
 72
    1
 10
6
 20
17
 11
4.5
 21
17
 72
    1
 10
4.5
 20
17
 11
4.5
 21
17.75
 72
    1
 10
4.5
 20
17.75
 11
6
 21
17.75
 72
    1
 10
6
 20
17.75
 11
6
 21
17
 97
    0
 75
    0
 76
    1
 52
0
 41
1
 77
    0
 78
    0
 98
    0
  0
LINE
  5
2C8
100
AcDbEntity
  8
Construction
  6
ByLayer
 62
  256
370
   -1
100
AcDbLine
 10
30
 20
22
 11
40
 21
22
  0
LINE
  5
2C9
100
AcDbEntity
  8
Construction
  6
ByLayer
 62
  256
370
   -1
100
AcDbLine
 10
41
 20
22
 11
51
 21
22
  0
LINE
  5
2CA
100
AcDbEntity
  8
Construction
  6
ByLayer
 62
  256
370
   -1
100
AcDbLine
 10
18.5
 20
17
 11
28.5
 21
17
  0
LINE
  5
2CB
100
AcDbEntity
  8
Construction
  6
ByLayer
 62
  256
370
   -1
100
AcDbLine
 10
28.5
 20
17
 11
38.5
 21
17
  0
LINE
  5
2CC
100
AcDbEntity
  8
Construction
  6
ByLayer
 62
  256
370
   -1
100
AcDbLine
 10
27.5
 20
27
 11
38.5
 21
27
  0
MTEXT
  5
2CD
100
AcDbEntity
  8
0
  6
ByLayer
 62
  256
370
   -1
100
AcDbMText
 10
10.625
 20
11.125
 30
0
 40
0.25
 41
0
 71
    1
 72
    1
  1

  7
romant
210
0
220
0
230
1
 50
0
 73
    2
 44
1
  0
MTEXT
  5
2CE
100
AcDbEntity
  8
0
  6
ByLayer
 62
  256
370
   -1
100
AcDbMText
 10
10.75
 20
11.125
 30
0
 40
0.25
 41
0
 71
    1
 72
    1
  1

  7
romant
210
0
220
0
230
1
 50
0
 73
    2
 44
1
  0
MTEXT
  5
2CF
100
AcDbEntity
  8
0
  6
ByLayer
 62
  256
370
   -1
100
AcDbMText
 10
11.875
 20
10.875
 30
0
 40
0.25
 41
0
 71
    1
 72
    1
  1

  7
romant
210
0
220
0
230
1
 50
0
 73
    2
 44
1
  0
MTEXT
  5
2D0
100
AcDbEntity
  8
0
  6
ByLayer
 62
  256
370
   -1
100
AcDbMText
 10
11
 20
11.25
 30
0
 40
0.25
 41
0
 71
    1
 72
    1
  1

  7
romant
210
0
220
0
230
1
 50
0
 73
    2
 44
1
  0
MTEXT
  5
2D1
100
AcDbEntity
  8
0
  6
ByLayer
 62
  256
370
   -1
100
AcDbMText
 10
10.625
 20
11.25
 30
0
 40
0.25
 41
0
 71
    1
 72
    1
  1

  7
romant
210
0
220
0
230
1
 50
0
 73
    2
 44
1
  0
MTEXT
  5
2D2
100
AcDbEntity
  8
0
  6
ByLayer
 62
  256
370
   -1
100
AcDbMText
 10
10.625
 20
11.25
 30
0
 40
0.25
 41
0
 71
    1
 72
    1
  1

  7
romant
210
0
220
0
230
1
 50
0
 73
    2
 44
1
  0
MTEXT
  5
2D3
100
AcDbEntity
  8
0
  6
ByLayer
 62
  256
370
   -1
100
AcDbMText
 10
11.25
 20
11
 30
0
 40
0.25
 41
0
 71
    1
 72
    1
  1

  7
romant
210
0
220
0
230
1
 50
0
 73
    2
 44
1
  0
MTEXT
  5
2D4
100
AcDbEntity
  8
0
  6
ByLayer
 62
  256
370
   -1
100
AcDbMText
 10
10.625
 20
11.625
 30
0
 40
0.25
 41
0
 71
    1
 72
    1
  1

  7
romant
210
0
220
0
230
1
 50
0
 73
    2
 44
1
  0
MTEXT
  5
2D5
100
AcDbEntity
  8
0
  6
ByLayer
 62
  256
370
   -1
100
AcDbMText
 10
9.625
 20
11.875
 30
0
 40
0.25
 41
0
 71
    1
 72
    1
  1

  7
romant
210
0
220
0
230
1
 50
0
 73
    2
 44
1
  0
MTEXT
  5
2D6
100
AcDbEntity
  8
0
  6
ByLayer
 62
  256
370
   -1
100
AcDbMText
 10
9.875
 20
11.25
 30
0
 40
0.25
 41
0
 71
    1
 72
    1
  1

  7
romant
210
0
220
0
230
1
 50
0
 73
    2
 44
1
  0
MTEXT
  5
2D7
100
AcDbEntity
  8
0
  6
ByLayer
 62
  256
370
   -1
100
AcDbMText
 10
10.875
 20
11.125
 30
0
 40
0.25
 41
0
 71
    1
 72
    1
  1

  7
romant
210
0
220
0
230
1
 50
0
 73
    2
 44
1
  0
MTEXT
  5
2D8
100
AcDbEntity
  8
0
  6
ByLayer
 62
  256
370
   -1
100
AcDbMText
 10
10.875
 20
11.75
 30
0
 40
0.25
 41
0
 71
    1
 72
    1
  1

  7
romant
210
0
220
0
230
1
 50
0
 73
    2
 44
1
  0
LWPOLYLINE
  5
2D9
100
AcDbEntity
  8
0
  6
ByLayer
 62
  256
370
   -1
100
AcDbPolyline
 90
    5
 70
    0
 43
0
 10
20.75
 20
13.5625
 10
20.75
 20
14.1875
 10
21.125
 20
14.1875
 10
21.125
 20
13.5625
 10
20.75
 20
13.5625
  0
LINE
  5
2DA
100
AcDbEntity
  8
0
  6
ByLayer
 62
  256
370
   -1
100
AcDbLine
 10
20.75
 20
14.4375
 11
21.125
 21
14.4375
  0
LWPOLYLINE
  5
2DB
100
AcDbEntity
  8
0
  6
ByLayer
 62
  256
370
   -1
100
AcDbPolyline
 90
    5
 70
    0
 43
0
 10
20.75
 20
15.0625
 10
21.125
 20
15.0625
 10
21.125
 20
14.4375
 10
20.75
 20
14.4375
 10
20.75
 20
15.0625
  0
LWPOLYLINE
  5
2DC
100
AcDbEntity
  8
0
  6
ByLayer
 62
  256
370
   -1
100
AcDbPolyline
 90
    4
 70
    1
 43
0
 10
33.9375
 20
15.0625
 10
33.4375
 20
15.0625
 10
33.4375
 20
15.0625
 10
33.9375
 20
15.0625
  0
LWPOLYLINE
  5
2DD
100
AcDbEntity
  8
0
  6
ByLayer
 62
  256
370
   -1
100
AcDbPolyline
 90
    4
 70
    1
 43
0
 10
20.75
 20
15.0625
 10
34
 20
15.0625
 10
34
 20
15.125
 10
20.75
 20
15.125
  0
LINE
  5
2DE
100
AcDbEntity
  8
Construction
  6
ByLayer
 62
  256
370
   -1
100
AcDbLine
 10
20
 20
11.25
 11
20
 21
26.75
  0
LINE
  5
2DF
100
AcDbEntity
  8
Construction
  6
ByLayer
 62
  256
370
   -1
100
AcDbLine
 10
34
 20
11
 11
34
 21
26.5
  0
LWPOLYLINE
  5
2E0
100
AcDbEntity
  8
0
  6
ByLayer
 62
  256
370
  200
100
AcDbPolyline
 90
    5
 70
    1
 43
0
 10
0
 20
0
 10
44
 20
0
 10
44
 20
44
 10
0
 20
44
 10
0
 20
44
  0
LINE
  5
2E1
100
AcDbEntity
  8
Construction
  6
ByLayer
 62
  256
370
   -1
100
AcDbLine
 10
27
 20
-2
 11
27
 21
8
  0
LINE
  5
2E2
100
AcDbEntity
  8
Construction
  6
ByLayer
 62
  256
370
   -1
100
AcDbLine
 10
27
 20
9.5
 11
27
 21
19.5
  0
LINE
  5
2E3
100
AcDbEntity
  8
Construction
  6
ByLayer
 62
  256
370
   -1
100
AcDbLine
 10
27
 20
20
 11
27
 21
30
  0
LINE
  5
2E4
100
AcDbEntity
  8
Construction
  6
ByLayer
 62
  256
370
   -1
100
AcDbLine
 10
27
 20
29.5
 11
27
 21
39.5
  0
ARC
  5
2E5
100
AcDbEntity
  8
Hatching
  6
ByLayer
 62
  256
370
   -1
100
AcDbCircle
 10
27
 20
186.1519097222222
 40
174.2925347222222
100
AcDbArc
 50
267.6982470436532
 51
272.3017529563468
  0
LINE
  5
2E6
100
AcDbEntity
  8
Hatching
  6
ByLayer
 62
  256
370
   -1
100
AcDbLine
 10
20
 20
12
 11
20
 21
12.0625
  0
LINE
  5
2E7
100
AcDbEntity
  8
Hatching
  6
ByLayer
 62
  256
370
   -1
100
AcDbLine
 10
34
 20
12
 11
34
 21
12.0625
  0
LWPOLYLINE
  5
2E8
100
AcDbEntity
  8
Hatching
  6
ByLayer
 62
  256
370
   -1
100
AcDbPolyline
 90
    5
 70
    0
 43
0
 10
20.0625
 20
12.4375
 10
20
 20
12.4375
 10
20
 20
12.0625
 10
20.0625
 20
12.060546875
 10
20.0625
 20
12.4375
  0
ARC
  5
2E9
100
AcDbEntity
  8
Hatching
  6
ByLayer
 62
  256
370
   -1
100
AcDbCircle
 10
27.00000000000037
 20
186.2144097222221
 40
174.2925347222221
100
AcDbArc
 50
267.6982470436531
 51
272.3017529563467
  0
LWPOLYLINE
  5
2EA
100
AcDbEntity
  8
Hatching
  6
ByLayer
 62
  256
370
   -1
100
AcDbPolyline
 90
    7
 70
    0
 43
0
 10
21.125
 20
12.021484375
 10
21.125
 20
13.3125
 10
20.75
 20
13.3125
 10
20.75
 20
12.4375
 10
20.0625
 20
12.4375
 10
20.0625
 20
12.060546875
 10
21.125
 20
12.021484375
  0
LWPOLYLINE
  5
2EB
100
AcDbEntity
  8
0
  6
ByLayer
 62
  256
370
   -1
100
AcDbPolyline
 90
    8
 70
    0
 43
0
 10
33.9375
 20
15.0625
 10
33.625
 20
15.0625
 10
33.4375
 20
14.1875
 10
33.4375
 20
12.9375
 10
33.625
 20
12.048828125
 10
33.9375
 20
12.060546875
 10
33.9375
 20
15
 10
33.9375
 20
15.0625
  0
LWPOLYLINE
  5
2EC
100
AcDbEntity
  8
0
  6
ByLayer
 62
  256
370
   -1
100
AcDbPolyline
 90
    4
 70
    1
 43
0
 10
34
 20
15.0625
 10
33.9375
 20
15.0625
 10
33.9375
 20
12.060546875
 10
34
 20
12.0625
  0
ENDSEC
  0
SECTION
  2
OBJECTS
  0
DICTIONARY
  5
C
330
0
100
AcDbDictionary
281
    1
  3
ACAD_GROUP
350
D
  0
DICTIONARY
  5
D
330
C
100
AcDbDictionary
281
    1
  0
ENDSEC
  0
EOF
