999
dxfrw 0.6.3
  0
SECTION
  2
HEADER
  9
$ACADVER
  1
AC1021
  9
$DWGCODEPAGE
  3
ANSI_1252
  9
$INSBASE
 10
0
 20
0
 30
0
  9
$EXTMIN
 10
0
 20
0
 30
0
  9
$EXTMAX
 10
200
 20
280
 30
0
  9
$LIMMIN
 10
0
 20
0
  9
$LIMMAX
 10
420
 20
297
  9
$ORTHOMODE
 70
    0
  9
$REGENMODE
 70
    1
  9
$FILLMODE
 70
    1
  9
$QTEXTMODE
 70
    0
  9
$MIRRTEXT
 70
    0
  9
$LTSCALE
 40
1
  9
$ATTMODE
 70
    0
  9
$TEXTSIZE
 40
2.5
  9
$TRACEWID
 40
15.68
  9
$TEXTSTYLE
  7
STANDARD
  9
$CLAYER
  8
kader
  9
$CELTYPE
  6
BYLAYER
  9
$CECOLOR
 62
  256
  9
$CELTSCALE
 40
1
  9
$DISPSILH
 70
    0
  9
$DIMSCALE
 40
1
  9
$DIMASZ
 40
2.5
  9
$DIMEXO
 40
0.625
  9
$DIMDLI
 40
3.75
  9
$DIMRND
 40
0
  9
$DIMDLE
 40
0
  9
$DIMEXE
 40
1.25
  9
$DIMTP
 40
0
  9
$DIMTM
 40
0
  9
$DIMTXT
 40
2.5
  9
$DIMCEN
 40
2.5
  9
$DIMTSZ
 40
0
  9
$DIMTOL
 70
    0
  9
$DIMLIM
 70
    0
  9
$DIMTIH
 70
    0
  9
$DIMTOH
 70
    0
  9
$DIMSE1
 70
    0
  9
$DIMSE2
 70
    0
  9
$DIMTAD
 70
    1
  9
$DIMZIN
 70
    1
  9
$DIMBLK
  1

  9
$DIMASO
 70
    1
  9
$DIMSHO
 70
    1
  9
$DIMPOST
  1

  9
$DIMAPOST
  1

  9
$DIMALT
 70
    0
  9
$DIMALTD
 70
    3
  9
$DIMALTF
 40
0.03937
  9
$DIMLFAC
 40
1
  9
$DIMTOFL
 70
    1
  9
$DIMTVP
 40
0
  9
$DIMTIX
 70
    0
  9
$DIMSOXD
 70
    0
  9
$DIMSAH
 70
    0
  9
$DIMBLK1
  1

  9
$DIMBLK2
  1

  9
$DIMSTYLE
  2
Standard
  9
$DIMCLRD
 70
    0
  9
$DIMCLRE
 70
    0
  9
$DIMCLRT
 70
    0
  9
$DIMTFAC
 40
1
  9
$DIMGAP
 40
0.625
  9
$DIMJUST
 70
    0
  9
$DIMSD1
 70
    0
  9
$DIMSD2
 70
    0
  9
$DIMTOLJ
 70
    0
  9
$DIMTZIN
 70
    8
  9
$DIMALTZ
 70
    0
  9
$DIMALTTZ
 70
    0
  9
$DIMUPT
 70
    0
  9
$DIMDEC
 70
    4
  9
$DIMTDEC
 70
    2
  9
$DIMALTU
 70
    2
  9
$DIMALTTD
 70
    3
  9
$DIMTXSTY
  7
standard
  9
$DIMAUNIT
 70
    0
  9
$DIMADEC
 70
    2
  9
$DIMALTRND
 40
0
  9
$DIMAZIN
 70
    0
  9
$DIMDSEP
 70
    0
  9
$DIMATFIT
 70
    3
  9
$DIMFRAC
 70
    0
  9
$DIMLDRBLK
  1
STANDARD
  9
$DIMLUNIT
 70
    2
  9
$DIMLWD
 70
   -2
  9
$DIMLWE
 70
   -2
  9
$DIMTMOVE
 70
    0
  9
$DIMFXL
 40
1
  9
$DIMFXLON
 70
    0
  9
$DIMJOGANG
 40
0.7854
  9
$DIMTFILL
 70
    0
  9
$DIMTFILLCLR
 70
    0
  9
$DIMARCSYM
 70
    0
  9
$DIMLTYPE
  6

  9
$DIMLTEX1
  6

  9
$DIMLTEX2
  6

  9
$LUNITS
 70
    2
  9
$LUPREC
 70
    4
  9
$SKETCHINC
 40
1
  9
$FILLETRAD
 40
0
  9
$AUNITS
 70
    0
  9
$AUPREC
 70
    2
  9
$MENU
  1
.
  9
$ELEVATION
 40
0
  9
$PELEVATION
 40
0
  9
$THICKNESS
 40
0
  9
$LIMCHECK
 70
    0
  9
$CHAMFERA
 40
0
  9
$CHAMFERB
 40
0
  9
$CHAMFERC
 40
0
  9
$CHAMFERD
 40
0
  9
$SKPOLY
 70
    0
  9
$USRTIMER
 70
    1
  9
$ANGBASE
 50
0
  9
$ANGDIR
 70
    0
  9
$PDMODE
 70
   34
  9
$PDSIZE
 40
0
  9
$PLINEWID
 40
0
  9
$SPLFRAME
 70
    0
  9
$SPLINETYPE
 70
    2
  9
$SPLINESEGS
 70
    8
  9
$HANDSEED
  5
20000
  9
$SURFTAB1
 70
    6
  9
$SURFTAB2
 70
    6
  9
$SURFTYPE
 70
    6
  9
$SURFU
 70
    6
  9
$SURFV
 70
    6
  9
$UCSBASE
  2

  9
$UCSNAME
  2

  9
$UCSORG
 10
0
 20
0
 30
0
  9
$UCSXDIR
 10
1
 20
0
 30
0
  9
$UCSYDIR
 10
0
 20
1
 30
0
  9
$UCSORTHOREF
  2

  9
$UCSORTHOVIEW
 70
    0
  9
$UCSORGTOP
 10
0
 20
0
 30
0
  9
$UCSORGBOTTOM
 10
0
 20
0
 30
0
  9
$UCSORGLEFT
 10
0
 20
0
 30
0
  9
$UCSORGRIGHT
 10
0
 20
0
 30
0
  9
$UCSORGFRONT
 10
0
 20
0
 30
0
  9
$UCSORGBACK
 10
0
 20
0
 30
0
  9
$PUCSBASE
  2

  9
$PUCSNAME
  2

  9
$PUCSORG
 10
0
 20
0
 30
0
  9
$PUCSXDIR
 10
1
 20
0
 30
0
  9
$PUCSYDIR
 10
0
 20
1
 30
0
  9
$PUCSORTHOREF
  2

  9
$PUCSORTHOVIEW
 70
    0
  9
$PUCSORGTOP
 10
0
 20
0
 30
0
  9
$PUCSORGBOTTOM
 10
0
 20
0
 30
0
  9
$PUCSORGLEFT
 10
0
 20
0
 30
0
  9
$PUCSORGRIGHT
 10
0
 20
0
 30
0
  9
$PUCSORGFRONT
 10
0
 20
0
 30
0
  9
$PUCSORGBACK
 10
0
 20
0
 30
0
  9
$USERI1
 70
    0
  9
$USERI2
 70
    0
  9
$USERI3
 70
    0
  9
$USERI4
 70
    0
  9
$USERI5
 70
    0
  9
$USERR1
 40
0
  9
$USERR2
 40
0
  9
$USERR3
 40
0
  9
$USERR4
 40
0
  9
$USERR5
 40
0
  9
$WORLDVIEW
 70
    1
  9
$SHADEDGE
 70
    3
  9
$SHADEDIF
 70
   70
  9
$TILEMODE
 70
    1
  9
$MAXACTVP
 70
   64
  9
$PINSBASE
 10
12.5
 20
19
 30
0
  9
$PLIMCHECK
 70
    0
  9
$PEXTMIN
 10
0
 20
0
 30
0
  9
$PEXTMAX
 10
0
 20
0
 30
0
  9
$GRIDMODE
 70
    1
  9
$SNAPSTYLE
 70
    0
  9
$GRIDUNIT
 10
0
 20
0
  9
$PLIMMIN
 10
0
 20
0
  9
$PLIMMAX
 10
210
 20
297
  9
$UNITMODE
 70
    0
  9
$VISRETAIN
 70
    1
  9
$PLINEGEN
 70
    0
  9
$PSLTSCALE
 70
    1
  9
$TREEDEPTH
 70
 3020
  9
$CMLSTYLE
  2
Standard
  9
$CMLJUST
 70
    0
  9
$CMLSCALE
 40
20
  9
$PROXYGRAPHICS
 70
    1
  9
$MEASUREMENT
 70
    1
  9
$CELWEIGHT
370
   -1
  9
$ENDCAPS
280
    0
  9
$JOINSTYLE
280
    0
  9
$LWDISPLAY
290
    0
  9
$INSUNITS
 70
    4
  9
$HYPERLINKBASE
  1

  9
$STYLESHEET
  1

  9
$XEDIT
290
    1
  9
$CEPSNTYPE
380
    0
  9
$PSTYLEMODE
290
    1
  9
$EXTNAMES
290
    1
  9
$PSVPSCALE
 40
0.925000925000925
  9
$OLESTARTUP
290
    0
  9
$SORTENTS
280
  127
  9
$INDEXCTL
280
    0
  9
$HIDETEXT
280
    1
  9
$XCLIPFRAME
290
    0
  9
$HALOGAP
280
    0
  9
$OBSCOLOR
 70
  257
  9
$OBSLTYPE
280
    0
  9
$INTERSECTIONDISPLAY
280
    0
  9
$INTERSECTIONCOLOR
 70
  257
  9
$DIMASSOC
280
    1
  9
$PROJECTNAME
  1

  9
$CAMERADISPLAY
290
    0
  9
$LENSLENGTH
 40
50
  9
$CAMERAHEIGHT
 40
0
  9
$STEPSPERSEC
 40
2
  9
$STEPSIZE
 40
50
  9
$3DDWFPREC
 40
2
  9
$PSOLWIDTH
 40
5
  9
$PSOLHEIGHT
 40
80
  9
$LOFTANG1
 40
1.570796326794897
  9
$LOFTANG2
 40
1.570796326794897
  9
$LOFTMAG1
 40
0
  9
$LOFTMAG2
 40
0
  9
$LOFTPARAM
 70
    7
  9
$LOFTNORMALS
280
    1
  9
$LATITUDE
 40
1
  9
$LONGITUDE
 40
1
  9
$NORTHDIRECTION
 40
0
  9
$TIMEZONE
 70
-8000
  9
$LIGHTGLYPHDISPLAY
280
    1
  9
$TILEMODELIGHTSYNCH
280
    1
  9
$SOLIDHIST
280
    1
  9
$SHOWHIST
280
    1
  9
$DWFFRAME
280
    2
  9
$DGNFRAME
280
    0
  9
$REALWORLDSCALE
290
    1
  9
$INTERFERECOLOR
 62
    1
  9
$CSHADOW
280
    0
  9
$SHADOWPLANELOCATION
 40
0
  0
ENDSEC
  0
SECTION
  2
CLASSES
  0
ENDSEC
  0
SECTION
  2
TABLES
  0
TABLE
  2
VPORT
  5
8
330
0
100
AcDbSymbolTable
 70
    1
  0
VPORT
  5
31
330
2
100
AcDbSymbolTableRecord
100
AcDbViewportTableRecord
  2
*ACTIVE
 70
    0
 10
0
 20
0
 11
1
 21
1
 12
179.3076923076923
 22
141.7948717948718
 13
0
 23
0
 14
10
 24
10
 15
10
 25
10
 16
0
 26
0
 36
1
 17
0
 27
0
 37
0
 40
287.1794871794872
 41
1.79875
 42
50
 43
0
 44
0
 50
0
 51
0
 71
    0
 72
  100
 73
    1
 74
    3
 75
    0
 76
    1
 77
    0
 78
    0
281
    0
 65
    1
110
0
120
0
130
0
111
1
121
0
131
0
112
0
122
1
132
0
 79
    0
146
0
348
10020
 60
    7
 61
    5
292
1
282
    1
141
0
142
0
 63
  250
421
3358443
  0
ENDTAB
  0
TABLE
  2
LTYPE
  5
5
330
0
100
AcDbSymbolTable
 70
    4
  0
LTYPE
  5
14
330
5
100
AcDbSymbolTableRecord
100
AcDbLinetypeTableRecord
  2
ByBlock
 70
    0
  3

 72
   65
 73
    0
 40
0
  0
LTYPE
  5
15
330
5
100
AcDbSymbolTableRecord
100
AcDbLinetypeTableRecord
  2
ByLayer
 70
    0
  3

 72
   65
 73
    0
 40
0
  0
LTYPE
  5
16
330
5
100
AcDbSymbolTableRecord
100
AcDbLinetypeTableRecord
  2
Continuous
 70
    0
  3
Solid line
 72
   65
 73
    0
 40
0
  0
LTYPE
  5
32
330
5
100
AcDbSymbolTableRecord
100
AcDbLinetypeTableRecord
  2
DOT
 70
    0
  3
Dot . . . . . . . . . . . . . . . . . . . . . .
 72
   65
 73
    2
 40
6.35
 49
0
 74
    0
 49
-6.35
 74
    0
  0
LTYPE
  5
33
330
5
100
AcDbSymbolTableRecord
100
AcDbLinetypeTableRecord
  2
DOTTINY
 70
    0
  3
Dot (.15x) .....................................
 72
   65
 73
    2
 40
0.9525
 49
0
 74
    0
 49
-0.9525
 74
    0
  0
LTYPE
  5
34
330
5
100
AcDbSymbolTableRecord
100
AcDbLinetypeTableRecord
  2
DOT2
 70
    0
  3
Dot (.5x) .....................................
 72
   65
 73
    2
 40
3.175
 49
0
 74
    0
 49
-3.175
 74
    0
  0
LTYPE
  5
35
330
5
100
AcDbSymbolTableRecord
100
AcDbLinetypeTableRecord
  2
DOTX2
 70
    0
  3
Dot (2x) .  .  .  .  .  .  .  .  .  .  .  .  .
 72
   65
 73
    2
 40
12.7
 49
0
 74
    0
 49
-12.7
 74
    0
  0
LTYPE
  5
36
330
5
100
AcDbSymbolTableRecord
100
AcDbLinetypeTableRecord
  2
DASHED
 70
    0
  3
Dashed _ _ _ _ _ _ _ _ _ _ _ _ _ _ _ _ _
 72
   65
 73
    2
 40
19.05
 49
12.7
 74
    0
 49
-6.35
 74
    0
  0
LTYPE
  5
37
330
5
100
AcDbSymbolTableRecord
100
AcDbLinetypeTableRecord
  2
DASHEDTINY
 70
    0
  3
Dashed (.15x) _ _ _ _ _ _ _ _ _ _ _ _ _ _ _ _ _
 72
   65
 73
    2
 40
2.8575
 49
1.905
 74
    0
 49
-0.9525
 74
    0
  0
LTYPE
  5
38
330
5
100
AcDbSymbolTableRecord
100
AcDbLinetypeTableRecord
  2
DASHED2
 70
    0
  3
Dashed (.5x) _ _ _ _ _ _ _ _ _ _ _ _ _ _ _ _ _
 72
   65
 73
    2
 40
9.524999999999999
 49
6.35
 74
    0
 49
-3.175
 74
    0
  0
LTYPE
  5
39
330
5
100
AcDbSymbolTableRecord
100
AcDbLinetypeTableRecord
  2
DASHEDX2
 70
    0
  3
Dashed (2x) ____  ____  ____  ____  ____  ___
 72
   65
 73
    2
 40
38.09999999999999
 49
25.4
 74
    0
 49
-12.7
 74
    0
  0
LTYPE
  5
3A
330
5
100
AcDbSymbolTableRecord
100
AcDbLinetypeTableRecord
  2
DASHDOT
 70
    0
  3
Dash dot __ . __ . __ . __ . __ . __ . __ . __
 72
   65
 73
    4
 40
25.4
 49
12.7
 74
    0
 49
-6.35
 74
    0
 49
0
 74
    0
 49
-6.35
 74
    0
  0
LTYPE
  5
3B
330
5
100
AcDbSymbolTableRecord
100
AcDbLinetypeTableRecord
  2
DASHDOTTINY
 70
    0
  3
Dash dot (.15x) _._._._._._._._._._._._._._._.
 72
   65
 73
    4
 40
3.81
 49
1.905
 74
    0
 49
-0.9525
 74
    0
 49
0
 74
    0
 49
-0.9525
 74
    0
  0
LTYPE
  5
3C
330
5
100
AcDbSymbolTableRecord
100
AcDbLinetypeTableRecord
  2
DASHDOT2
 70
    0
  3
Dash dot (.5x) _._._._._._._._._._._._._._._.
 72
   65
 73
    4
 40
12.7
 49
6.35
 74
    0
 49
-3.175
 74
    0
 49
0
 74
    0
 49
-3.175
 74
    0
  0
LTYPE
  5
3D
330
5
100
AcDbSymbolTableRecord
100
AcDbLinetypeTableRecord
  2
DASHDOTX2
 70
    0
  3
Dash dot (2x) ____  .  ____  .  ____  .  ___
 72
   65
 73
    4
 40
50.8
 49
25.4
 74
    0
 49
-12.7
 74
    0
 49
0
 74
    0
 49
-12.7
 74
    0
  0
LTYPE
  5
3E
330
5
100
AcDbSymbolTableRecord
100
AcDbLinetypeTableRecord
  2
DIVIDE
 70
    0
  3
Divide ____ . . ____ . . ____ . . ____ . . ____
 72
   65
 73
    6
 40
31.75
 49
12.7
 74
    0
 49
-6.35
 74
    0
 49
0
 74
    0
 49
-6.35
 74
    0
 49
0
 74
    0
 49
-6.35
 74
    0
  0
LTYPE
  5
3F
330
5
100
AcDbSymbolTableRecord
100
AcDbLinetypeTableRecord
  2
DIVIDETINY
 70
    0
  3
Divide (.15x) __..__..__..__..__..__..__..__.._
 72
   65
 73
    6
 40
4.7625
 49
1.905
 74
    0
 49
-0.9525
 74
    0
 49
0
 74
    0
 49
-0.9525
 74
    0
 49
0
 74
    0
 49
-0.9525
 74
    0
  0
LTYPE
  5
40
330
5
100
AcDbSymbolTableRecord
100
AcDbLinetypeTableRecord
  2
DIVIDE2
 70
    0
  3
Divide (.5x) __..__..__..__..__..__..__..__.._
 72
   65
 73
    6
 40
15.875
 49
6.35
 74
    0
 49
-3.175
 74
    0
 49
0
 74
    0
 49
-3.175
 74
    0
 49
0
 74
    0
 49
-3.175
 74
    0
  0
LTYPE
  5
41
330
5
100
AcDbSymbolTableRecord
100
AcDbLinetypeTableRecord
  2
DIVIDEX2
 70
    0
  3
Divide (2x) ________  .  .  ________  .  .  _
 72
   65
 73
    6
 40
63.5
 49
25.4
 74
    0
 49
-12.7
 74
    0
 49
0
 74
    0
 49
-12.7
 74
    0
 49
0
 74
    0
 49
-12.7
 74
    0
  0
LTYPE
  5
42
330
5
100
AcDbSymbolTableRecord
100
AcDbLinetypeTableRecord
  2
BORDER
 70
    0
  3
Border __ __ . __ __ . __ __ . __ __ . __ __ .
 72
   65
 73
    6
 40
44.45
 49
12.7
 74
    0
 49
-6.35
 74
    0
 49
12.7
 74
    0
 49
-6.35
 74
    0
 49
0
 74
    0
 49
-6.35
 74
    0
  0
LTYPE
  5
43
330
5
100
AcDbSymbolTableRecord
100
AcDbLinetypeTableRecord
  2
BORDERTINY
 70
    0
  3
Border (.15x) __.__.__.__.__.__.__.__.__.__.__.
 72
   65
 73
    6
 40
6.6675
 49
1.905
 74
    0
 49
-0.9525
 74
    0
 49
1.905
 74
    0
 49
-0.9525
 74
    0
 49
0
 74
    0
 49
-0.9525
 74
    0
  0
LTYPE
  5
44
330
5
100
AcDbSymbolTableRecord
100
AcDbLinetypeTableRecord
  2
BORDER2
 70
    0
  3
Border (.5x) __.__.__.__.__.__.__.__.__.__.__.
 72
   65
 73
    6
 40
22.225
 49
6.35
 74
    0
 49
-3.175
 74
    0
 49
6.35
 74
    0
 49
-3.175
 74
    0
 49
0
 74
    0
 49
-3.175
 74
    0
  0
LTYPE
  5
45
330
5
100
AcDbSymbolTableRecord
100
AcDbLinetypeTableRecord
  2
BORDERX2
 70
    0
  3
Border (2x) ____  ____  .  ____  ____  .  ___
 72
   65
 73
    6
 40
88.89999999999999
 49
25.4
 74
    0
 49
-12.7
 74
    0
 49
25.4
 74
    0
 49
-12.7
 74
    0
 49
0
 74
    0
 49
-12.7
 74
    0
  0
LTYPE
  5
46
330
5
100
AcDbSymbolTableRecord
100
AcDbLinetypeTableRecord
  2
CENTER
 70
    0
  3
Center ____ _ ____ _ ____ _ ____ _ ____ _ ____
 72
   65
 73
    4
 40
50.8
 49
31.75
 74
    0
 49
-6.35
 74
    0
 49
6.35
 74
    0
 49
-6.35
 74
    0
  0
LTYPE
  5
47
330
5
100
AcDbSymbolTableRecord
100
AcDbLinetypeTableRecord
  2
CENTERTINY
 70
    0
  3
Center (.15x) ___ _ ___ _ ___ _ ___ _ ___ _ ___
 72
   65
 73
    4
 40
7.62
 49
4.7625
 74
    0
 49
-0.9525
 74
    0
 49
0.9525
 74
    0
 49
-0.9525
 74
    0
  0
LTYPE
  5
48
330
5
100
AcDbSymbolTableRecord
100
AcDbLinetypeTableRecord
  2
CENTER2
 70
    0
  3
Center (.5x) ___ _ ___ _ ___ _ ___ _ ___ _ ___
 72
   65
 73
    4
 40
28.575
 49
19.05
 74
    0
 49
-3.175
 74
    0
 49
3.175
 74
    0
 49
-3.175
 74
    0
  0
LTYPE
  5
49
330
5
100
AcDbSymbolTableRecord
100
AcDbLinetypeTableRecord
  2
CENTERX2
 70
    0
  3
Center (2x) ________  __  ________  __  _____
 72
   65
 73
    4
 40
101.6
 49
63.5
 74
    0
 49
-12.7
 74
    0
 49
12.7
 74
    0
 49
-12.7
 74
    0
  0
ENDTAB
  0
TABLE
  2
LAYER
  5
2
330
0
100
AcDbSymbolTable
 70
    1
  0
LAYER
  5
10
330
2
100
AcDbSymbolTableRecord
100
AcDbLayerTableRecord
  2
0
 70
    0
 62
    7
  6
CONTINUOUS
370
    0
390
F
  0
LAYER
  5
4A
330
2
100
AcDbSymbolTableRecord
100
AcDbLayerTableRecord
  2
arceer
 70
    0
 62
    7
  6
CONTINUOUS
370
    0
390
F
  0
LAYER
  5
4B
330
2
100
AcDbSymbolTableRecord
100
AcDbLayerTableRecord
  2
kader
 70
    0
 62
    7
  6
CONTINUOUS
370
    0
390
F
  0
LAYER
  5
4C
330
2
100
AcDbSymbolTableRecord
100
AcDbLayerTableRecord
  2
kader1
 70
    0
 62
    7
  6
CONTINUOUS
370
    0
390
F
  0
LAYER
  5
4D
330
2
100
AcDbSymbolTableRecord
100
AcDbLayerTableRecord
  2
tekst
 70
    0
 62
    7
  6
CONTINUOUS
370
    0
390
F
  0
ENDTAB
  0
TABLE
  2
STYLE
  5
3
330
0
100
AcDbSymbolTable
 70
    3
  0
STYLE
  5
4E
330
2
100
AcDbSymbolTableRecord
100
AcDbTextStyleTableRecord
  2
standard
 70
    0
 40
0
 41
1
 50
0
 71
    0
 42
1
  3
standard
  4

  0
ENDTAB
  0
TABLE
  2
VIEW
  5
6
330
0
100
AcDbSymbolTable
 70
    0
  0
ENDTAB
  0
TABLE
  2
UCS
  5
7
330
0
100
AcDbSymbolTable
 70
    0
  0
ENDTAB
  0
TABLE
  2
APPID
  5
9
330
0
100
AcDbSymbolTable
 70
    1
  0
APPID
  5
12
330
9
100
AcDbSymbolTableRecord
100
AcDbRegAppTableRecord
  2
ACAD
 70
    0
  0
APPID
  5
4F
330
9
100
AcDbSymbolTableRecord
100
AcDbRegAppTableRecord
  2
LibreCad
 70
    0
  0
ENDTAB
  0
TABLE
  2
DIMSTYLE
  5
A
330
0
100
AcDbSymbolTable
 70
    1
100
AcDbDimStyleTable
 71
    1
  0
DIMSTYLE
105
50
330
A
100
AcDbSymbolTableRecord
100
AcDbDimStyleTableRecord
  2
Standard
 70
    0
 40
1
 41
2.5
 42
0.625
 43
0.38
 44
1.25
 45
0
 46
0
 47
0
 48
0
 49
1
140
2.5
141
0.09
142
0
143
25.4
144
1
145
0
146
1
147
0.625
148
0
 71
    0
 72
    0
 73
    0
 74
    1
 75
    0
 76
    0
 77
    0
 78
    1
 79
    0
170
    0
171
    2
172
    0
173
    0
174
    0
175
    0
176
    0
177
    0
178
    0
179
    2
271
    4
272
    4
273
    2
274
    2
275
    0
276
    0
277
    2
278
    0
279
    0
280
    0
281
    0
282
    0
283
    1
284
    0
285
    0
286
    0
288
    0
289
    3
340
standard
341

371
   -2
372
   -2
  0
ENDTAB
  0
TABLE
  2
BLOCK_RECORD
  5
1
330
0
100
AcDbSymbolTable
 70
    2
  0
BLOCK_RECORD
  5
1F
330
1
100
AcDbSymbolTableRecord
100
AcDbBlockTableRecord
  2
*Model_Space
 70
    0
280
    1
281
    0
  0
BLOCK_RECORD
  5
1E
330
1
100
AcDbSymbolTableRecord
100
AcDbBlockTableRecord
  2
*Paper_Space
 70
    0
280
    1
281
    0
  0
ENDTAB
  0
ENDSEC
  0
SECTION
  2
BLOCKS
  0
BLOCK
  5
20
330
1F
100
AcDbEntity
  8
0
100
AcDbBlockBegin
  2
*Model_Space
 70
    0
 10
0
 20
0
 30
0
  3
*Model_Space
  1

  0
ENDBLK
  5
21
330
1F
100
AcDbEntity
  8
0
100
AcDbBlockEnd
  0
BLOCK
  5
1C
330
1B
100
AcDbEntity
  8
0
100
AcDbBlockBegin
  2
*Paper_Space
 70
    0
 10
0
 20
0
 30
0
  3
*Paper_Space
  1

  0
ENDBLK
  5
1D
330
1F
100
AcDbEntity
  8
0
100
AcDbBlockEnd
  0
ENDSEC
  0
SECTION
  2
ENTITIES
  0
HATCH
  5
51
100
AcDbEntity
  8
arceer
  6
ByLayer
 62
  256
370
   -1
100
AcDbHatch
 10
0
 20
0
 30
0
210
0
220
0
230
1
  2
triangle_b
 70
    0
 71
    0
 91
    1
 92
    0
 93
    4
 72
    1
 10
125.4262050000001
 20
48.00003157717538
 11
149.2294790000001
 21
48.00003157717538
 72
    1
 10
149.2294790000001
 20
48.00003157717538
 11
149.2294790000001
 21
24.19675757717539
 72
    1
 10
149.2294790000001
 20
24.19675757717539
 11
125.4262050000001
 21
24.19675757717539
 72
    1
 10
125.4262050000001
 20
24.19675757717539
 11
125.4262050000001
 21
48.00003157717538
 97
    0
 75
    0
 76
    1
 52
0
 41
0.1
 77
    0
 78
    0
 98
    0
  0
HATCH
  5
52
100
AcDbEntity
  8
arceer
  6
ByLayer
 62
  256
370
   -1
100
AcDbHatch
 10
0
 20
0
 30
0
210
0
220
0
230
1
  2
triangle_a
 70
    0
 71
    0
 91
    1
 92
    0
 93
    4
 72
    1
 10
100.5409640000001
 20
48.00003157717538
 11
124.3442380000001
 21
48.00003157717538
 72
    1
 10
124.3442380000001
 20
48.00003157717538
 11
124.3442380000001
 21
24.19675757717539
 72
    1
 10
124.3442380000001
 20
24.19675757717539
 11
100.5409640000001
 21
24.19675757717539
 72
    1
 10
100.5409640000001
 20
24.19675757717539
 11
100.5409640000001
 21
48.00003157717538
 97
    0
 75
    0
 76
    1
 52
0
 41
0.1
 77
    0
 78
    0
 98
    0
  0
HATCH
  5
53
100
AcDbEntity
  8
arceer
  6
ByLayer
 62
  256
370
   -1
100
AcDbHatch
 10
0
 20
0
 30
0
210
0
220
0
230
1
  2
square
 70
    0
 71
    0
 91
    1
 92
    0
 93
    4
 72
    1
 10
75.65572300000009
 20
48.00003157717538
 11
99.4589970000001
 21
48.00003157717538
 72
    1
 10
99.4589970000001
 20
48.00003157717538
 11
99.4589970000001
 21
24.19675757717539
 72
    1
 10
99.4589970000001
 20
24.19675757717539
 11
75.65572300000009
 21
24.19675757717539
 72
    1
 10
75.65572300000009
 20
24.19675757717539
 11
75.65572300000009
 21
48.00003157717538
 97
    0
 75
    0
 76
    1
 52
0
 41
0.1
 77
    0
 78
    0
 98
    0
  0
HATCH
  5
54
100
AcDbEntity
  8
arceer
  6
ByLayer
 62
  256
370
   -1
100
AcDbHatch
 10
0
 20
0
 30
0
210
0
220
0
230
1
  2
sand
 70
    0
 71
    0
 91
    1
 92
    0
 93
    4
 72
    1
 10
74.57375600000009
 20
24.19675757717539
 11
50.77048200000009
 21
24.19675757717539
 72
    1
 10
50.77048200000009
 20
24.19675757717539
 11
50.77048200000009
 21
48.00003157717538
 72
    1
 10
50.77048200000009
 20
48.00003157717538
 11
74.57375600000009
 21
48.00003157717538
 72
    1
 10
74.57375600000009
 20
48.00003157717538
 11
74.57375600000009
 21
24.19675757717539
 97
    0
 75
    0
 76
    1
 52
0
 41
0.2
 77
    0
 78
    0
 98
    0
  0
HATCH
  5
55
100
AcDbEntity
  8
arceer
  6
ByLayer
 62
  256
370
   -1
100
AcDbHatch
 10
0
 20
0
 30
0
210
0
220
0
230
1
  2
sacncr
 70
    0
 71
    0
 91
    1
 92
    0
 93
    4
 72
    1
 10
25.88524100000009
 20
48.00003157717538
 11
49.68851500000009
 21
48.00003157717538
 72
    1
 10
49.68851500000009
 20
48.00003157717538
 11
49.68851500000009
 21
24.19675757717539
 72
    1
 10
49.68851500000009
 20
24.19675757717539
 11
25.88524100000009
 21
24.19675757717539
 72
    1
 10
25.88524100000009
 20
24.19675757717539
 11
25.88524100000009
 21
48.00003157717538
 97
    0
 75
    0
 76
    1
 52
0
 41
0.1
 77
    0
 78
    0
 98
    0
  0
HATCH
  5
56
100
AcDbEntity
  8
arceer
  6
ByLayer
 62
  256
370
   -1
100
AcDbHatch
 10
0
 20
0
 30
0
210
0
220
0
230
1
  2
plastic
 70
    0
 71
    0
 91
    1
 92
    0
 93
    4
 72
    1
 10
24.80327400000009
 20
24.19675757717539
 11
1.000000000000097
 21
24.19675757717539
 72
    1
 10
1.000000000000097
 20
24.19675757717539
 11
1.000000000000097
 21
48.00003157717538
 72
    1
 10
1.000000000000097
 20
48.00003157717538
 11
24.80327400000009
 21
48.00003157717538
 72
    1
 10
24.80327400000009
 20
48.00003157717538
 11
24.80327400000009
 21
24.19675757717539
 97
    0
 75
    0
 76
    1
 52
0
 41
2
 77
    0
 78
    0
 98
    0
  0
HATCH
  5
57
100
AcDbEntity
  8
arceer
  6
ByLayer
 62
  256
370
   -1
100
AcDbHatch
 10
0
 20
0
 30
0
210
0
220
0
230
1
  2
pantagon_b
 70
    0
 71
    0
 91
    1
 92
    0
 93
    4
 72
    1
 10
175.1966870000001
 20
81.00002706615032
 11
198.9999610000001
 21
81.00002706615032
 72
    1
 10
198.9999610000001
 20
81.00002706615032
 11
198.9999610000001
 21
57.19675306615034
 72
    1
 10
198.9999610000001
 20
57.19675306615034
 11
175.1966870000001
 21
57.19675306615034
 72
    1
 10
175.1966870000001
 20
57.19675306615034
 11
175.1966870000001
 21
81.00002706615032
 97
    0
 75
    0
 76
    1
 52
0
 41
0.1
 77
    0
 78
    0
 98
    0
  0
HATCH
  5
58
100
AcDbEntity
  8
arceer
  6
ByLayer
 62
  256
370
   -1
100
AcDbHatch
 10
0
 20
0
 30
0
210
0
220
0
230
1
  2
pantagon_a
 70
    0
 71
    0
 91
    1
 92
    0
 93
    4
 72
    1
 10
150.3114460000001
 20
81.00002706615032
 11
174.1147200000001
 21
81.00002706615032
 72
    1
 10
174.1147200000001
 20
81.00002706615032
 11
174.1147200000001
 21
57.19675306615034
 72
    1
 10
174.1147200000001
 20
57.19675306615034
 11
150.3114460000001
 21
57.19675306615034
 72
    1
 10
150.3114460000001
 20
57.19675306615034
 11
150.3114460000001
 21
81.00002706615032
 97
    0
 75
    0
 76
    1
 52
0
 41
0.1
 77
    0
 78
    0
 98
    0
  0
HATCH
  5
59
100
AcDbEntity
  8
arceer
  6
ByLayer
 62
  256
370
   -1
100
AcDbHatch
 10
0
 20
0
 30
0
210
0
220
0
230
1
  2
paisley
 70
    0
 71
    0
 91
    1
 92
    0
 93
    4
 72
    1
 10
125.4262050000001
 20
81.00002706615032
 11
149.2294790000001
 21
81.00002706615032
 72
    1
 10
149.2294790000001
 20
81.00002706615032
 11
149.2294790000001
 21
57.19675306615034
 72
    1
 10
149.2294790000001
 20
57.19675306615034
 11
125.4262050000001
 21
57.19675306615034
 72
    1
 10
125.4262050000001
 20
57.19675306615034
 11
125.4262050000001
 21
81.00002706615032
 97
    0
 75
    0
 76
    1
 52
0
 41
0.1
 77
    0
 78
    0
 98
    0
  0
HATCH
  5
5A
100
AcDbEntity
  8
arceer
  6
ByLayer
 62
  256
370
   -1
100
AcDbHatch
 10
0
 20
0
 30
0
210
0
220
0
230
1
  2
misc03
 70
    0
 71
    0
 91
    1
 92
    0
 93
    4
 72
    1
 10
124.3442380000001
 20
57.19675306615034
 11
100.5409640000001
 21
57.19675306615034
 72
    1
 10
100.5409640000001
 20
57.19675306615034
 11
100.5409640000001
 21
81.00002706615032
 72
    1
 10
100.5409640000001
 20
81.00002706615032
 11
124.3442380000001
 21
81.00002706615032
 72
    1
 10
124.3442380000001
 20
81.00002706615032
 11
124.3442380000001
 21
57.19675306615034
 97
    0
 75
    0
 76
    1
 52
0
 41
1
 77
    0
 78
    0
 98
    0
  0
HATCH
  5
5B
100
AcDbEntity
  8
arceer
  6
ByLayer
 62
  256
370
   -1
100
AcDbHatch
 10
0
 20
0
 30
0
210
0
220
0
230
1
  2
misc02
 70
    0
 71
    0
 91
    1
 92
    0
 93
    4
 72
    1
 10
75.65572300000008
 20
81.00002706615032
 11
99.45899700000008
 21
81.00002706615032
 72
    1
 10
99.45899700000008
 20
81.00002706615032
 11
99.45899700000008
 21
57.19675306615034
 72
    1
 10
99.45899700000008
 20
57.19675306615034
 11
75.65572300000008
 21
57.19675306615034
 72
    1
 10
75.65572300000008
 20
57.19675306615034
 11
75.65572300000008
 21
81.00002706615032
 97
    0
 75
    0
 76
    1
 52
0
 41
0.1
 77
    0
 78
    0
 98
    0
  0
HATCH
  5
5C
100
AcDbEntity
  8
arceer
  6
ByLayer
 62
  256
370
   -1
100
AcDbHatch
 10
0
 20
0
 30
0
210
0
220
0
230
1
  2
misc01
 70
    0
 71
    0
 91
    1
 92
    0
 93
    4
 72
    1
 10
50.77048200000008
 20
81.00002706615032
 11
74.57375600000007
 21
81.00002706615032
 72
    1
 10
74.57375600000007
 20
81.00002706615032
 11
74.57375600000007
 21
57.19675306615034
 72
    1
 10
74.57375600000007
 20
57.19675306615034
 11
50.77048200000008
 21
57.19675306615034
 72
    1
 10
50.77048200000008
 20
57.19675306615034
 11
50.77048200000008
 21
81.00002706615032
 97
    0
 75
    0
 76
    1
 52
0
 41
0.1
 77
    0
 78
    0
 98
    0
  0
HATCH
  5
5D
100
AcDbEntity
  8
arceer
  6
ByLayer
 62
  256
370
   -1
100
AcDbHatch
 10
0
 20
0
 30
0
210
0
220
0
230
1
  2
kerpele
 70
    0
 71
    0
 91
    1
 92
    0
 93
    4
 72
    1
 10
25.88524100000008
 20
81.00002706615032
 11
49.68851500000008
 21
81.00002706615032
 72
    1
 10
49.68851500000008
 20
81.00002706615032
 11
49.68851500000008
 21
57.19675306615034
 72
    1
 10
49.68851500000008
 20
57.19675306615034
 11
25.88524100000008
 21
57.19675306615034
 72
    1
 10
25.88524100000008
 20
57.19675306615034
 11
25.88524100000008
 21
81.00002706615032
 97
    0
 75
    0
 76
    1
 52
0
 41
0.1
 77
    0
 78
    0
 98
    0
  0
HATCH
  5
5E
100
AcDbEntity
  8
arceer
  6
ByLayer
 62
  256
370
   -1
100
AcDbHatch
 10
0
 20
0
 30
0
210
0
220
0
230
1
  2
iso03w100a
 70
    0
 71
    0
 91
    1
 92
    0
 93
    4
 72
    1
 10
1.000000000000083
 20
81.00002706615032
 11
24.80327400000008
 21
81.00002706615032
 72
    1
 10
24.80327400000008
 20
81.00002706615032
 11
24.80327400000008
 21
57.19675306615034
 72
    1
 10
24.80327400000008
 20
57.19675306615034
 11
1.000000000000083
 21
57.19675306615034
 72
    1
 10
1.000000000000083
 20
57.19675306615034
 11
1.000000000000083
 21
81.00002706615032
 97
    0
 75
    0
 76
    1
 52
0
 41
0.1
 77
    0
 78
    0
 98
    0
  0
HATCH
  5
5F
100
AcDbEntity
  8
arceer
  6
ByLayer
 62
  256
370
   -1
100
AcDbHatch
 10
0
 20
0
 30
0
210
0
220
0
230
1
  2
iso03w100
 70
    0
 71
    0
 91
    1
 92
    0
 93
    4
 72
    1
 10
175.1966870000001
 20
114.0000225551253
 11
198.999961
 21
114.0000225551253
 72
    1
 10
198.999961
 20
114.0000225551253
 11
198.999961
 21
90.19674855512528
 72
    1
 10
198.999961
 20
90.19674855512528
 11
175.1966870000001
 21
90.19674855512528
 72
    1
 10
175.1966870000001
 20
90.19674855512528
 11
175.1966870000001
 21
114.0000225551253
 97
    0
 75
    0
 76
    1
 52
0
 41
0.1
 77
    0
 78
    0
 98
    0
  0
HATCH
  5
60
100
AcDbEntity
  8
arceer
  6
ByLayer
 62
  256
370
   -1
100
AcDbHatch
 10
0
 20
0
 30
0
210
0
220
0
230
1
  2
hound
 70
    0
 71
    0
 91
    1
 92
    0
 93
    4
 72
    1
 10
150.311446
 20
114.0000225551253
 11
174.11472
 21
114.0000225551253
 72
    1
 10
174.11472
 20
114.0000225551253
 11
174.11472
 21
90.19674855512528
 72
    1
 10
174.11472
 20
90.19674855512528
 11
150.311446
 21
90.19674855512528
 72
    1
 10
150.311446
 20
90.19674855512528
 11
150.311446
 21
114.0000225551253
 97
    0
 75
    0
 76
    1
 52
0
 41
0.1
 77
    0
 78
    0
 98
    0
  0
HATCH
  5
61
100
AcDbEntity
  8
arceer
  6
ByLayer
 62
  256
370
   -1
100
AcDbHatch
 10
0
 20
0
 30
0
210
0
220
0
230
1
  2
honeycomb
 70
    0
 71
    0
 91
    1
 92
    0
 93
    4
 72
    1
 10
125.4262050000001
 20
114.0000225551253
 11
149.2294790000001
 21
114.0000225551253
 72
    1
 10
149.2294790000001
 20
114.0000225551253
 11
149.2294790000001
 21
90.19674855512528
 72
    1
 10
149.2294790000001
 20
90.19674855512528
 11
125.4262050000001
 21
90.19674855512528
 72
    1
 10
125.4262050000001
 20
90.19674855512528
 11
125.4262050000001
 21
114.0000225551253
 97
    0
 75
    0
 76
    1
 52
0
 41
0.1
 77
    0
 78
    0
 98
    0
  0
HATCH
  5
62
100
AcDbEntity
  8
arceer
  6
ByLayer
 62
  256
370
   -1
100
AcDbHatch
 10
0
 20
0
 30
0
210
0
220
0
230
1
  2
hexagon_b
 70
    0
 71
    0
 91
    1
 92
    0
 93
    4
 72
    1
 10
100.5409640000001
 20
114.0000225551253
 11
124.3442380000001
 21
114.0000225551253
 72
    1
 10
124.3442380000001
 20
114.0000225551253
 11
124.3442380000001
 21
90.19674855512528
 72
    1
 10
124.3442380000001
 20
90.19674855512528
 11
100.5409640000001
 21
90.19674855512528
 72
    1
 10
100.5409640000001
 20
90.19674855512528
 11
100.5409640000001
 21
114.0000225551253
 97
    0
 75
    0
 76
    1
 52
0
 41
0.1
 77
    0
 78
    0
 98
    0
  0
HATCH
  5
63
100
AcDbEntity
  8
arceer
  6
ByLayer
 62
  256
370
   -1
100
AcDbHatch
 10
0
 20
0
 30
0
210
0
220
0
230
1
  2
hexagon_a
 70
    0
 71
    0
 91
    1
 92
    0
 93
    4
 72
    1
 10
75.65572300000007
 20
114.0000225551253
 11
99.45899700000007
 21
114.0000225551253
 72
    1
 10
99.45899700000007
 20
114.0000225551253
 11
99.45899700000007
 21
90.19674855512528
 72
    1
 10
99.45899700000007
 20
90.19674855512528
 11
75.65572300000007
 21
90.19674855512528
 72
    1
 10
75.65572300000007
 20
90.19674855512528
 11
75.65572300000007
 21
114.0000225551253
 97
    0
 75
    0
 76
    1
 52
0
 41
0.1
 77
    0
 78
    0
 98
    0
  0
HATCH
  5
64
100
AcDbEntity
  8
arceer
  6
ByLayer
 62
  256
370
   -1
100
AcDbHatch
 10
0
 20
0
 30
0
210
0
220
0
230
1
  2
hex
 70
    0
 71
    0
 91
    1
 92
    0
 93
    4
 72
    1
 10
50.77048200000007
 20
114.0000225551253
 11
74.57375600000006
 21
114.0000225551253
 72
    1
 10
74.57375600000006
 20
114.0000225551253
 11
74.57375600000006
 21
90.19674855512528
 72
    1
 10
74.57375600000006
 20
90.19674855512528
 11
50.77048200000007
 21
90.19674855512528
 72
    1
 10
50.77048200000007
 20
90.19674855512528
 11
50.77048200000007
 21
114.0000225551253
 97
    0
 75
    0
 76
    1
 52
0
 41
0.1
 77
    0
 78
    0
 98
    0
  0
HATCH
  5
65
100
AcDbEntity
  8
arceer
  6
ByLayer
 62
  256
370
   -1
100
AcDbHatch
 10
0
 20
0
 30
0
210
0
220
0
230
1
  2
grass_b
 70
    0
 71
    0
 91
    1
 92
    0
 93
    4
 72
    1
 10
25.88524100000007
 20
114.0000225551253
 11
49.68851500000007
 21
114.0000225551253
 72
    1
 10
49.68851500000007
 20
114.0000225551253
 11
49.68851500000007
 21
90.19674855512528
 72
    1
 10
49.68851500000007
 20
90.19674855512528
 11
25.88524100000007
 21
90.19674855512528
 72
    1
 10
25.88524100000007
 20
90.19674855512528
 11
25.88524100000007
 21
114.0000225551253
 97
    0
 75
    0
 76
    1
 52
0
 41
0.1
 77
    0
 78
    0
 98
    0
  0
HATCH
  5
66
100
AcDbEntity
  8
arceer
  6
ByLayer
 62
  256
370
   -1
100
AcDbHatch
 10
0
 20
0
 30
0
210
0
220
0
230
1
  2
grass
 70
    0
 71
    0
 91
    1
 92
    0
 93
    4
 72
    1
 10
1.000000000000069
 20
114.0000225551253
 11
24.80327400000007
 21
114.0000225551253
 72
    1
 10
24.80327400000007
 20
114.0000225551253
 11
24.80327400000007
 21
90.19674855512528
 72
    1
 10
24.80327400000007
 20
90.19674855512528
 11
1.000000000000069
 21
90.19674855512528
 72
    1
 10
1.000000000000069
 20
90.19674855512528
 11
1.000000000000069
 21
114.0000225551253
 97
    0
 75
    0
 76
    1
 52
0
 41
0.1
 77
    0
 78
    0
 98
    0
  0
HATCH
  5
67
100
AcDbEntity
  8
arceer
  6
ByLayer
 62
  256
370
   -1
100
AcDbHatch
 10
0
 20
0
 30
0
210
0
220
0
230
1
  2
gost_wood1
 70
    0
 71
    0
 91
    1
 92
    0
 93
    4
 72
    1
 10
175.1966870000001
 20
147.0000180441002
 11
198.999961
 21
147.0000180441002
 72
    1
 10
198.999961
 20
147.0000180441002
 11
198.999961
 21
123.1967440441002
 72
    1
 10
198.999961
 20
123.1967440441002
 11
175.1966870000001
 21
123.1967440441002
 72
    1
 10
175.1966870000001
 20
123.1967440441002
 11
175.1966870000001
 21
147.0000180441002
 97
    0
 75
    0
 76
    1
 52
0
 41
0.1
 77
    0
 78
    0
 98
    0
  0
HATCH
  5
68
100
AcDbEntity
  8
arceer
  6
ByLayer
 62
  256
370
   -1
100
AcDbHatch
 10
0
 20
0
 30
0
210
0
220
0
230
1
  2
gost_wood
 70
    0
 71
    0
 91
    1
 92
    0
 93
    4
 72
    1
 10
150.311446
 20
147.0000180441002
 11
174.11472
 21
147.0000180441002
 72
    1
 10
174.11472
 20
147.0000180441002
 11
174.11472
 21
123.1967440441002
 72
    1
 10
174.11472
 20
123.1967440441002
 11
150.311446
 21
123.1967440441002
 72
    1
 10
150.311446
 20
123.1967440441002
 11
150.311446
 21
147.0000180441002
 97
    0
 75
    0
 76
    1
 52
0
 41
0.1
 77
    0
 78
    0
 98
    0
  0
HATCH
  5
69
100
AcDbEntity
  8
arceer
  6
ByLayer
 62
  256
370
   -1
100
AcDbHatch
 10
0
 20
0
 30
0
210
0
220
0
230
1
  2
gost_stone
 70
    0
 71
    0
 91
    1
 92
    0
 93
    4
 72
    1
 10
125.426205
 20
147.0000180441002
 11
149.2294790000001
 21
147.0000180441002
 72
    1
 10
149.2294790000001
 20
147.0000180441002
 11
149.2294790000001
 21
123.1967440441002
 72
    1
 10
149.2294790000001
 20
123.1967440441002
 11
125.426205
 21
123.1967440441002
 72
    1
 10
125.426205
 20
123.1967440441002
 11
125.426205
 21
147.0000180441002
 97
    0
 75
    0
 76
    1
 52
0
 41
0.1
 77
    0
 78
    0
 98
    0
  0
HATCH
  5
6A
100
AcDbEntity
  8
arceer
  6
ByLayer
 62
  256
370
   -1
100
AcDbHatch
 10
0
 20
0
 30
0
210
0
220
0
230
1
  2
gost_sand
 70
    0
 71
    0
 91
    1
 92
    0
 93
    4
 72
    1
 10
100.540964
 20
147.0000180441002
 11
124.344238
 21
147.0000180441002
 72
    1
 10
124.344238
 20
147.0000180441002
 11
124.344238
 21
123.1967440441002
 72
    1
 10
124.344238
 20
123.1967440441002
 11
100.540964
 21
123.1967440441002
 72
    1
 10
100.540964
 20
123.1967440441002
 11
100.540964
 21
147.0000180441002
 97
    0
 75
    0
 76
    1
 52
0
 41
0.1
 77
    0
 78
    0
 98
    0
  0
HATCH
  5
6B
100
AcDbEntity
  8
arceer
  6
ByLayer
 62
  256
370
   -1
100
AcDbHatch
 10
0
 20
0
 30
0
210
0
220
0
230
1
  2
gost_non-metal
 70
    0
 71
    0
 91
    1
 92
    0
 93
    4
 72
    1
 10
75.65572300000005
 20
147.0000180441002
 11
99.45899700000005
 21
147.0000180441002
 72
    1
 10
99.45899700000005
 20
147.0000180441002
 11
99.45899700000005
 21
123.1967440441002
 72
    1
 10
99.45899700000005
 20
123.1967440441002
 11
75.65572300000005
 21
123.1967440441002
 72
    1
 10
75.65572300000005
 20
123.1967440441002
 11
75.65572300000005
 21
147.0000180441002
 97
    0
 75
    0
 76
    1
 52
0
 41
0.1
 77
    0
 78
    0
 98
    0
  0
HATCH
  5
6C
100
AcDbEntity
  8
arceer
  6
ByLayer
 62
  256
370
   -1
100
AcDbHatch
 10
0
 20
0
 30
0
210
0
220
0
230
1
  2
gost_metal
 70
    0
 71
    0
 91
    1
 92
    0
 93
    4
 72
    1
 10
50.77048200000005
 20
147.0000180441002
 11
74.57375600000005
 21
147.0000180441002
 72
    1
 10
74.57375600000005
 20
147.0000180441002
 11
74.57375600000005
 21
123.1967440441002
 72
    1
 10
74.57375600000005
 20
123.1967440441002
 11
50.77048200000005
 21
123.1967440441002
 72
    1
 10
50.77048200000005
 20
123.1967440441002
 11
50.77048200000005
 21
147.0000180441002
 97
    0
 75
    0
 76
    1
 52
0
 41
0.1
 77
    0
 78
    0
 98
    0
  0
HATCH
  5
6D
100
AcDbEntity
  8
arceer
  6
ByLayer
 62
  256
370
   -1
100
AcDbHatch
 10
0
 20
0
 30
0
210
0
220
0
230
1
  2
gost_liquid
 70
    0
 71
    0
 91
    1
 92
    0
 93
    4
 72
    1
 10
25.88524100000005
 20
147.0000180441002
 11
49.68851500000005
 21
147.0000180441002
 72
    1
 10
49.68851500000005
 20
147.0000180441002
 11
49.68851500000005
 21
123.1967440441002
 72
    1
 10
49.68851500000005
 20
123.1967440441002
 11
25.88524100000005
 21
123.1967440441002
 72
    1
 10
25.88524100000005
 20
123.1967440441002
 11
25.88524100000005
 21
147.0000180441002
 97
    0
 75
    0
 76
    1
 52
0
 41
0.1
 77
    0
 78
    0
 98
    0
  0
HATCH
  5
6E
100
AcDbEntity
  8
arceer
  6
ByLayer
 62
  256
370
   -1
100
AcDbHatch
 10
0
 20
0
 30
0
210
0
220
0
230
1
  2
gost_ground1
 70
    0
 71
    0
 91
    1
 92
    0
 93
    4
 72
    1
 10
1.000000000000056
 20
147.0000180441002
 11
24.80327400000006
 21
147.0000180441002
 72
    1
 10
24.80327400000006
 20
147.0000180441002
 11
24.80327400000006
 21
123.1967440441002
 72
    1
 10
24.80327400000006
 20
123.1967440441002
 11
1.000000000000056
 21
123.1967440441002
 72
    1
 10
1.000000000000056
 20
123.1967440441002
 11
1.000000000000056
 21
147.0000180441002
 97
    0
 75
    0
 76
    1
 52
0
 41
0.1
 77
    0
 78
    0
 98
    0
  0
HATCH
  5
6F
100
AcDbEntity
  8
arceer
  6
ByLayer
 62
  256
370
   -1
100
AcDbHatch
 10
0
 20
0
 30
0
210
0
220
0
230
1
  2
gost_ground
 70
    0
 71
    0
 91
    1
 92
    0
 93
    4
 72
    1
 10
175.196687
 20
180.0000135330752
 11
198.999961
 21
180.0000135330752
 72
    1
 10
198.999961
 20
180.0000135330752
 11
198.999961
 21
156.1967395330752
 72
    1
 10
198.999961
 20
156.1967395330752
 11
175.196687
 21
156.1967395330752
 72
    1
 10
175.196687
 20
156.1967395330752
 11
175.196687
 21
180.0000135330752
 97
    0
 75
    0
 76
    1
 52
0
 41
0.1
 77
    0
 78
    0
 98
    0
  0
HATCH
  5
70
100
AcDbEntity
  8
arceer
  6
ByLayer
 62
  256
370
   -1
100
AcDbHatch
 10
0
 20
0
 30
0
210
0
220
0
230
1
  2
gost_glass1
 70
    0
 71
    0
 91
    1
 92
    0
 93
    4
 72
    1
 10
174.11472
 20
156.1967395330752
 11
150.311446
 21
156.1967395330752
 72
    1
 10
150.311446
 20
156.1967395330752
 11
150.311446
 21
180.0000135330752
 72
    1
 10
150.311446
 20
180.0000135330752
 11
174.11472
 21
180.0000135330752
 72
    1
 10
174.11472
 20
180.0000135330752
 11
174.11472
 21
156.1967395330752
 97
    0
 75
    0
 76
    1
 52
0
 41
0.1
 77
    0
 78
    0
 98
    0
  0
HATCH
  5
71
100
AcDbEntity
  8
arceer
  6
ByLayer
 62
  256
370
   -1
100
AcDbHatch
 10
0
 20
0
 30
0
210
0
220
0
230
1
  2
gost_glass
 70
    0
 71
    0
 91
    1
 92
    0
 93
    4
 72
    1
 10
125.426205
 20
180.0000135330752
 11
149.229479
 21
180.0000135330752
 72
    1
 10
149.229479
 20
180.0000135330752
 11
149.229479
 21
156.1967395330752
 72
    1
 10
149.229479
 20
156.1967395330752
 11
125.426205
 21
156.1967395330752
 72
    1
 10
125.426205
 20
156.1967395330752
 11
125.426205
 21
180.0000135330752
 97
    0
 75
    0
 76
    1
 52
0
 41
0.1
 77
    0
 78
    0
 98
    0
  0
HATCH
  5
72
100
AcDbEntity
  8
arceer
  6
ByLayer
 62
  256
370
   -1
100
AcDbHatch
 10
0
 20
0
 30
0
210
0
220
0
230
1
  2
gost_ferroconcrete1
 70
    0
 71
    0
 91
    1
 92
    0
 93
    4
 72
    1
 10
100.540964
 20
180.0000135330752
 11
124.344238
 21
180.0000135330752
 72
    1
 10
124.344238
 20
180.0000135330752
 11
124.344238
 21
156.1967395330752
 72
    1
 10
124.344238
 20
156.1967395330752
 11
100.540964
 21
156.1967395330752
 72
    1
 10
100.540964
 20
156.1967395330752
 11
100.540964
 21
180.0000135330752
 97
    0
 75
    0
 76
    1
 52
0
 41
0.1
 77
    0
 78
    0
 98
    0
  0
HATCH
  5
73
100
AcDbEntity
  8
arceer
  6
ByLayer
 62
  256
370
   -1
100
AcDbHatch
 10
0
 20
0
 30
0
210
0
220
0
230
1
  2
gost_ferroconcrete
 70
    0
 71
    0
 91
    1
 92
    0
 93
    4
 72
    1
 10
75.65572300000004
 20
180.0000135330752
 11
99.45899700000004
 21
180.0000135330752
 72
    1
 10
99.45899700000004
 20
180.0000135330752
 11
99.45899700000004
 21
156.1967395330752
 72
    1
 10
99.45899700000004
 20
156.1967395330752
 11
75.65572300000004
 21
156.1967395330752
 72
    1
 10
75.65572300000004
 20
156.1967395330752
 11
75.65572300000004
 21
180.0000135330752
 97
    0
 75
    0
 76
    1
 52
0
 41
0.1
 77
    0
 78
    0
 98
    0
  0
HATCH
  5
74
100
AcDbEntity
  8
arceer
  6
ByLayer
 62
  256
370
   -1
100
AcDbHatch
 10
0
 20
0
 30
0
210
0
220
0
230
1
  2
gost_concrete
 70
    0
 71
    0
 91
    1
 92
    0
 93
    4
 72
    1
 10
50.77048200000004
 20
180.0000135330752
 11
74.57375600000003
 21
180.0000135330752
 72
    1
 10
74.57375600000003
 20
180.0000135330752
 11
74.57375600000003
 21
156.1967395330752
 72
    1
 10
74.57375600000003
 20
156.1967395330752
 11
50.77048200000004
 21
156.1967395330752
 72
    1
 10
50.77048200000004
 20
156.1967395330752
 11
50.77048200000004
 21
180.0000135330752
 97
    0
 75
    0
 76
    1
 52
0
 41
0.1
 77
    0
 78
    0
 98
    0
  0
HATCH
  5
75
100
AcDbEntity
  8
arceer
  6
ByLayer
 62
  256
370
   -1
100
AcDbHatch
 10
0
 20
0
 30
0
210
0
220
0
230
1
  2
gost_ceramics
 70
    0
 71
    0
 91
    1
 92
    0
 93
    4
 72
    1
 10
25.88524100000004
 20
180.0000135330752
 11
49.68851500000004
 21
180.0000135330752
 72
    1
 10
49.68851500000004
 20
180.0000135330752
 11
49.68851500000004
 21
156.1967395330752
 72
    1
 10
49.68851500000004
 20
156.1967395330752
 11
25.88524100000004
 21
156.1967395330752
 72
    1
 10
25.88524100000004
 20
156.1967395330752
 11
25.88524100000004
 21
180.0000135330752
 97
    0
 75
    0
 76
    1
 52
0
 41
0.1
 77
    0
 78
    0
 98
    0
  0
HATCH
  5
76
100
AcDbEntity
  8
arceer
  6
ByLayer
 62
  256
370
   -1
100
AcDbHatch
 10
0
 20
0
 30
0
210
0
220
0
230
1
  2
flex
 70
    0
 71
    0
 91
    1
 92
    0
 93
    4
 72
    1
 10
1.000000000000042
 20
180.0000135330752
 11
24.80327400000004
 21
180.0000135330752
 72
    1
 10
24.80327400000004
 20
180.0000135330752
 11
24.80327400000004
 21
156.1967395330752
 72
    1
 10
24.80327400000004
 20
156.1967395330752
 11
1.000000000000042
 21
156.1967395330752
 72
    1
 10
1.000000000000042
 20
156.1967395330752
 11
1.000000000000042
 21
180.0000135330752
 97
    0
 75
    0
 76
    1
 52
0
 41
0.1
 77
    0
 78
    0
 98
    0
  0
HATCH
  5
77
100
AcDbEntity
  8
arceer
  6
ByLayer
 62
  256
370
   -1
100
AcDbHatch
 10
0
 20
0
 30
0
210
0
220
0
230
1
  2
escher
 70
    0
 71
    0
 91
    1
 92
    0
 93
    4
 72
    1
 10
198.999961
 20
189.1967350220501
 11
175.196687
 21
189.1967350220501
 72
    1
 10
175.196687
 20
189.1967350220501
 11
175.196687
 21
213.0000090220501
 72
    1
 10
175.196687
 20
213.0000090220501
 11
198.999961
 21
213.0000090220501
 72
    1
 10
198.999961
 20
213.0000090220501
 11
198.999961
 21
189.1967350220501
 97
    0
 75
    0
 76
    1
 52
0
 41
0.1
 77
    0
 78
    0
 98
    0
  0
HATCH
  5
78
100
AcDbEntity
  8
arceer
  6
ByLayer
 62
  256
370
   -1
100
AcDbHatch
 10
0
 20
0
 30
0
210
0
220
0
230
1
  2
earth
 70
    0
 71
    0
 91
    1
 92
    0
 93
    4
 72
    1
 10
174.11472
 20
189.1967350220501
 11
150.311446
 21
189.1967350220501
 72
    1
 10
150.311446
 20
189.1967350220501
 11
150.311446
 21
213.0000090220501
 72
    1
 10
150.311446
 20
213.0000090220501
 11
174.11472
 21
213.0000090220501
 72
    1
 10
174.11472
 20
213.0000090220501
 11
174.11472
 21
189.1967350220501
 97
    0
 75
    0
 76
    1
 52
0
 41
0.2
 77
    0
 78
    0
 98
    0
  0
HATCH
  5
79
100
AcDbEntity
  8
arceer
  6
ByLayer
 62
  256
370
   -1
100
AcDbHatch
 10
0
 20
0
 30
0
210
0
220
0
230
1
  2
dolmit
 70
    0
 71
    0
 91
    1
 92
    0
 93
    4
 72
    1
 10
125.426205
 20
213.0000090220501
 11
149.229479
 21
213.0000090220501
 72
    1
 10
149.229479
 20
213.0000090220501
 11
149.229479
 21
189.1967350220501
 72
    1
 10
149.229479
 20
189.1967350220501
 11
125.426205
 21
189.1967350220501
 72
    1
 10
125.426205
 20
189.1967350220501
 11
125.426205
 21
213.0000090220501
 97
    0
 75
    0
 76
    1
 52
0
 41
0.1
 77
    0
 78
    0
 98
    0
  0
HATCH
  5
7A
100
AcDbEntity
  8
arceer
  6
ByLayer
 62
  256
370
   -1
100
AcDbHatch
 10
0
 20
0
 30
0
210
0
220
0
230
1
  2
daemon
 70
    0
 71
    0
 91
    1
 92
    0
 93
    4
 72
    1
 10
100.540964
 20
213.0000090220501
 11
124.344238
 21
213.0000090220501
 72
    1
 10
124.344238
 20
213.0000090220501
 11
124.344238
 21
189.1967350220501
 72
    1
 10
124.344238
 20
189.1967350220501
 11
100.540964
 21
189.1967350220501
 72
    1
 10
100.540964
 20
189.1967350220501
 11
100.540964
 21
213.0000090220501
 97
    0
 75
    0
 76
    1
 52
0
 41
0.1
 77
    0
 78
    0
 98
    0
  0
HATCH
  5
7B
100
AcDbEntity
  8
arceer
  6
ByLayer
 62
  256
370
   -1
100
AcDbHatch
 10
0
 20
0
 30
0
210
0
220
0
230
1
  2
cross
 70
    0
 71
    0
 91
    1
 92
    0
 93
    4
 72
    1
 10
99.45899700000002
 20
189.1967350220501
 11
75.65572300000002
 21
189.1967350220501
 72
    1
 10
75.65572300000002
 20
189.1967350220501
 11
75.65572300000002
 21
213.0000090220501
 72
    1
 10
75.65572300000002
 20
213.0000090220501
 11
99.45899700000002
 21
213.0000090220501
 72
    1
 10
99.45899700000002
 20
213.0000090220501
 11
99.45899700000002
 21
189.1967350220501
 97
    0
 75
    0
 76
    1
 52
0
 41
0.1
 77
    0
 78
    0
 98
    0
  0
HATCH
  5
7C
100
AcDbEntity
  8
arceer
  6
ByLayer
 62
  256
370
   -1
100
AcDbHatch
 10
0
 20
0
 30
0
210
0
220
0
230
1
  2
concrete
 70
    0
 71
    0
 91
    1
 92
    0
 93
    4
 72
    1
 10
74.57375600000002
 20
189.1967350220501
 11
50.77048200000002
 21
189.1967350220501
 72
    1
 10
50.77048200000002
 20
189.1967350220501
 11
50.77048200000002
 21
213.0000090220501
 72
    1
 10
50.77048200000002
 20
213.0000090220501
 11
74.57375600000002
 21
213.0000090220501
 72
    1
 10
74.57375600000002
 20
213.0000090220501
 11
74.57375600000002
 21
189.1967350220501
 97
    0
 75
    0
 76
    1
 52
0
 41
0.5
 77
    0
 78
    0
 98
    0
  0
HATCH
  5
7D
100
AcDbEntity
  8
arceer
  6
ByLayer
 62
  256
370
   -1
100
AcDbHatch
 10
0
 20
0
 30
0
210
0
220
0
230
1
  2
clay
 70
    0
 71
    0
 91
    1
 92
    0
 93
    4
 72
    1
 10
49.68851500000002
 20
189.1967350220501
 11
25.88524100000003
 21
189.1967350220501
 72
    1
 10
25.88524100000003
 20
189.1967350220501
 11
25.88524100000003
 21
213.0000090220501
 72
    1
 10
25.88524100000003
 20
213.0000090220501
 11
49.68851500000002
 21
213.0000090220501
 72
    1
 10
49.68851500000002
 20
213.0000090220501
 11
49.68851500000002
 21
189.1967350220501
 97
    0
 75
    0
 76
    1
 52
0
 41
0.1
 77
    0
 78
    0
 98
    0
  0
HATCH
  5
7E
100
AcDbEntity
  8
arceer
  6
ByLayer
 62
  256
370
   -1
100
AcDbHatch
 10
0
 20
0
 30
0
210
0
220
0
230
1
  2
brstone
 70
    0
 71
    0
 91
    1
 92
    0
 93
    4
 72
    1
 10
1.000000000000028
 20
213.0000090220501
 11
24.80327400000003
 21
213.0000090220501
 72
    1
 10
24.80327400000003
 20
213.0000090220501
 11
24.80327400000003
 21
189.1967350220501
 72
    1
 10
24.80327400000003
 20
189.1967350220501
 11
1.000000000000028
 21
189.1967350220501
 72
    1
 10
1.000000000000028
 20
189.1967350220501
 11
1.000000000000028
 21
213.0000090220501
 97
    0
 75
    0
 76
    1
 52
0
 41
0.1
 77
    0
 78
    0
 98
    0
  0
HATCH
  5
7F
100
AcDbEntity
  8
arceer
  6
ByLayer
 62
  256
370
   -1
100
AcDbHatch
 10
0
 20
0
 30
0
210
0
220
0
230
1
  2
brick
 70
    0
 71
    0
 91
    1
 92
    0
 93
    4
 72
    1
 10
175.196687
 20
246.0000045110251
 11
198.999961
 21
246.0000045110251
 72
    1
 10
198.999961
 20
246.0000045110251
 11
198.999961
 21
222.1967305110251
 72
    1
 10
198.999961
 20
222.1967305110251
 11
175.196687
 21
222.1967305110251
 72
    1
 10
175.196687
 20
222.1967305110251
 11
175.196687
 21
246.0000045110251
 97
    0
 75
    0
 76
    1
 52
0
 41
0.1
 77
    0
 78
    0
 98
    0
  0
HATCH
  5
80
100
AcDbEntity
  8
arceer
  6
ByLayer
 62
  256
370
   -1
100
AcDbHatch
 10
0
 20
0
 30
0
210
0
220
0
230
1
  2
box
 70
    0
 71
    0
 91
    1
 92
    0
 93
    4
 72
    1
 10
174.11472
 20
222.1967305110251
 11
150.311446
 21
222.1967305110251
 72
    1
 10
150.311446
 20
222.1967305110251
 11
150.311446
 21
246.0000045110251
 72
    1
 10
150.311446
 20
246.0000045110251
 11
174.11472
 21
246.0000045110251
 72
    1
 10
174.11472
 20
246.0000045110251
 11
174.11472
 21
222.1967305110251
 97
    0
 75
    0
 76
    1
 52
0
 41
0.1
 77
    0
 78
    0
 98
    0
  0
HATCH
  5
81
100
AcDbEntity
  8
arceer
  6
ByLayer
 62
  256
370
   -1
100
AcDbHatch
 10
0
 20
0
 30
0
210
0
220
0
230
1
  2
ar-rshke
 70
    0
 71
    0
 91
    1
 92
    0
 93
    4
 72
    1
 10
149.229479
 20
222.1967305110251
 11
125.426205
 21
222.1967305110251
 72
    1
 10
125.426205
 20
222.1967305110251
 11
125.426205
 21
246.0000045110251
 72
    1
 10
125.426205
 20
246.0000045110251
 11
149.229479
 21
246.0000045110251
 72
    1
 10
149.229479
 20
246.0000045110251
 11
149.229479
 21
222.1967305110251
 97
    0
 75
    0
 76
    1
 52
0
 41
0.1
 77
    0
 78
    0
 98
    0
  0
HATCH
  5
82
100
AcDbEntity
  8
arceer
  6
ByLayer
 62
  256
370
   -1
100
AcDbHatch
 10
0
 20
0
 30
0
210
0
220
0
230
1
  2
ar-roof
 70
    0
 71
    0
 91
    1
 92
    0
 93
    4
 72
    1
 10
124.344238
 20
222.1967305110251
 11
100.540964
 21
222.1967305110251
 72
    1
 10
100.540964
 20
222.1967305110251
 11
100.540964
 21
246.0000045110251
 72
    1
 10
100.540964
 20
246.0000045110251
 11
124.344238
 21
246.0000045110251
 72
    1
 10
124.344238
 20
246.0000045110251
 11
124.344238
 21
222.1967305110251
 97
    0
 75
    0
 76
    1
 52
0
 41
0.1
 77
    0
 78
    0
 98
    0
  0
HATCH
  5
83
100
AcDbEntity
  8
arceer
  6
ByLayer
 62
  256
370
   -1
100
AcDbHatch
 10
0
 20
0
 30
0
210
0
220
0
230
1
  2
ar-parq1
 70
    0
 71
    0
 91
    1
 92
    0
 93
    4
 72
    1
 10
99.45899700000001
 20
222.1967305110251
 11
75.65572300000001
 21
222.1967305110251
 72
    1
 10
75.65572300000001
 20
222.1967305110251
 11
75.65572300000001
 21
246.0000045110251
 72
    1
 10
75.65572300000001
 20
246.0000045110251
 11
99.45899700000001
 21
246.0000045110251
 72
    1
 10
99.45899700000001
 20
246.0000045110251
 11
99.45899700000001
 21
222.1967305110251
 97
    0
 75
    0
 76
    1
 52
0
 41
0.1
 77
    0
 78
    0
 98
    0
  0
HATCH
  5
84
100
AcDbEntity
  8
arceer
  6
ByLayer
 62
  256
370
   -1
100
AcDbHatch
 10
0
 20
0
 30
0
210
0
220
0
230
1
  2
ar-hbone
 70
    0
 71
    0
 91
    1
 92
    0
 93
    4
 72
    1
 10
50.77048200000001
 20
246.0000045110251
 11
74.573756
 21
246.0000045110251
 72
    1
 10
74.573756
 20
246.0000045110251
 11
74.573756
 21
222.1967305110251
 72
    1
 10
74.573756
 20
222.1967305110251
 11
50.77048200000001
 21
222.1967305110251
 72
    1
 10
50.77048200000001
 20
222.1967305110251
 11
50.77048200000001
 21
246.0000045110251
 97
    0
 75
    0
 76
    1
 52
0
 41
0.1
 77
    0
 78
    0
 98
    0
  0
HATCH
  5
85
100
AcDbEntity
  8
arceer
  6
ByLayer
 62
  256
370
   -1
100
AcDbHatch
 10
0
 20
0
 30
0
210
0
220
0
230
1
  2
arcs_2
 70
    0
 71
    0
 91
    1
 92
    0
 93
    4
 72
    1
 10
25.88524100000001
 20
246.0000045110251
 11
49.68851500000001
 21
246.0000045110251
 72
    1
 10
49.68851500000001
 20
246.0000045110251
 11
49.68851500000001
 21
222.1967305110251
 72
    1
 10
49.68851500000001
 20
222.1967305110251
 11
25.88524100000001
 21
222.1967305110251
 72
    1
 10
25.88524100000001
 20
222.1967305110251
 11
25.88524100000001
 21
246.0000045110251
 97
    0
 75
    0
 76
    1
 52
0
 41
0.1
 77
    0
 78
    0
 98
    0
  0
HATCH
  5
86
100
AcDbEntity
  8
arceer
  6
ByLayer
 62
  256
370
   -1
100
AcDbHatch
 10
0
 20
0
 30
0
210
0
220
0
230
1
  2
arcs
 70
    0
 71
    0
 91
    1
 92
    0
 93
    4
 72
    1
 10
24.80327400000001
 20
222.1967305110251
 11
1.000000000000014
 21
222.1967305110251
 72
    1
 10
1.000000000000014
 20
222.1967305110251
 11
1.000000000000014
 21
246.0000045110251
 72
    1
 10
1.000000000000014
 20
246.0000045110251
 11
24.80327400000001
 21
246.0000045110251
 72
    1
 10
24.80327400000001
 20
246.0000045110251
 11
24.80327400000001
 21
222.1967305110251
 97
    0
 75
    0
 76
    1
 52
0
 41
0.1
 77
    0
 78
    0
 98
    0
  0
HATCH
  5
87
100
AcDbEntity
  8
arceer
  6
ByLayer
 62
  256
370
   -1
100
AcDbHatch
 10
0
 20
0
 30
0
210
0
220
0
230
1
  2
ar-conc
 70
    0
 71
    0
 91
    1
 92
    0
 93
    4
 72
    1
 10
175.196687
 20
279
 11
198.999961
 21
279
 72
    1
 10
198.999961
 20
279
 11
198.999961
 21
255.196726
 72
    1
 10
198.999961
 20
255.196726
 11
175.196687
 21
255.196726
 72
    1
 10
175.196687
 20
255.196726
 11
175.196687
 21
279
 97
    0
 75
    0
 76
    1
 52
0
 41
0.1
 77
    0
 78
    0
 98
    0
  0
HATCH
  5
88
100
AcDbEntity
  8
arceer
  6
ByLayer
 62
  256
370
   -1
100
AcDbHatch
 10
0
 20
0
 30
0
210
0
220
0
230
1
  2
ar-brstd
 70
    0
 71
    0
 91
    1
 92
    0
 93
    4
 72
    1
 10
150.311446
 20
255.196726
 11
150.311446
 21
279
 72
    1
 10
150.311446
 20
279
 11
174.11472
 21
279
 72
    1
 10
174.11472
 20
279
 11
174.11472
 21
255.196726
 72
    1
 10
174.11472
 20
255.196726
 11
150.311446
 21
255.196726
 97
    0
 75
    0
 76
    1
 52
0
 41
0.1
 77
    0
 78
    0
 98
    0
  0
HATCH
  5
89
100
AcDbEntity
  8
arceer
  6
ByLayer
 62
  256
370
   -1
100
AcDbHatch
 10
0
 20
0
 30
0
210
0
220
0
230
1
  2
ar-b88
 70
    0
 71
    0
 91
    1
 92
    0
 93
    4
 72
    1
 10
124.344238
 20
255.196726
 11
100.540964
 21
255.196726
 72
    1
 10
100.540964
 20
255.196726
 11
100.540964
 21
279
 72
    1
 10
100.540964
 20
279
 11
124.344238
 21
279
 72
    1
 10
124.344238
 20
279
 11
124.344238
 21
255.196726
 97
    0
 75
    0
 76
    1
 52
0
 41
0.1
 77
    0
 78
    0
 98
    0
  0
HATCH
  5
8A
100
AcDbEntity
  8
arceer
  6
ByLayer
 62
  256
370
   -1
100
AcDbHatch
 10
0
 20
0
 30
0
210
0
220
0
230
1
  2
ar-b816c
 70
    0
 71
    0
 91
    1
 92
    0
 93
    4
 72
    1
 10
99.458997
 20
255.196726
 11
75.65572299999999
 21
255.196726
 72
    1
 10
75.65572299999999
 20
255.196726
 11
75.65572299999999
 21
279
 72
    1
 10
75.65572299999999
 20
279
 11
99.458997
 21
279
 72
    1
 10
99.458997
 20
279
 11
99.458997
 21
255.196726
 97
    0
 75
    0
 76
    1
 52
0
 41
0.1
 77
    0
 78
    0
 98
    0
  0
HATCH
  5
8B
100
AcDbEntity
  8
arceer
  6
ByLayer
 62
  256
370
   -1
100
AcDbHatch
 10
0
 20
0
 30
0
210
0
220
0
230
1
  2
ar-b816
 70
    0
 71
    0
 91
    1
 92
    0
 93
    4
 72
    1
 10
74.57375599999999
 20
255.196726
 11
50.77048199999999
 21
255.196726
 72
    1
 10
50.77048199999999
 20
255.196726
 11
50.77048199999999
 21
279
 72
    1
 10
50.77048199999999
 20
279
 11
74.57375599999999
 21
279
 72
    1
 10
74.57375599999999
 20
279
 11
74.57375599999999
 21
255.196726
 97
    0
 75
    0
 76
    1
 52
0
 41
0.1
 77
    0
 78
    0
 98
    0
  0
HATCH
  5
8C
100
AcDbEntity
  8
arceer
  6
ByLayer
 62
  256
370
   -1
100
AcDbHatch
 10
0
 20
0
 30
0
210
0
220
0
230
1
  2
ar-b816
 70
    0
 71
    0
 91
    1
 92
    0
 93
    4
 72
    1
 10
50.77048199999999
 20
279
 11
74.57375599999999
 21
279
 72
    1
 10
74.57375599999999
 20
279
 11
74.57375599999999
 21
255.196726
 72
    1
 10
74.57375599999999
 20
255.196726
 11
50.77048199999999
 21
255.196726
 72
    1
 10
50.77048199999999
 20
255.196726
 11
50.77048199999999
 21
279
 97
    0
 75
    0
 76
    1
 52
0
 41
1
 77
    0
 78
    0
 98
    0
  0
HATCH
  5
8D
100
AcDbEntity
  8
arceer
  6
ByLayer
 62
  256
370
   -1
100
AcDbHatch
 10
0
 20
0
 30
0
210
0
220
0
230
1
  2
ar-b816
 70
    0
 71
    0
 91
    1
 92
    0
 93
    4
 72
    1
 10
74.57375599999999
 20
255.196726
 11
50.77048199999999
 21
255.196726
 72
    1
 10
50.77048199999999
 20
255.196726
 11
50.77048199999999
 21
279
 72
    1
 10
50.77048199999999
 20
279
 11
74.57375599999999
 21
279
 72
    1
 10
74.57375599999999
 20
279
 11
74.57375599999999
 21
255.196726
 97
    0
 75
    0
 76
    1
 52
0
 41
2
 77
    0
 78
    0
 98
    0
  0
HATCH
  5
8E
100
AcDbEntity
  8
arceer
  6
ByLayer
 62
  256
370
   -1
100
AcDbHatch
 10
0
 20
0
 30
0
210
0
220
0
230
1
  2
ansi31
 70
    0
 71
    0
 91
    1
 92
    0
 93
    4
 72
    1
 10
49.688515
 20
255.196726
 11
25.885241
 21
255.196726
 72
    1
 10
25.885241
 20
255.196726
 11
25.885241
 21
279
 72
    1
 10
25.885241
 20
279
 11
49.688515
 21
279
 72
    1
 10
49.688515
 20
279
 11
49.688515
 21
255.196726
 97
    0
 75
    0
 76
    1
 52
0
 41
2
 77
    0
 78
    0
 98
    0
  0
HATCH
  5
8F
100
AcDbEntity
  8
arceer
  6
ByLayer
 62
  256
370
   -1
100
AcDbHatch
 10
0
 20
0
 30
0
210
0
220
0
230
1
  2
angle
 70
    0
 71
    0
 91
    1
 92
    0
 93
    4
 72
    1
 10
1
 20
279
 11
24.803274
 21
279
 72
    1
 10
24.803274
 20
279
 11
24.803274
 21
255.196726
 72
    1
 10
24.803274
 20
255.196726
 11
1
 21
255.196726
 72
    1
 10
1
 20
255.196726
 11
1
 21
279
 97
    0
 75
    0
 76
    1
 52
0
 41
0.1
 77
    0
 78
    0
 98
    0
  0
HATCH
  5
90
100
AcDbEntity
  8
arceer
  6
ByLayer
 62
  256
370
   -1
100
AcDbHatch
 10
0
 20
0
 30
0
210
0
220
0
230
1
  2
angle
 70
    0
 71
    0
 91
    1
 92
    0
 93
    4
 72
    1
 10
125.426205
 20
279
 11
149.229479
 21
279
 72
    1
 10
149.229479
 20
279
 11
149.229479
 21
255.196726
 72
    1
 10
149.229479
 20
255.196726
 11
125.426205
 21
255.196726
 72
    1
 10
125.426205
 20
255.196726
 11
125.426205
 21
279
 97
    0
 75
    0
 76
    1
 52
0
 41
0.1
 77
    0
 78
    0
 98
    0
  0
LWPOLYLINE
  5
91
100
AcDbEntity
  8
kader
  6
ByLayer
 62
  256
370
   -1
100
AcDbPolyline
 90
    4
 70
    1
 43
0
 10
0
 20
0
 10
200
 20
0
 10
200
 20
280
 10
0
 20
280
  0
ARC
  5
92
100
AcDbEntity
  8
kader1
  6
ByLayer
 62
  256
370
   -1
100
AcDbCircle
 10
199
 20
279
 40
0
100
AcDbArc
 50
0
 51
0
  0
LWPOLYLINE
  5
93
100
AcDbEntity
  8
kader1
  6
ByLayer
 62
  256
370
   -1
100
AcDbPolyline
 90
    4
 70
    1
 43
0
 10
1
 20
279
 10
24.803274
 20
279
 10
24.803274
 20
255.196726
 10
1
 20
255.196726
  0
LWPOLYLINE
  5
94
100
AcDbEntity
  8
kader1
  6
ByLayer
 62
  256
370
   -1
100
AcDbPolyline
 90
    4
 70
    1
 43
0
 10
25.885241
 20
279
 10
49.688515
 20
279
 10
49.688515
 20
255.196726
 10
25.885241
 20
255.196726
  0
LWPOLYLINE
  5
95
100
AcDbEntity
  8
kader1
  6
ByLayer
 62
  256
370
   -1
100
AcDbPolyline
 90
    4
 70
    1
 43
0
 10
100.540964
 20
279
 10
124.344238
 20
279
 10
124.344238
 20
255.196726
 10
100.540964
 20
255.196726
  0
LWPOLYLINE
  5
96
100
AcDbEntity
  8
kader1
  6
ByLayer
 62
  256
370
   -1
100
AcDbPolyline
 90
    4
 70
    1
 43
0
 10
125.426205
 20
279
 10
149.229479
 20
279
 10
149.229479
 20
255.196726
 10
125.426205
 20
255.196726
  0
LWPOLYLINE
  5
97
100
AcDbEntity
  8
kader1
  6
ByLayer
 62
  256
370
   -1
100
AcDbPolyline
 90
    4
 70
    1
 43
0
 10
150.311446
 20
279
 10
174.11472
 20
279
 10
174.11472
 20
255.196726
 10
150.311446
 20
255.196726
  0
LWPOLYLINE
  5
98
100
AcDbEntity
  8
kader1
  6
ByLayer
 62
  256
370
   -1
100
AcDbPolyline
 90
    4
 70
    1
 43
0
 10
175.196687
 20
279
 10
198.999961
 20
279
 10
198.999961
 20
255.196726
 10
175.196687
 20
255.196726
  0
ARC
  5
99
100
AcDbEntity
  8
kader1
  6
ByLayer
 62
  256
370
   -1
100
AcDbCircle
 10
0.9999999999999999
 20
279
 40
0
100
AcDbArc
 50
0
 51
180
  0
ARC
  5
9A
100
AcDbEntity
  8
kader1
  6
ByLayer
 62
  256
370
   -1
100
AcDbCircle
 10
199
 20
246.0000045110251
 40
0
100
AcDbArc
 50
0
 51
0
  0
LWPOLYLINE
  5
9B
100
AcDbEntity
  8
kader1
  6
ByLayer
 62
  256
370
   -1
100
AcDbPolyline
 90
    4
 70
    1
 43
0
 10
1.000000000000014
 20
246.0000045110251
 10
24.80327400000001
 20
246.0000045110251
 10
24.80327400000001
 20
222.1967305110251
 10
1.000000000000014
 20
222.1967305110251
  0
LWPOLYLINE
  5
9C
100
AcDbEntity
  8
kader1
  6
ByLayer
 62
  256
370
   -1
100
AcDbPolyline
 90
    4
 70
    1
 43
0
 10
25.88524100000001
 20
246.0000045110251
 10
49.68851500000001
 20
246.0000045110251
 10
49.68851500000001
 20
222.1967305110251
 10
25.88524100000001
 20
222.1967305110251
  0
LWPOLYLINE
  5
9D
100
AcDbEntity
  8
kader1
  6
ByLayer
 62
  256
370
   -1
100
AcDbPolyline
 90
    4
 70
    1
 43
0
 10
50.77048200000001
 20
246.0000045110251
 10
74.573756
 20
246.0000045110251
 10
74.573756
 20
222.1967305110251
 10
50.77048200000001
 20
222.1967305110251
  0
LWPOLYLINE
  5
9E
100
AcDbEntity
  8
kader1
  6
ByLayer
 62
  256
370
   -1
100
AcDbPolyline
 90
    4
 70
    1
 43
0
 10
75.65572300000001
 20
246.0000045110251
 10
99.45899700000001
 20
246.0000045110251
 10
99.45899700000001
 20
222.1967305110251
 10
75.65572300000001
 20
222.1967305110251
  0
LWPOLYLINE
  5
9F
100
AcDbEntity
  8
kader1
  6
ByLayer
 62
  256
370
   -1
100
AcDbPolyline
 90
    4
 70
    1
 43
0
 10
100.540964
 20
246.0000045110251
 10
124.344238
 20
246.0000045110251
 10
124.344238
 20
222.1967305110251
 10
100.540964
 20
222.1967305110251
  0
LWPOLYLINE
  5
A0
100
AcDbEntity
  8
kader1
  6
ByLayer
 62
  256
370
   -1
100
AcDbPolyline
 90
    4
 70
    1
 43
0
 10
125.426205
 20
246.0000045110251
 10
149.229479
 20
246.0000045110251
 10
149.229479
 20
222.1967305110251
 10
125.426205
 20
222.1967305110251
  0
LWPOLYLINE
  5
A1
100
AcDbEntity
  8
kader1
  6
ByLayer
 62
  256
370
   -1
100
AcDbPolyline
 90
    4
 70
    1
 43
0
 10
150.311446
 20
246.0000045110251
 10
174.11472
 20
246.0000045110251
 10
174.11472
 20
222.1967305110251
 10
150.311446
 20
222.1967305110251
  0
LWPOLYLINE
  5
A2
100
AcDbEntity
  8
kader1
  6
ByLayer
 62
  256
370
   -1
100
AcDbPolyline
 90
    4
 70
    1
 43
0
 10
175.196687
 20
246.0000045110251
 10
198.999961
 20
246.0000045110251
 10
198.999961
 20
222.1967305110251
 10
175.196687
 20
222.1967305110251
  0
ARC
  5
A3
100
AcDbEntity
  8
kader1
  6
ByLayer
 62
  256
370
   -1
100
AcDbCircle
 10
199
 20
213.0000090220501
 40
0
100
AcDbArc
 50
0
 51
0
  0
LWPOLYLINE
  5
A4
100
AcDbEntity
  8
kader1
  6
ByLayer
 62
  256
370
   -1
100
AcDbPolyline
 90
    4
 70
    1
 43
0
 10
1.000000000000028
 20
213.0000090220501
 10
24.80327400000003
 20
213.0000090220501
 10
24.80327400000003
 20
189.1967350220501
 10
1.000000000000028
 20
189.1967350220501
  0
LWPOLYLINE
  5
A5
100
AcDbEntity
  8
kader1
  6
ByLayer
 62
  256
370
   -1
100
AcDbPolyline
 90
    4
 70
    1
 43
0
 10
25.88524100000003
 20
213.0000090220501
 10
49.68851500000002
 20
213.0000090220501
 10
49.68851500000002
 20
189.1967350220501
 10
25.88524100000003
 20
189.1967350220501
  0
LWPOLYLINE
  5
A6
100
AcDbEntity
  8
kader1
  6
ByLayer
 62
  256
370
   -1
100
AcDbPolyline
 90
    4
 70
    1
 43
0
 10
50.77048200000002
 20
213.0000090220501
 10
74.57375600000002
 20
213.0000090220501
 10
74.57375600000002
 20
189.1967350220501
 10
50.77048200000002
 20
189.1967350220501
  0
LWPOLYLINE
  5
A7
100
AcDbEntity
  8
kader1
  6
ByLayer
 62
  256
370
   -1
100
AcDbPolyline
 90
    4
 70
    1
 43
0
 10
75.65572300000002
 20
213.0000090220501
 10
99.45899700000002
 20
213.0000090220501
 10
99.45899700000002
 20
189.1967350220501
 10
75.65572300000002
 20
189.1967350220501
  0
LWPOLYLINE
  5
A8
100
AcDbEntity
  8
kader1
  6
ByLayer
 62
  256
370
   -1
100
AcDbPolyline
 90
    4
 70
    1
 43
0
 10
100.540964
 20
213.0000090220501
 10
124.344238
 20
213.0000090220501
 10
124.344238
 20
189.1967350220501
 10
100.540964
 20
189.1967350220501
  0
LWPOLYLINE
  5
A9
100
AcDbEntity
  8
kader1
  6
ByLayer
 62
  256
370
   -1
100
AcDbPolyline
 90
    4
 70
    1
 43
0
 10
125.426205
 20
213.0000090220501
 10
149.229479
 20
213.0000090220501
 10
149.229479
 20
189.1967350220501
 10
125.426205
 20
189.1967350220501
  0
LWPOLYLINE
  5
AA
100
AcDbEntity
  8
kader1
  6
ByLayer
 62
  256
370
   -1
100
AcDbPolyline
 90
    4
 70
    1
 43
0
 10
150.311446
 20
213.0000090220501
 10
174.11472
 20
213.0000090220501
 10
174.11472
 20
189.1967350220501
 10
150.311446
 20
189.1967350220501
  0
LWPOLYLINE
  5
AB
100
AcDbEntity
  8
kader1
  6
ByLayer
 62
  256
370
   -1
100
AcDbPolyline
 90
    4
 70
    1
 43
0
 10
175.196687
 20
213.0000090220501
 10
198.999961
 20
213.0000090220501
 10
198.999961
 20
189.1967350220501
 10
175.196687
 20
189.1967350220501
  0
ARC
  5
AC
100
AcDbEntity
  8
kader1
  6
ByLayer
 62
  256
370
   -1
100
AcDbCircle
 10
199
 20
180.0000135330752
 40
0
100
AcDbArc
 50
0
 51
0
  0
LWPOLYLINE
  5
AD
100
AcDbEntity
  8
kader1
  6
ByLayer
 62
  256
370
   -1
100
AcDbPolyline
 90
    4
 70
    1
 43
0
 10
1.000000000000042
 20
180.0000135330752
 10
24.80327400000004
 20
180.0000135330752
 10
24.80327400000004
 20
156.1967395330752
 10
1.000000000000042
 20
156.1967395330752
  0
LWPOLYLINE
  5
AE
100
AcDbEntity
  8
kader1
  6
ByLayer
 62
  256
370
   -1
100
AcDbPolyline
 90
    4
 70
    1
 43
0
 10
25.88524100000004
 20
180.0000135330752
 10
49.68851500000004
 20
180.0000135330752
 10
49.68851500000004
 20
156.1967395330752
 10
25.88524100000004
 20
156.1967395330752
  0
LWPOLYLINE
  5
AF
100
AcDbEntity
  8
kader1
  6
ByLayer
 62
  256
370
   -1
100
AcDbPolyline
 90
    4
 70
    1
 43
0
 10
50.77048200000004
 20
180.0000135330752
 10
74.57375600000003
 20
180.0000135330752
 10
74.57375600000003
 20
156.1967395330752
 10
50.77048200000004
 20
156.1967395330752
  0
LWPOLYLINE
  5
B0
100
AcDbEntity
  8
kader1
  6
ByLayer
 62
  256
370
   -1
100
AcDbPolyline
 90
    4
 70
    1
 43
0
 10
75.65572300000004
 20
180.0000135330752
 10
99.45899700000004
 20
180.0000135330752
 10
99.45899700000004
 20
156.1967395330752
 10
75.65572300000004
 20
156.1967395330752
  0
LWPOLYLINE
  5
B1
100
AcDbEntity
  8
kader1
  6
ByLayer
 62
  256
370
   -1
100
AcDbPolyline
 90
    4
 70
    1
 43
0
 10
100.540964
 20
180.0000135330752
 10
124.344238
 20
180.0000135330752
 10
124.344238
 20
156.1967395330752
 10
100.540964
 20
156.1967395330752
  0
LWPOLYLINE
  5
B2
100
AcDbEntity
  8
kader1
  6
ByLayer
 62
  256
370
   -1
100
AcDbPolyline
 90
    4
 70
    1
 43
0
 10
125.426205
 20
180.0000135330752
 10
149.229479
 20
180.0000135330752
 10
149.229479
 20
156.1967395330752
 10
125.426205
 20
156.1967395330752
  0
LWPOLYLINE
  5
B3
100
AcDbEntity
  8
kader1
  6
ByLayer
 62
  256
370
   -1
100
AcDbPolyline
 90
    4
 70
    1
 43
0
 10
150.311446
 20
180.0000135330752
 10
174.11472
 20
180.0000135330752
 10
174.11472
 20
156.1967395330752
 10
150.311446
 20
156.1967395330752
  0
LWPOLYLINE
  5
B4
100
AcDbEntity
  8
kader1
  6
ByLayer
 62
  256
370
   -1
100
AcDbPolyline
 90
    4
 70
    1
 43
0
 10
175.196687
 20
180.0000135330752
 10
198.999961
 20
180.0000135330752
 10
198.999961
 20
156.1967395330752
 10
175.196687
 20
156.1967395330752
  0
ARC
  5
B5
100
AcDbEntity
  8
kader1
  6
ByLayer
 62
  256
370
   -1
100
AcDbCircle
 10
199.0000000000001
 20
147.0000180441002
 40
0
100
AcDbArc
 50
0
 51
0
  0
LWPOLYLINE
  5
B6
100
AcDbEntity
  8
kader1
  6
ByLayer
 62
  256
370
   -1
100
AcDbPolyline
 90
    4
 70
    1
 43
0
 10
1.000000000000056
 20
147.0000180441002
 10
24.80327400000006
 20
147.0000180441002
 10
24.80327400000006
 20
123.1967440441002
 10
1.000000000000056
 20
123.1967440441002
  0
LWPOLYLINE
  5
B7
100
AcDbEntity
  8
kader1
  6
ByLayer
 62
  256
370
   -1
100
AcDbPolyline
 90
    4
 70
    1
 43
0
 10
25.88524100000005
 20
147.0000180441002
 10
49.68851500000005
 20
147.0000180441002
 10
49.68851500000005
 20
123.1967440441002
 10
25.88524100000005
 20
123.1967440441002
  0
LWPOLYLINE
  5
B8
100
AcDbEntity
  8
kader1
  6
ByLayer
 62
  256
370
   -1
100
AcDbPolyline
 90
    4
 70
    1
 43
0
 10
50.77048200000005
 20
147.0000180441002
 10
74.57375600000005
 20
147.0000180441002
 10
74.57375600000005
 20
123.1967440441002
 10
50.77048200000005
 20
123.1967440441002
  0
LWPOLYLINE
  5
B9
100
AcDbEntity
  8
kader1
  6
ByLayer
 62
  256
370
   -1
100
AcDbPolyline
 90
    4
 70
    1
 43
0
 10
75.65572300000005
 20
147.0000180441002
 10
99.45899700000005
 20
147.0000180441002
 10
99.45899700000005
 20
123.1967440441002
 10
75.65572300000005
 20
123.1967440441002
  0
LWPOLYLINE
  5
BA
100
AcDbEntity
  8
kader1
  6
ByLayer
 62
  256
370
   -1
100
AcDbPolyline
 90
    4
 70
    1
 43
0
 10
100.540964
 20
147.0000180441002
 10
124.344238
 20
147.0000180441002
 10
124.344238
 20
123.1967440441002
 10
100.540964
 20
123.1967440441002
  0
LWPOLYLINE
  5
BB
100
AcDbEntity
  8
kader1
  6
ByLayer
 62
  256
370
   -1
100
AcDbPolyline
 90
    4
 70
    1
 43
0
 10
125.426205
 20
147.0000180441002
 10
149.2294790000001
 20
147.0000180441002
 10
149.2294790000001
 20
123.1967440441002
 10
125.426205
 20
123.1967440441002
  0
LWPOLYLINE
  5
BC
100
AcDbEntity
  8
kader1
  6
ByLayer
 62
  256
370
   -1
100
AcDbPolyline
 90
    4
 70
    1
 43
0
 10
150.311446
 20
147.0000180441002
 10
174.11472
 20
147.0000180441002
 10
174.11472
 20
123.1967440441002
 10
150.311446
 20
123.1967440441002
  0
LWPOLYLINE
  5
BD
100
AcDbEntity
  8
kader1
  6
ByLayer
 62
  256
370
   -1
100
AcDbPolyline
 90
    4
 70
    1
 43
0
 10
175.1966870000001
 20
147.0000180441002
 10
198.999961
 20
147.0000180441002
 10
198.999961
 20
123.1967440441002
 10
175.1966870000001
 20
123.1967440441002
  0
ARC
  5
BE
100
AcDbEntity
  8
kader1
  6
ByLayer
 62
  256
370
   -1
100
AcDbCircle
 10
199.0000000000001
 20
114.0000225551253
 40
0
100
AcDbArc
 50
0
 51
0
  0
LWPOLYLINE
  5
BF
100
AcDbEntity
  8
kader1
  6
ByLayer
 62
  256
370
   -1
100
AcDbPolyline
 90
    4
 70
    1
 43
0
 10
1.000000000000069
 20
114.0000225551253
 10
24.80327400000007
 20
114.0000225551253
 10
24.80327400000007
 20
90.19674855512528
 10
1.000000000000069
 20
90.19674855512528
  0
LWPOLYLINE
  5
C0
100
AcDbEntity
  8
kader1
  6
ByLayer
 62
  256
370
   -1
100
AcDbPolyline
 90
    4
 70
    1
 43
0
 10
25.88524100000007
 20
114.0000225551253
 10
49.68851500000007
 20
114.0000225551253
 10
49.68851500000007
 20
90.19674855512528
 10
25.88524100000007
 20
90.19674855512528
  0
LWPOLYLINE
  5
C1
100
AcDbEntity
  8
kader1
  6
ByLayer
 62
  256
370
   -1
100
AcDbPolyline
 90
    4
 70
    1
 43
0
 10
50.77048200000007
 20
114.0000225551253
 10
74.57375600000006
 20
114.0000225551253
 10
74.57375600000006
 20
90.19674855512528
 10
50.77048200000007
 20
90.19674855512528
  0
LWPOLYLINE
  5
C2
100
AcDbEntity
  8
kader1
  6
ByLayer
 62
  256
370
   -1
100
AcDbPolyline
 90
    4
 70
    1
 43
0
 10
75.65572300000007
 20
114.0000225551253
 10
99.45899700000007
 20
114.0000225551253
 10
99.45899700000007
 20
90.19674855512528
 10
75.65572300000007
 20
90.19674855512528
  0
LWPOLYLINE
  5
C3
100
AcDbEntity
  8
kader1
  6
ByLayer
 62
  256
370
   -1
100
AcDbPolyline
 90
    4
 70
    1
 43
0
 10
100.5409640000001
 20
114.0000225551253
 10
124.3442380000001
 20
114.0000225551253
 10
124.3442380000001
 20
90.19674855512528
 10
100.5409640000001
 20
90.19674855512528
  0
LWPOLYLINE
  5
C4
100
AcDbEntity
  8
kader1
  6
ByLayer
 62
  256
370
   -1
100
AcDbPolyline
 90
    4
 70
    1
 43
0
 10
125.4262050000001
 20
114.0000225551253
 10
149.2294790000001
 20
114.0000225551253
 10
149.2294790000001
 20
90.19674855512528
 10
125.4262050000001
 20
90.19674855512528
  0
LWPOLYLINE
  5
C5
100
AcDbEntity
  8
kader1
  6
ByLayer
 62
  256
370
   -1
100
AcDbPolyline
 90
    4
 70
    1
 43
0
 10
150.311446
 20
114.0000225551253
 10
174.11472
 20
114.0000225551253
 10
174.11472
 20
90.19674855512528
 10
150.311446
 20
90.19674855512528
  0
LWPOLYLINE
  5
C6
100
AcDbEntity
  8
kader1
  6
ByLayer
 62
  256
370
   -1
100
AcDbPolyline
 90
    4
 70
    1
 43
0
 10
175.1966870000001
 20
114.0000225551253
 10
198.999961
 20
114.0000225551253
 10
198.999961
 20
90.19674855512528
 10
175.1966870000001
 20
90.19674855512528
  0
ARC
  5
C7
100
AcDbEntity
  8
kader1
  6
ByLayer
 62
  256
370
   -1
100
AcDbCircle
 10
199.0000000000001
 20
81.00002706615032
 40
0
100
AcDbArc
 50
0
 51
0
  0
LWPOLYLINE
  5
C8
100
AcDbEntity
  8
kader1
  6
ByLayer
 62
  256
370
   -1
100
AcDbPolyline
 90
    4
 70
    1
 43
0
 10
1.000000000000083
 20
81.00002706615032
 10
24.80327400000008
 20
81.00002706615032
 10
24.80327400000008
 20
57.19675306615034
 10
1.000000000000083
 20
57.19675306615034
  0
LWPOLYLINE
  5
C9
100
AcDbEntity
  8
kader1
  6
ByLayer
 62
  256
370
   -1
100
AcDbPolyline
 90
    4
 70
    1
 43
0
 10
25.88524100000008
 20
81.00002706615032
 10
49.68851500000008
 20
81.00002706615032
 10
49.68851500000008
 20
57.19675306615034
 10
25.88524100000008
 20
57.19675306615034
  0
LWPOLYLINE
  5
CA
100
AcDbEntity
  8
kader1
  6
ByLayer
 62
  256
370
   -1
100
AcDbPolyline
 90
    4
 70
    1
 43
0
 10
50.77048200000008
 20
81.00002706615032
 10
74.57375600000007
 20
81.00002706615032
 10
74.57375600000007
 20
57.19675306615034
 10
50.77048200000008
 20
57.19675306615034
  0
LWPOLYLINE
  5
CB
100
AcDbEntity
  8
kader1
  6
ByLayer
 62
  256
370
   -1
100
AcDbPolyline
 90
    4
 70
    1
 43
0
 10
75.65572300000008
 20
81.00002706615032
 10
99.45899700000008
 20
81.00002706615032
 10
99.45899700000008
 20
57.19675306615034
 10
75.65572300000008
 20
57.19675306615034
  0
LWPOLYLINE
  5
CC
100
AcDbEntity
  8
kader1
  6
ByLayer
 62
  256
370
   -1
100
AcDbPolyline
 90
    4
 70
    1
 43
0
 10
100.5409640000001
 20
81.00002706615032
 10
124.3442380000001
 20
81.00002706615032
 10
124.3442380000001
 20
57.19675306615034
 10
100.5409640000001
 20
57.19675306615034
  0
LWPOLYLINE
  5
CD
100
AcDbEntity
  8
kader1
  6
ByLayer
 62
  256
370
   -1
100
AcDbPolyline
 90
    4
 70
    1
 43
0
 10
125.4262050000001
 20
81.00002706615032
 10
149.2294790000001
 20
81.00002706615032
 10
149.2294790000001
 20
57.19675306615034
 10
125.4262050000001
 20
57.19675306615034
  0
LWPOLYLINE
  5
CE
100
AcDbEntity
  8
kader1
  6
ByLayer
 62
  256
370
   -1
100
AcDbPolyline
 90
    4
 70
    1
 43
0
 10
150.3114460000001
 20
81.00002706615032
 10
174.1147200000001
 20
81.00002706615032
 10
174.1147200000001
 20
57.19675306615034
 10
150.3114460000001
 20
57.19675306615034
  0
LWPOLYLINE
  5
CF
100
AcDbEntity
  8
kader1
  6
ByLayer
 62
  256
370
   -1
100
AcDbPolyline
 90
    4
 70
    1
 43
0
 10
175.1966870000001
 20
81.00002706615032
 10
198.9999610000001
 20
81.00002706615032
 10
198.9999610000001
 20
57.19675306615034
 10
175.1966870000001
 20
57.19675306615034
  0
ARC
  5
D0
100
AcDbEntity
  8
kader1
  6
ByLayer
 62
  256
370
   -1
100
AcDbCircle
 10
199.0000000000001
 20
48.00003157717538
 40
0
100
AcDbArc
 50
0
 51
0
  0
LWPOLYLINE
  5
D1
100
AcDbEntity
  8
kader1
  6
ByLayer
 62
  256
370
   -1
100
AcDbPolyline
 90
    4
 70
    1
 43
0
 10
1.000000000000097
 20
48.00003157717538
 10
24.80327400000009
 20
48.00003157717538
 10
24.80327400000009
 20
24.19675757717539
 10
1.000000000000097
 20
24.19675757717539
  0
LWPOLYLINE
  5
D2
100
AcDbEntity
  8
kader1
  6
ByLayer
 62
  256
370
   -1
100
AcDbPolyline
 90
    4
 70
    1
 43
0
 10
25.88524100000009
 20
48.00003157717538
 10
49.68851500000009
 20
48.00003157717538
 10
49.68851500000009
 20
24.19675757717539
 10
25.88524100000009
 20
24.19675757717539
  0
LWPOLYLINE
  5
D3
100
AcDbEntity
  8
kader1
  6
ByLayer
 62
  256
370
   -1
100
AcDbPolyline
 90
    4
 70
    1
 43
0
 10
50.77048200000009
 20
48.00003157717538
 10
74.57375600000009
 20
48.00003157717538
 10
74.57375600000009
 20
24.19675757717539
 10
50.77048200000009
 20
24.19675757717539
  0
LWPOLYLINE
  5
D4
100
AcDbEntity
  8
kader1
  6
ByLayer
 62
  256
370
   -1
100
AcDbPolyline
 90
    4
 70
    1
 43
0
 10
75.65572300000009
 20
48.00003157717538
 10
99.4589970000001
 20
48.00003157717538
 10
99.4589970000001
 20
24.19675757717539
 10
75.65572300000009
 20
24.19675757717539
  0
LWPOLYLINE
  5
D5
100
AcDbEntity
  8
kader1
  6
ByLayer
 62
  256
370
   -1
100
AcDbPolyline
 90
    4
 70
    1
 43
0
 10
100.5409640000001
 20
48.00003157717538
 10
124.3442380000001
 20
48.00003157717538
 10
124.3442380000001
 20
24.19675757717539
 10
100.5409640000001
 20
24.19675757717539
  0
LWPOLYLINE
  5
D6
100
AcDbEntity
  8
kader1
  6
ByLayer
 62
  256
370
   -1
100
AcDbPolyline
 90
    4
 70
    1
 43
0
 10
125.4262050000001
 20
48.00003157717538
 10
149.2294790000001
 20
48.00003157717538
 10
149.2294790000001
 20
24.19675757717539
 10
125.4262050000001
 20
24.19675757717539
  0
ARC
  5
D7
100
AcDbEntity
  8
kader1
  6
ByLayer
 62
  256
370
   -1
100
AcDbCircle
 10
199.0000000000001
 20
15.00003608820043
 40
0
100
AcDbArc
 50
0
 51
0
  0
MTEXT
  5
D8
100
AcDbEntity
  8
tekst
  6
ByLayer
 62
  256
370
   -1
100
AcDbMText
 10
2
 20
254
 30
0
 40
2
 41
8.61187305516043
 71
    1
 72
    1
  1
angle\Psch 0.1
  7
standard
210
0
220
0
230
1
 50
0
 73
    2
 44
1
  0
MTEXT
  5
D9
100
AcDbEntity
  8
tekst
  6
ByLayer
 62
  256
370
   -1
100
AcDbMText
 10
26
 20
254
 30
0
 40
2
 41
9.056317499604875
 71
    1
 72
    1
  1
ansi31\Psch 2.0
  7
standard
210
0
220
0
230
1
 50
0
 73
    2
 44
1
  0
MTEXT
  5
DA
100
AcDbEntity
  8
tekst
  6
ByLayer
 62
  256
370
   -1
100
AcDbMText
 10
102
 20
254
 30
0
 40
2
 41
10.8888888888892
 71
    1
 72
    1
  1
ar-b816c\Psch 0.1
  7
standard
210
0
220
0
230
1
 50
0
 73
    2
 44
1
  0
LWPOLYLINE
  5
DB
100
AcDbEntity
  8
kader1
  6
ByLayer
 62
  256
370
   -1
100
AcDbPolyline
 90
    5
 70
    1
 43
0
 10
75.65572299999999
 20
279
 10
99.458997
 20
279
 10
99.458997
 20
255.196726
 10
75.65572299999999
 20
255.196726
 10
75.65572299999999
 20
255.196726
  0
LWPOLYLINE
  5
DC
100
AcDbEntity
  8
kader1
  6
ByLayer
 62
  256
370
   -1
100
AcDbPolyline
 90
    5
 70
    1
 43
0
 10
50.77048199999999
 20
279
 10
74.57375599999999
 20
279
 10
74.57375599999999
 20
255.196726
 10
50.77048199999999
 20
255.196726
 10
50.77048199999999
 20
255.196726
  0
MTEXT
  5
DD
100
AcDbEntity
  8
tekst
  6
ByLayer
 62
  256
370
   -1
100
AcDbMText
 10
51
 20
254
 30
0
 40
2
 41
8.61187305516043
 71
    1
 72
    1
  1
ar-b88\Psch 0.1
  7
standard
210
0
220
0
230
1
 50
0
 73
    2
 44
1
  0
MTEXT
  5
DE
100
AcDbEntity
  8
tekst
  6
ByLayer
 62
  256
370
   -1
100
AcDbMText
 10
76
 20
254
 30
0
 40
2
 41
9.555555555555864
 71
    1
 72
    1
  1
ar-b816\Psch 0.1
  7
standard
210
0
220
0
230
1
 50
0
 73
    2
 44
1
  0
MTEXT
  5
DF
100
AcDbEntity
  8
tekst
  6
ByLayer
 62
  256
370
   -1
100
AcDbMText
 10
126
 20
254
 30
0
 40
2
 41
11.11111111111139
 71
    1
 72
    1
  1
ar-brelm\Psch 0.1
  7
standard
210
0
220
0
230
1
 50
0
 73
    2
 44
1
  0
MTEXT
  5
E0
100
AcDbEntity
  8
tekst
  6
ByLayer
 62
  256
370
   -1
100
AcDbMText
 10
150
 20
254
 30
0
 40
2
 41
11.11111213968569
 71
    1
 72
    1
  1
ar-brstd\Psch 0.1
  7
standard
210
0
220
0
230
1
 50
0
 73
    2
 44
1
  0
MTEXT
  5
E1
100
AcDbEntity
  8
tekst
  6
ByLayer
 62
  256
370
   -1
100
AcDbMText
 10
175
 20
254
 30
0
 40
2
 41
9.55555555555574
 71
    1
 72
    1
  1
ar-conc\Psch 0.1
  7
standard
210
0
220
0
230
1
 50
0
 73
    2
 44
1
  0
MTEXT
  5
E2
100
AcDbEntity
  8
tekst
  6
ByLayer
 62
  256
370
   -1
100
AcDbMText
 10
1
 20
221
 30
0
 40
2
 41
8.61187305516043
 71
    1
 72
    1
  1
Arcs\Psch 0.1
  7
standard
210
0
220
0
230
1
 50
0
 73
    2
 44
1
  0
MTEXT
  5
E3
100
AcDbEntity
  8
tekst
  6
ByLayer
 62
  256
370
   -1
100
AcDbMText
 10
26
 20
221
 30
0
 40
2
 41
9.777778806352266
 71
    1
 72
    1
  1
arcs_2\Psch 0.1
  7
standard
210
0
220
0
230
1
 50
0
 73
    2
 44
1
  0
MTEXT
  5
E4
100
AcDbEntity
  8
tekst
  6
ByLayer
 62
  256
370
   -1
100
AcDbMText
 10
51
 20
221
 30
0
 40
2
 41
11.55555555555593
 71
    1
 72
    1
  1
ar-hbone\Psch 0.1
  7
standard
210
0
220
0
230
1
 50
0
 73
    2
 44
1
  0
MTEXT
  5
E5
100
AcDbEntity
  8
tekst
  6
ByLayer
 62
  256
370
   -1
100
AcDbMText
 10
76
 20
221
 30
0
 40
2
 41
10.88888888888907
 71
    1
 72
    1
  1
ar-parq1\Psch 0.1
  7
standard
210
0
220
0
230
1
 50
0
 73
    2
 44
1
  0
MTEXT
  5
E6
100
AcDbEntity
  8
tekst
  6
ByLayer
 62
  256
370
   -1
100
AcDbMText
 10
101
 20
221
 30
0
 40
2
 41
9.555555555555648
 71
    1
 72
    1
  1
ar-roof\Psch 0.1
  7
standard
210
0
220
0
230
1
 50
0
 73
    2
 44
1
  0
MTEXT
  5
E7
100
AcDbEntity
  8
tekst
  6
ByLayer
 62
  256
370
   -1
100
AcDbMText
 10
126
 20
221
 30
0
 40
2
 41
11.33333436190792
 71
    1
 72
    1
  1
ar-rshke\Psch 0.1
  7
standard
210
0
220
0
230
1
 50
0
 73
    2
 44
1
  0
MTEXT
  5
E8
100
AcDbEntity
  8
tekst
  6
ByLayer
 62
  256
370
   -1
100
AcDbMText
 10
150
 20
221
 30
0
 40
2
 41
8.61187305516043
 71
    1
 72
    1
  1
box\Psch 0.1
  7
standard
210
0
220
0
230
1
 50
0
 73
    2
 44
1
  0
MTEXT
  5
E9
100
AcDbEntity
  8
tekst
  6
ByLayer
 62
  256
370
   -1
100
AcDbMText
 10
175
 20
221
 30
0
 40
2
 41
8.61187305516043
 71
    1
 72
    1
  1
brick\Psch 0.1
  7
standard
210
0
220
0
230
1
 50
0
 73
    2
 44
1
  0
MTEXT
  5
EA
100
AcDbEntity
  8
tekst
  6
ByLayer
 62
  256
370
   -1
100
AcDbMText
 10
1
 20
188
 30
0
 40
2
 41
10.00000102857449
 71
    1
 72
    1
  1
Brstone\Psch 0.1
  7
standard
210
0
220
0
230
1
 50
0
 73
    2
 44
1
  0
MTEXT
  5
EB
100
AcDbEntity
  8
tekst
  6
ByLayer
 62
  256
370
   -1
100
AcDbMText
 10
26
 20
188
 30
0
 40
2
 41
8.61187305516043
 71
    1
 72
    1
  1
clay\Psch 0.1
  7
standard
210
0
220
0
230
1
 50
0
 73
    2
 44
1
  0
MTEXT
  5
EC
100
AcDbEntity
  8
tekst
  6
ByLayer
 62
  256
370
   -1
100
AcDbMText
 10
76
 20
188
 30
0
 40
2
 41
8.61187305516043
 71
    1
 72
    1
  1
cross\Psch 0.1
  7
standard
210
0
220
0
230
1
 50
0
 73
    2
 44
1
  0
MTEXT
  5
ED
100
AcDbEntity
  8
tekst
  6
ByLayer
 62
  256
370
   -1
100
AcDbMText
 10
101
 20
188
 30
0
 40
2
 41
9.111111111111482
 71
    1
 72
    1
  1
deamon\Psch 0.1
  7
standard
210
0
220
0
230
1
 50
0
 73
    2
 44
1
  0
MTEXT
  5
EE
100
AcDbEntity
  8
tekst
  6
ByLayer
 62
  256
370
   -1
100
AcDbMText
 10
126
 20
188
 30
0
 40
2
 41
8.61187305516043
 71
    1
 72
    1
  1
dolmit\Psch 0.1
  7
standard
210
0
220
0
230
1
 50
0
 73
    2
 44
1
  0
MTEXT
  5
EF
100
AcDbEntity
  8
tekst
  6
ByLayer
 62
  256
370
   -1
100
AcDbMText
 10
176
 20
188
 30
0
 40
2
 41
8.61187305516043
 71
    1
 72
    1
  1
escher\Psch 0.1
  7
standard
210
0
220
0
230
1
 50
0
 73
    2
 44
1
  0
MTEXT
  5
F0
100
AcDbEntity
  8
tekst
  6
ByLayer
 62
  256
370
   -1
100
AcDbMText
 10
51
 20
188
 30
0
 40
2
 41
10.88888888888907
 71
    1
 72
    1
  1
concrete\Psch 0.5
  7
standard
210
0
220
0
230
1
 50
0
 73
    2
 44
1
  0
MTEXT
  5
F1
100
AcDbEntity
  8
tekst
  6
ByLayer
 62
  256
370
   -1
100
AcDbMText
 10
151
 20
188
 30
0
 40
2
 41
9.056317499604875
 71
    1
 72
    1
  1
earth\Psch 0.2
  7
standard
210
0
220
0
230
1
 50
0
 73
    2
 44
1
  0
MTEXT
  5
F2
100
AcDbEntity
  8
tekst
  6
ByLayer
 62
  256
370
   -1
100
AcDbMText
 10
3
 20
155
 30
0
 40
2
 41
8.61187305516043
 71
    1
 72
    1
  1
Flex\Psch 0.1
  7
standard
210
0
220
0
230
1
 50
0
 73
    2
 44
1
  0
MTEXT
  5
F3
100
AcDbEntity
  8
tekst
  6
ByLayer
 62
  256
370
   -1
100
AcDbMText
 10
26
 20
155
 30
0
 40
2
 41
19.77777983492694
 71
    1
 72
    1
  1
gost_ceramics\Psch 0.1
  7
standard
210
0
220
0
230
1
 50
0
 73
    2
 44
1
  0
MTEXT
  5
F4
100
AcDbEntity
  8
tekst
  6
ByLayer
 62
  256
370
   -1
100
AcDbMText
 10
51
 20
155
 30
0
 40
2
 41
20.00000102857468
 71
    1
 72
    1
  1
gost_concrete\Psch 0.1
  7
standard
210
0
220
0
230
1
 50
0
 73
    2
 44
1
  0
MTEXT
  5
F5
100
AcDbEntity
  8
tekst
  6
ByLayer
 62
  256
370
   -1
100
AcDbMText
 10
74
 20
155
 30
0
 40
2
 41
25.55555658413023
 71
    1
 72
    1
  1
gost-ferroconcrete\Psch 0.1
  7
standard
210
0
220
0
230
1
 50
0
 73
    2
 44
1
  0
MTEXT
  5
F6
100
AcDbEntity
  8
tekst
  6
ByLayer
 62
  256
370
   -1
100
AcDbMText
 10
101
 20
155
 30
0
 40
2
 41
26.66666769524134
 71
    1
 72
    1
  1
gost-ferroconcrete1\Psch 0.1
  7
standard
210
0
220
0
230
1
 50
0
 73
    2
 44
1
  0
MTEXT
  5
F7
100
AcDbEntity
  8
tekst
  6
ByLayer
 62
  256
370
   -1
100
AcDbMText
 10
130
 20
155
 30
0
 40
2
 41
15.55555864127912
 71
    1
 72
    1
  1
gost_glass\Psch 0.1
  7
standard
210
0
220
0
230
1
 50
0
 73
    2
 44
1
  0
MTEXT
  5
F8
100
AcDbEntity
  8
tekst
  6
ByLayer
 62
  256
370
   -1
100
AcDbMText
 10
152
 20
155
 30
0
 40
2
 41
16.66666975239023
 71
    1
 72
    1
  1
gost_glass1\Psch 0.1
  7
standard
210
0
220
0
230
1
 50
0
 73
    2
 44
1
  0
MTEXT
  5
F9
100
AcDbEntity
  8
tekst
  6
ByLayer
 62
  256
370
   -1
100
AcDbMText
 10
176
 20
155
 30
0
 40
2
 41
17.55555658413033
 71
    1
 72
    1
  1
gost_ground\Psch 0.1
  7
standard
210
0
220
0
230
1
 50
0
 73
    2
 44
1
  0
MTEXT
  5
FA
100
AcDbEntity
  8
tekst
  6
ByLayer
 62
  256
370
   -1
100
AcDbMText
 10
1
 20
122
 30
0
 40
2
 41
18.66666769524144
 71
    1
 72
    1
  1
gost_ground1\Psch 0.1
  7
standard
210
0
220
0
230
1
 50
0
 73
    2
 44
1
  0
MTEXT
  5
FB
100
AcDbEntity
  8
tekst
  6
ByLayer
 62
  256
370
   -1
100
AcDbMText
 10
26
 20
122
 30
0
 40
2
 41
15.33333436190791
 71
    1
 72
    1
  1
gost_liquid\Psch 0.1
  7
standard
210
0
220
0
230
1
 50
0
 73
    2
 44
1
  0
MTEXT
  5
FC
100
AcDbEntity
  8
tekst
  6
ByLayer
 62
  256
370
   -1
100
AcDbMText
 10
51
 20
122
 30
0
 40
2
 41
15.77777880635255
 71
    1
 72
    1
  1
gost_metal\Psch 0.1
  7
standard
210
0
220
0
230
1
 50
0
 73
    2
 44
1
  0
MTEXT
  5
FD
100
AcDbEntity
  8
tekst
  6
ByLayer
 62
  256
370
   -1
100
AcDbMText
 10
77
 20
122
 30
0
 40
2
 41
22.00000102857496
 71
    1
 72
    1
  1
gost_non-metal\Psch 0.1
  7
standard
210
0
220
0
230
1
 50
0
 73
    2
 44
1
  0
MTEXT
  5
FE
100
AcDbEntity
  8
tekst
  6
ByLayer
 62
  256
370
   -1
100
AcDbMText
 10
101
 20
122
 30
0
 40
2
 41
14.66666872381583
 71
    1
 72
    1
  1
gost_sand\Psch 0.1
  7
standard
210
0
220
0
230
1
 50
0
 73
    2
 44
1
  0
MTEXT
  5
FF
100
AcDbEntity
  8
tekst
  6
ByLayer
 62
  256
370
   -1
100
AcDbMText
 10
126
 20
122
 30
0
 40
2
 41
16.00000205714907
 71
    1
 72
    1
  1
gost_stone\Psch 0.1
  7
standard
210
0
220
0
230
1
 50
0
 73
    2
 44
1
  0
MTEXT
  5
100
100
AcDbEntity
  8
tekst
  6
ByLayer
 62
  256
370
   -1
100
AcDbMText
 10
150
 20
122
 30
0
 40
2
 41
15.11111213968569
 71
    1
 72
    1
  1
gost_wood\Psch 0.1
  7
standard
210
0
220
0
230
1
 50
0
 73
    2
 44
1
  0
MTEXT
  5
101
100
AcDbEntity
  8
tekst
  6
ByLayer
 62
  256
370
   -1
100
AcDbMText
 10
175
 20
122
 30
0
 40
2
 41
16.2222232507968
 71
    1
 72
    1
  1
gost_wood1\Psch 0.1
  7
standard
210
0
220
0
230
1
 50
0
 73
    2
 44
1
  0
MTEXT
  5
102
100
AcDbEntity
  8
tekst
  6
ByLayer
 62
  256
370
   -1
100
AcDbMText
 10
1
 20
89
 30
0
 40
2
 41
8.61187305516043
 71
    1
 72
    1
  1
Grass\Psch 0.1
  7
standard
210
0
220
0
230
1
 50
0
 73
    2
 44
1
  0
MTEXT
  5
103
100
AcDbEntity
  8
tekst
  6
ByLayer
 62
  256
370
   -1
100
AcDbMText
 10
26
 20
88
 30
0
 40
2
 41
11.55555761270472
 71
    1
 72
    1
  1
grass_b\Psch 0.1
  7
standard
210
0
220
0
230
1
 50
0
 73
    2
 44
1
  0
MTEXT
  5
104
100
AcDbEntity
  8
tekst
  6
ByLayer
 62
  256
370
   -1
100
AcDbMText
 10
51
 20
89
 30
0
 40
2
 41
8.61187305516043
 71
    1
 72
    1
  1
hex\Psch 0.1
  7
standard
210
0
220
0
230
1
 50
0
 73
    2
 44
1
  0
MTEXT
  5
105
100
AcDbEntity
  8
tekst
  6
ByLayer
 62
  256
370
   -1
100
AcDbMText
 10
76
 20
89
 30
0
 40
2
 41
14.88888888888935
 71
    1
 72
    1
  1
hexagon_a\Psch 0.1
  7
standard
210
0
220
0
230
1
 50
0
 73
    2
 44
1
  0
MTEXT
  5
106
100
AcDbEntity
  8
tekst
  6
ByLayer
 62
  256
370
   -1
100
AcDbMText
 10
101
 20
89
 30
0
 40
2
 41
14.88888888888935
 71
    1
 72
    1
  1
hexagon_b\Psch 0.1
  7
standard
210
0
220
0
230
1
 50
0
 73
    2
 44
1
  0
MTEXT
  5
107
100
AcDbEntity
  8
tekst
  6
ByLayer
 62
  256
370
   -1
100
AcDbMText
 10
126
 20
89
 30
0
 40
2
 41
13.55555555555593
 71
    1
 72
    1
  1
honeycomb\Psch 0.1
  7
standard
210
0
220
0
230
1
 50
0
 73
    2
 44
1
  0
MTEXT
  5
108
100
AcDbEntity
  8
tekst
  6
ByLayer
 62
  256
370
   -1
100
AcDbMText
 10
151
 20
89
 30
0
 40
2
 41
8.61187305516043
 71
    1
 72
    1
  1
hound\Psch 0.1
  7
standard
210
0
220
0
230
1
 50
0
 73
    2
 44
1
  0
MTEXT
  5
109
100
AcDbEntity
  8
tekst
  6
ByLayer
 62
  256
370
   -1
100
AcDbMText
 10
175
 20
89
 30
0
 40
2
 41
12.44444547301896
 71
    1
 72
    1
  1
iso03w100\Psch 0.1
  7
standard
210
0
220
0
230
1
 50
0
 73
    2
 44
1
  0
MTEXT
  5
10A
100
AcDbEntity
  8
tekst
  6
ByLayer
 62
  256
370
   -1
100
AcDbMText
 10
1
 20
56
 30
0
 40
2
 41
14.00000102857461
 71
    1
 72
    1
  1
iso03w100a\Psch 0.1
  7
standard
210
0
220
0
230
1
 50
0
 73
    2
 44
1
  0
MTEXT
  5
10B
100
AcDbEntity
  8
tekst
  6
ByLayer
 62
  256
370
   -1
100
AcDbMText
 10
26
 20
56
 30
0
 40
2
 41
8.61187305516043
 71
    1
 72
    1
  1
kepele\Psch 0.1
  7
standard
210
0
220
0
230
1
 50
0
 73
    2
 44
1
  0
MTEXT
  5
10C
100
AcDbEntity
  8
tekst
  6
ByLayer
 62
  256
370
   -1
100
AcDbMText
 10
51
 20
56
 30
0
 40
2
 41
8.61187305516043
 71
    1
 72
    1
  1
misc01\Psch 0.1
  7
standard
210
0
220
0
230
1
 50
0
 73
    2
 44
1
  0
MTEXT
  5
10D
100
AcDbEntity
  8
tekst
  6
ByLayer
 62
  256
370
   -1
100
AcDbMText
 10
76
 20
56
 30
0
 40
2
 41
8.61187305516043
 71
    1
 72
    1
  1
misc02\Psch 0.1
  7
standard
210
0
220
0
230
1
 50
0
 73
    2
 44
1
  0
MTEXT
  5
10E
100
AcDbEntity
  8
tekst
  6
ByLayer
 62
  256
370
   -1
100
AcDbMText
 10
126
 20
56
 30
0
 40
2
 41
8.666667695241156
 71
    1
 72
    1
  1
paisley\Psch 0.1
  7
standard
210
0
220
0
230
1
 50
0
 73
    2
 44
1
  0
MTEXT
  5
10F
100
AcDbEntity
  8
tekst
  6
ByLayer
 62
  256
370
   -1
100
AcDbMText
 10
150
 20
56
 30
0
 40
2
 41
16.22222222222278
 71
    1
 72
    1
  1
pantagon_a\Psch 0.1
  7
standard
210
0
220
0
230
1
 50
0
 73
    2
 44
1
  0
MTEXT
  5
110
100
AcDbEntity
  8
tekst
  6
ByLayer
 62
  256
370
   -1
100
AcDbMText
 10
175
 20
56
 30
0
 40
2
 41
16.22222222222278
 71
    1
 72
    1
  1
pantagon_b\Psch 0.1
  7
standard
210
0
220
0
230
1
 50
0
 73
    2
 44
1
  0
MTEXT
  5
111
100
AcDbEntity
  8
tekst
  6
ByLayer
 62
  256
370
   -1
100
AcDbMText
 10
26
 20
23
 30
0
 40
2
 41
8.61187305516043
 71
    1
 72
    1
  1
sacncr\Psch 0.1
  7
standard
210
0
220
0
230
1
 50
0
 73
    2
 44
1
  0
MTEXT
  5
112
100
AcDbEntity
  8
tekst
  6
ByLayer
 62
  256
370
   -1
100
AcDbMText
 10
76
 20
23
 30
0
 40
2
 41
8.61187305516043
 71
    1
 72
    1
  1
sqare\Psch 0.1
  7
standard
210
0
220
0
230
1
 50
0
 73
    2
 44
1
  0
MTEXT
  5
113
100
AcDbEntity
  8
tekst
  6
ByLayer
 62
  256
370
   -1
100
AcDbMText
 10
100
 20
23
 30
0
 40
2
 41
14.44444444444482
 71
    1
 72
    1
  1
triangle_a\Psch 0.1
  7
standard
210
0
220
0
230
1
 50
0
 73
    2
 44
1
  0
MTEXT
  5
114
100
AcDbEntity
  8
tekst
  6
ByLayer
 62
  256
370
   -1
100
AcDbMText
 10
125
 20
23
 30
0
 40
2
 41
14.44444444444482
 71
    1
 72
    1
  1
triangle_b\Psch 0.1
  7
standard
210
0
220
0
230
1
 50
0
 73
    2
 44
1
  0
MTEXT
  5
115
100
AcDbEntity
  8
tekst
  6
ByLayer
 62
  256
370
   -1
100
AcDbMText
 10
100
 20
56
 30
0
 40
2
 41
8.000001028574612
 71
    1
 72
    1
  1
misc03\Psch 1
  7
standard
210
0
220
0
230
1
 50
0
 73
    2
 44
1
  0
MTEXT
  5
116
100
AcDbEntity
  8
tekst
  6
ByLayer
 62
  256
370
   -1
100
AcDbMText
 10
1
 20
23
 30
0
 40
2
 41
8.444445473018932
 71
    1
 72
    1
  1
Plastic\Psch 2
  7
standard
210
0
220
0
230
1
 50
0
 73
    2
 44
1
  0
MTEXT
  5
117
100
AcDbEntity
  8
tekst
  6
ByLayer
 62
  256
370
   -1
100
AcDbMText
 10
51
 20
23
 30
0
 40
2
 41
9.056317499604875
 71
    1
 72
    1
  1
sand\Psch 0.2
  7
standard
210
0
220
0
230
1
 50
0
 73
    2
 44
1
  0
MTEXT
  5
118
100
AcDbEntity
  8
arceer
  6
ByLayer
 62
  256
370
   -1
100
AcDbMText
 10
160
 20
40
 30
0
 40
2
 41
22.38888804088029
 71
    1
 72
    1
  1
HATCH SYMBOLS\PIN LIBRECAD
  7
standard
210
0
220
0
230
1
 50
0
 73
    2
 44
1
  0
LWPOLYLINE
  5
119
100
AcDbEntity
  8
arceer
  6
ByLayer
 62
  256
370
   -1
100
AcDbPolyline
 90
    4
 70
    1
 43
0
 10
158
 20
42
 10
185
 20
42
 10
185
 20
42
 10
158
 20
42
  0
LINE
  5
11A
100
AcDbEntity
  8
arceer
  6
ByLayer
 62
  256
370
   -1
100
AcDbLine
 10
185
 20
42
 11
185
 21
33
  0
LINE
  5
11B
100
AcDbEntity
  8
arceer
  6
ByLayer
 62
  256
370
   -1
100
AcDbLine
 10
185
 20
33
 11
158
 21
33
  0
LINE
  5
11C
100
AcDbEntity
  8
arceer
  6
ByLayer
 62
  256
370
   -1
100
AcDbLine
 10
158
 20
33
 11
158
 21
42
  0
ENDSEC
  0
SECTION
  2
OBJECTS
  0
DICTIONARY
  5
C
330
0
100
AcDbDictionary
281
    1
  3
ACAD_GROUP
350
D
  0
DICTIONARY
  5
D
330
C
100
AcDbDictionary
281
    1
  0
ENDSEC
  0
EOF
