999
dxfrw 0.6.3
  0
SECTION
  2
HEADER
  9
$ACADVER
  1
AC1021
  9
$DWGCODEPAGE
  3
ANSI_1252
  9
$INSBASE
 10
0
 20
0
 30
0
  9
$EXTMIN
 10
10.4954402451145
 20
10.2501995941945
 30
0
  9
$EXTMAX
 10
54.80668734504999
 20
36.08583269425
 30
0
  9
$LIMMIN
 10
0
 20
0
  9
$LIMMAX
 10
420
 20
297
  9
$ORTHOMODE
 70
    0
  9
$REGENMODE
 70
    1
  9
$FILLMODE
 70
    1
  9
$QTEXTMODE
 70
    0
  9
$MIRRTEXT
 70
    0
  9
$LTSCALE
 40
1
  9
$ATTMODE
 70
    0
  9
$TEXTSIZE
 40
2.5
  9
$TRACEWID
 40
15.68
  9
$TEXTSTYLE
  7
STANDARD
  9
$CLAYER
  8
0
  9
$CELTYPE
  6
BYLAYER
  9
$CECOLOR
 62
  256
  9
$CELTSCALE
 40
1
  9
$DISPSILH
 70
    0
  9
$DIMSCALE
 40
2.5
  9
$DIMASZ
 40
2.5
  9
$DIMEXO
 40
0.625
  9
$DIMDLI
 40
3.75
  9
$DIMRND
 40
0
  9
$DIMDLE
 40
0
  9
$DIMEXE
 40
1.25
  9
$DIMTP
 40
0
  9
$DIMTM
 40
0
  9
$DIMTXT
 40
2.5
  9
$DIMCEN
 40
2.5
  9
$DIMTSZ
 40
0
  9
$DIMTOL
 70
    0
  9
$DIMLIM
 70
    0
  9
$DIMTIH
 70
    0
  9
$DIMTOH
 70
    0
  9
$DIMSE1
 70
    0
  9
$DIMSE2
 70
    0
  9
$DIMTAD
 70
    1
  9
$DIMZIN
 70
    8
  9
$DIMBLK
  1

  9
$DIMASO
 70
    1
  9
$DIMSHO
 70
    1
  9
$DIMPOST
  1

  9
$DIMAPOST
  1

  9
$DIMALT
 70
    0
  9
$DIMALTD
 70
    3
  9
$DIMALTF
 40
0.03937
  9
$DIMLFAC
 40
1
  9
$DIMTOFL
 70
    1
  9
$DIMTVP
 40
0
  9
$DIMTIX
 70
    0
  9
$DIMSOXD
 70
    0
  9
$DIMSAH
 70
    0
  9
$DIMBLK1
  1

  9
$DIMBLK2
  1

  9
$DIMSTYLE
  2
Standard
  9
$DIMCLRD
 70
    0
  9
$DIMCLRE
 70
    0
  9
$DIMCLRT
 70
    0
  9
$DIMTFAC
 40
1
  9
$DIMGAP
 40
0.625
  9
$DIMJUST
 70
    0
  9
$DIMSD1
 70
    0
  9
$DIMSD2
 70
    0
  9
$DIMTOLJ
 70
    0
  9
$DIMTZIN
 70
    8
  9
$DIMALTZ
 70
    0
  9
$DIMALTTZ
 70
    0
  9
$DIMUPT
 70
    0
  9
$DIMDEC
 70
    2
  9
$DIMTDEC
 70
    2
  9
$DIMALTU
 70
    2
  9
$DIMALTTD
 70
    3
  9
$DIMTXSTY
  7
STANDARD
  9
$DIMAUNIT
 70
    0
  9
$DIMADEC
 70
    0
  9
$DIMALTRND
 40
0
  9
$DIMAZIN
 70
    0
  9
$DIMDSEP
 70
   44
  9
$DIMATFIT
 70
    3
  9
$DIMFRAC
 70
    0
  9
$DIMLDRBLK
  1
STANDARD
  9
$DIMLUNIT
 70
    2
  9
$DIMLWD
 70
   -2
  9
$DIMLWE
 70
   -2
  9
$DIMTMOVE
 70
    0
  9
$DIMFXL
 40
1
  9
$DIMFXLON
 70
    0
  9
$DIMJOGANG
 40
0.7854
  9
$DIMTFILL
 70
    0
  9
$DIMTFILLCLR
 70
    0
  9
$DIMARCSYM
 70
    0
  9
$DIMLTYPE
  6

  9
$DIMLTEX1
  6

  9
$DIMLTEX2
  6

  9
$LUNITS
 70
    2
  9
$LUPREC
 70
    4
  9
$SKETCHINC
 40
1
  9
$FILLETRAD
 40
0
  9
$AUNITS
 70
    0
  9
$AUPREC
 70
    2
  9
$MENU
  1
.
  9
$ELEVATION
 40
0
  9
$PELEVATION
 40
0
  9
$THICKNESS
 40
0
  9
$LIMCHECK
 70
    0
  9
$CHAMFERA
 40
0
  9
$CHAMFERB
 40
0
  9
$CHAMFERC
 40
0
  9
$CHAMFERD
 40
0
  9
$SKPOLY
 70
    0
  9
$USRTIMER
 70
    1
  9
$ANGBASE
 50
0
  9
$ANGDIR
 70
    0
  9
$PDMODE
 70
   34
  9
$PDSIZE
 40
0
  9
$PLINEWID
 40
0
  9
$SPLFRAME
 70
    0
  9
$SPLINETYPE
 70
    2
  9
$SPLINESEGS
 70
    8
  9
$HANDSEED
  5
20000
  9
$SURFTAB1
 70
    6
  9
$SURFTAB2
 70
    6
  9
$SURFTYPE
 70
    6
  9
$SURFU
 70
    6
  9
$SURFV
 70
    6
  9
$UCSBASE
  2

  9
$UCSNAME
  2

  9
$UCSORG
 10
0
 20
0
 30
0
  9
$UCSXDIR
 10
1
 20
0
 30
0
  9
$UCSYDIR
 10
0
 20
1
 30
0
  9
$UCSORTHOREF
  2

  9
$UCSORTHOVIEW
 70
    0
  9
$UCSORGTOP
 10
0
 20
0
 30
0
  9
$UCSORGBOTTOM
 10
0
 20
0
 30
0
  9
$UCSORGLEFT
 10
0
 20
0
 30
0
  9
$UCSORGRIGHT
 10
0
 20
0
 30
0
  9
$UCSORGFRONT
 10
0
 20
0
 30
0
  9
$UCSORGBACK
 10
0
 20
0
 30
0
  9
$PUCSBASE
  2

  9
$PUCSNAME
  2

  9
$PUCSORG
 10
0
 20
0
 30
0
  9
$PUCSXDIR
 10
1
 20
0
 30
0
  9
$PUCSYDIR
 10
0
 20
1
 30
0
  9
$PUCSORTHOREF
  2

  9
$PUCSORTHOVIEW
 70
    0
  9
$PUCSORGTOP
 10
0
 20
0
 30
0
  9
$PUCSORGBOTTOM
 10
0
 20
0
 30
0
  9
$PUCSORGLEFT
 10
0
 20
0
 30
0
  9
$PUCSORGRIGHT
 10
0
 20
0
 30
0
  9
$PUCSORGFRONT
 10
0
 20
0
 30
0
  9
$PUCSORGBACK
 10
0
 20
0
 30
0
  9
$USERI1
 70
    0
  9
$USERI2
 70
    0
  9
$USERI3
 70
    0
  9
$USERI4
 70
    0
  9
$USERI5
 70
    0
  9
$USERR1
 40
0
  9
$USERR2
 40
0
  9
$USERR3
 40
0
  9
$USERR4
 40
0
  9
$USERR5
 40
0
  9
$WORLDVIEW
 70
    1
  9
$SHADEDGE
 70
    3
  9
$SHADEDIF
 70
   70
  9
$TILEMODE
 70
    1
  9
$MAXACTVP
 70
   64
  9
$PINSBASE
 10
0
 20
0
 30
0
  9
$PLIMCHECK
 70
    0
  9
$PEXTMIN
 10
0
 20
0
 30
0
  9
$PEXTMAX
 10
0
 20
0
 30
0
  9
$GRIDMODE
 70
    1
  9
$SNAPSTYLE
 70
    0
  9
$PLIMMIN
 10
0
 20
0
  9
$PLIMMAX
 10
210
 20
297
  9
$UNITMODE
 70
    0
  9
$VISRETAIN
 70
    1
  9
$PLINEGEN
 70
    0
  9
$PSLTSCALE
 70
    1
  9
$TREEDEPTH
 70
 3020
  9
$CMLSTYLE
  2
Standard
  9
$CMLJUST
 70
    0
  9
$CMLSCALE
 40
20
  9
$PROXYGRAPHICS
 70
    1
  9
$MEASUREMENT
 70
    1
  9
$CELWEIGHT
370
   -1
  9
$ENDCAPS
280
    0
  9
$JOINSTYLE
280
    0
  9
$LWDISPLAY
290
    0
  9
$INSUNITS
 70
    4
  9
$HYPERLINKBASE
  1

  9
$STYLESHEET
  1

  9
$XEDIT
290
    1
  9
$CEPSNTYPE
380
    0
  9
$PSTYLEMODE
290
    1
  9
$EXTNAMES
290
    1
  9
$PSVPSCALE
 40
1
  9
$OLESTARTUP
290
    0
  9
$SORTENTS
280
  127
  9
$INDEXCTL
280
    0
  9
$HIDETEXT
280
    1
  9
$XCLIPFRAME
290
    0
  9
$HALOGAP
280
    0
  9
$OBSCOLOR
 70
  257
  9
$OBSLTYPE
280
    0
  9
$INTERSECTIONDISPLAY
280
    0
  9
$INTERSECTIONCOLOR
 70
  257
  9
$DIMASSOC
280
    1
  9
$PROJECTNAME
  1

  9
$CAMERADISPLAY
290
    0
  9
$LENSLENGTH
 40
50
  9
$CAMERAHEIGHT
 40
0
  9
$STEPSPERSEC
 40
2
  9
$STEPSIZE
 40
50
  9
$3DDWFPREC
 40
2
  9
$PSOLWIDTH
 40
5
  9
$PSOLHEIGHT
 40
80
  9
$LOFTANG1
 40
1.570796326794897
  9
$LOFTANG2
 40
1.570796326794897
  9
$LOFTMAG1
 40
0
  9
$LOFTMAG2
 40
0
  9
$LOFTPARAM
 70
    7
  9
$LOFTNORMALS
280
    1
  9
$LATITUDE
 40
1
  9
$LONGITUDE
 40
1
  9
$NORTHDIRECTION
 40
0
  9
$TIMEZONE
 70
-8000
  9
$LIGHTGLYPHDISPLAY
280
    1
  9
$TILEMODELIGHTSYNCH
280
    1
  9
$SOLIDHIST
280
    1
  9
$SHOWHIST
280
    1
  9
$DWFFRAME
280
    2
  9
$DGNFRAME
280
    0
  9
$REALWORLDSCALE
290
    1
  9
$INTERFERECOLOR
 62
    1
  9
$CSHADOW
280
    0
  9
$SHADOWPLANELOCATION
 40
0
  0
ENDSEC
  0
SECTION
  2
CLASSES
  0
ENDSEC
  0
SECTION
  2
TABLES
  0
TABLE
  2
VPORT
  5
8
330
0
100
AcDbSymbolTable
 70
    1
  0
VPORT
  5
31
330
2
100
AcDbSymbolTableRecord
100
AcDbViewportTableRecord
  2
*ACTIVE
 70
    0
 10
0
 20
0
 11
1
 21
1
 12
108.7291116974495
 22
65.41336851363242
 13
0
 23
0
 14
10
 24
10
 15
10
 25
10
 16
0
 26
0
 36
1
 17
0
 27
0
 37
0
 40
175.901495162709
 41
1.91375
 42
50
 43
0
 44
0
 50
0
 51
0
 71
    0
 72
  100
 73
    1
 74
    3
 75
    0
 76
    1
 77
    0
 78
    0
281
    0
 65
    1
110
0
120
0
130
0
111
1
121
0
131
0
112
0
122
1
132
0
 79
    0
146
0
348
10020
 60
    7
 61
    5
292
1
282
    1
141
0
142
0
 63
  250
421
3358443
  0
ENDTAB
  0
TABLE
  2
LTYPE
  5
5
330
0
100
AcDbSymbolTable
 70
    4
  0
LTYPE
  5
14
330
5
100
AcDbSymbolTableRecord
100
AcDbLinetypeTableRecord
  2
ByBlock
 70
    0
  3

 72
   65
 73
    0
 40
0
  0
LTYPE
  5
15
330
5
100
AcDbSymbolTableRecord
100
AcDbLinetypeTableRecord
  2
ByLayer
 70
    0
  3

 72
   65
 73
    0
 40
0
  0
LTYPE
  5
16
330
5
100
AcDbSymbolTableRecord
100
AcDbLinetypeTableRecord
  2
Continuous
 70
    0
  3
Solid line
 72
   65
 73
    0
 40
0
  0
LTYPE
  5
32
330
5
100
AcDbSymbolTableRecord
100
AcDbLinetypeTableRecord
  2
DOT
 70
    0
  3
Dot . . . . . . . . . . . . . . . . . . . . . .
 72
   65
 73
    2
 40
6.35
 49
0
 74
    0
 49
-6.35
 74
    0
  0
LTYPE
  5
33
330
5
100
AcDbSymbolTableRecord
100
AcDbLinetypeTableRecord
  2
DOTTINY
 70
    0
  3
Dot (.15x) .....................................
 72
   65
 73
    2
 40
0.9525
 49
0
 74
    0
 49
-0.9525
 74
    0
  0
LTYPE
  5
34
330
5
100
AcDbSymbolTableRecord
100
AcDbLinetypeTableRecord
  2
DOT2
 70
    0
  3
Dot (.5x) .....................................
 72
   65
 73
    2
 40
3.175
 49
0
 74
    0
 49
-3.175
 74
    0
  0
LTYPE
  5
35
330
5
100
AcDbSymbolTableRecord
100
AcDbLinetypeTableRecord
  2
DOTX2
 70
    0
  3
Dot (2x) .  .  .  .  .  .  .  .  .  .  .  .  .
 72
   65
 73
    2
 40
12.7
 49
0
 74
    0
 49
-12.7
 74
    0
  0
LTYPE
  5
36
330
5
100
AcDbSymbolTableRecord
100
AcDbLinetypeTableRecord
  2
DASHED
 70
    0
  3
Dashed _ _ _ _ _ _ _ _ _ _ _ _ _ _ _ _ _
 72
   65
 73
    2
 40
19.05
 49
12.7
 74
    0
 49
-6.35
 74
    0
  0
LTYPE
  5
37
330
5
100
AcDbSymbolTableRecord
100
AcDbLinetypeTableRecord
  2
DASHEDTINY
 70
    0
  3
Dashed (.15x) _ _ _ _ _ _ _ _ _ _ _ _ _ _ _ _ _
 72
   65
 73
    2
 40
2.8575
 49
1.905
 74
    0
 49
-0.9525
 74
    0
  0
LTYPE
  5
38
330
5
100
AcDbSymbolTableRecord
100
AcDbLinetypeTableRecord
  2
DASHED2
 70
    0
  3
Dashed (.5x) _ _ _ _ _ _ _ _ _ _ _ _ _ _ _ _ _
 72
   65
 73
    2
 40
9.524999999999999
 49
6.35
 74
    0
 49
-3.175
 74
    0
  0
LTYPE
  5
39
330
5
100
AcDbSymbolTableRecord
100
AcDbLinetypeTableRecord
  2
DASHEDX2
 70
    0
  3
Dashed (2x) ____  ____  ____  ____  ____  ___
 72
   65
 73
    2
 40
38.09999999999999
 49
25.4
 74
    0
 49
-12.7
 74
    0
  0
LTYPE
  5
3A
330
5
100
AcDbSymbolTableRecord
100
AcDbLinetypeTableRecord
  2
DASHDOT
 70
    0
  3
Dash dot __ . __ . __ . __ . __ . __ . __ . __
 72
   65
 73
    4
 40
25.4
 49
12.7
 74
    0
 49
-6.35
 74
    0
 49
0
 74
    0
 49
-6.35
 74
    0
  0
LTYPE
  5
3B
330
5
100
AcDbSymbolTableRecord
100
AcDbLinetypeTableRecord
  2
DASHDOTTINY
 70
    0
  3
Dash dot (.15x) _._._._._._._._._._._._._._._.
 72
   65
 73
    4
 40
3.81
 49
1.905
 74
    0
 49
-0.9525
 74
    0
 49
0
 74
    0
 49
-0.9525
 74
    0
  0
LTYPE
  5
3C
330
5
100
AcDbSymbolTableRecord
100
AcDbLinetypeTableRecord
  2
DASHDOT2
 70
    0
  3
Dash dot (.5x) _._._._._._._._._._._._._._._.
 72
   65
 73
    4
 40
12.7
 49
6.35
 74
    0
 49
-3.175
 74
    0
 49
0
 74
    0
 49
-3.175
 74
    0
  0
LTYPE
  5
3D
330
5
100
AcDbSymbolTableRecord
100
AcDbLinetypeTableRecord
  2
DASHDOTX2
 70
    0
  3
Dash dot (2x) ____  .  ____  .  ____  .  ___
 72
   65
 73
    4
 40
50.8
 49
25.4
 74
    0
 49
-12.7
 74
    0
 49
0
 74
    0
 49
-12.7
 74
    0
  0
LTYPE
  5
3E
330
5
100
AcDbSymbolTableRecord
100
AcDbLinetypeTableRecord
  2
DIVIDE
 70
    0
  3
Divide ____ . . ____ . . ____ . . ____ . . ____
 72
   65
 73
    6
 40
31.75
 49
12.7
 74
    0
 49
-6.35
 74
    0
 49
0
 74
    0
 49
-6.35
 74
    0
 49
0
 74
    0
 49
-6.35
 74
    0
  0
LTYPE
  5
3F
330
5
100
AcDbSymbolTableRecord
100
AcDbLinetypeTableRecord
  2
DIVIDETINY
 70
    0
  3
Divide (.15x) __..__..__..__..__..__..__..__.._
 72
   65
 73
    6
 40
4.7625
 49
1.905
 74
    0
 49
-0.9525
 74
    0
 49
0
 74
    0
 49
-0.9525
 74
    0
 49
0
 74
    0
 49
-0.9525
 74
    0
  0
LTYPE
  5
40
330
5
100
AcDbSymbolTableRecord
100
AcDbLinetypeTableRecord
  2
DIVIDE2
 70
    0
  3
Divide (.5x) __..__..__..__..__..__..__..__.._
 72
   65
 73
    6
 40
15.875
 49
6.35
 74
    0
 49
-3.175
 74
    0
 49
0
 74
    0
 49
-3.175
 74
    0
 49
0
 74
    0
 49
-3.175
 74
    0
  0
LTYPE
  5
41
330
5
100
AcDbSymbolTableRecord
100
AcDbLinetypeTableRecord
  2
DIVIDEX2
 70
    0
  3
Divide (2x) ________  .  .  ________  .  .  _
 72
   65
 73
    6
 40
63.5
 49
25.4
 74
    0
 49
-12.7
 74
    0
 49
0
 74
    0
 49
-12.7
 74
    0
 49
0
 74
    0
 49
-12.7
 74
    0
  0
LTYPE
  5
42
330
5
100
AcDbSymbolTableRecord
100
AcDbLinetypeTableRecord
  2
BORDER
 70
    0
  3
Border __ __ . __ __ . __ __ . __ __ . __ __ .
 72
   65
 73
    6
 40
44.45
 49
12.7
 74
    0
 49
-6.35
 74
    0
 49
12.7
 74
    0
 49
-6.35
 74
    0
 49
0
 74
    0
 49
-6.35
 74
    0
  0
LTYPE
  5
43
330
5
100
AcDbSymbolTableRecord
100
AcDbLinetypeTableRecord
  2
BORDERTINY
 70
    0
  3
Border (.15x) __.__.__.__.__.__.__.__.__.__.__.
 72
   65
 73
    6
 40
6.6675
 49
1.905
 74
    0
 49
-0.9525
 74
    0
 49
1.905
 74
    0
 49
-0.9525
 74
    0
 49
0
 74
    0
 49
-0.9525
 74
    0
  0
LTYPE
  5
44
330
5
100
AcDbSymbolTableRecord
100
AcDbLinetypeTableRecord
  2
BORDER2
 70
    0
  3
Border (.5x) __.__.__.__.__.__.__.__.__.__.__.
 72
   65
 73
    6
 40
22.225
 49
6.35
 74
    0
 49
-3.175
 74
    0
 49
6.35
 74
    0
 49
-3.175
 74
    0
 49
0
 74
    0
 49
-3.175
 74
    0
  0
LTYPE
  5
45
330
5
100
AcDbSymbolTableRecord
100
AcDbLinetypeTableRecord
  2
BORDERX2
 70
    0
  3
Border (2x) ____  ____  .  ____  ____  .  ___
 72
   65
 73
    6
 40
88.89999999999999
 49
25.4
 74
    0
 49
-12.7
 74
    0
 49
25.4
 74
    0
 49
-12.7
 74
    0
 49
0
 74
    0
 49
-12.7
 74
    0
  0
LTYPE
  5
46
330
5
100
AcDbSymbolTableRecord
100
AcDbLinetypeTableRecord
  2
CENTER
 70
    0
  3
Center ____ _ ____ _ ____ _ ____ _ ____ _ ____
 72
   65
 73
    4
 40
50.8
 49
31.75
 74
    0
 49
-6.35
 74
    0
 49
6.35
 74
    0
 49
-6.35
 74
    0
  0
LTYPE
  5
47
330
5
100
AcDbSymbolTableRecord
100
AcDbLinetypeTableRecord
  2
CENTERTINY
 70
    0
  3
Center (.15x) ___ _ ___ _ ___ _ ___ _ ___ _ ___
 72
   65
 73
    4
 40
7.62
 49
4.7625
 74
    0
 49
-0.9525
 74
    0
 49
0.9525
 74
    0
 49
-0.9525
 74
    0
  0
LTYPE
  5
48
330
5
100
AcDbSymbolTableRecord
100
AcDbLinetypeTableRecord
  2
CENTER2
 70
    0
  3
Center (.5x) ___ _ ___ _ ___ _ ___ _ ___ _ ___
 72
   65
 73
    4
 40
28.575
 49
19.05
 74
    0
 49
-3.175
 74
    0
 49
3.175
 74
    0
 49
-3.175
 74
    0
  0
LTYPE
  5
49
330
5
100
AcDbSymbolTableRecord
100
AcDbLinetypeTableRecord
  2
CENTERX2
 70
    0
  3
Center (2x) ________  __  ________  __  _____
 72
   65
 73
    4
 40
101.6
 49
63.5
 74
    0
 49
-12.7
 74
    0
 49
12.7
 74
    0
 49
-12.7
 74
    0
  0
ENDTAB
  0
TABLE
  2
LAYER
  5
2
330
0
100
AcDbSymbolTable
 70
    1
  0
LAYER
  5
10
330
2
100
AcDbSymbolTableRecord
100
AcDbLayerTableRecord
  2
0
 70
    0
 62
    7
  6
CONTINUOUS
370
    0
390
F
  0
ENDTAB
  0
TABLE
  2
STYLE
  5
3
330
0
100
AcDbSymbolTable
 70
    3
  0
STYLE
  5
4A
330
2
100
AcDbSymbolTableRecord
100
AcDbTextStyleTableRecord
  2
Standard
 70
    0
 40
0
 41
1
 50
0
 71
    0
 42
1
  3
txt
  4

  0
ENDTAB
  0
TABLE
  2
VIEW
  5
6
330
0
100
AcDbSymbolTable
 70
    0
  0
ENDTAB
  0
TABLE
  2
UCS
  5
7
330
0
100
AcDbSymbolTable
 70
    0
  0
ENDTAB
  0
TABLE
  2
APPID
  5
9
330
0
100
AcDbSymbolTable
 70
    1
  0
APPID
  5
12
330
9
100
AcDbSymbolTableRecord
100
AcDbRegAppTableRecord
  2
ACAD
 70
    0
  0
APPID
  5
4B
330
9
100
AcDbSymbolTableRecord
100
AcDbRegAppTableRecord
  2
LibreCad
 70
    0
  0
ENDTAB
  0
TABLE
  2
DIMSTYLE
  5
A
330
0
100
AcDbSymbolTable
 70
    1
100
AcDbDimStyleTable
 71
    1
  0
DIMSTYLE
105
4C
330
A
100
AcDbSymbolTableRecord
100
AcDbDimStyleTableRecord
  2
Standard
 70
    0
 40
2.5
 41
2.5
 42
0.625
 43
0.38
 44
1.25
 45
0
 46
0
 47
0
 48
0
 49
1
140
2.5
141
0.09
142
0
143
25.4
144
1
145
0
146
1
147
0.625
148
0
 71
    0
 72
    0
 73
    0
 74
    1
 75
    0
 76
    0
 77
    0
 78
    8
 79
    0
170
    0
171
    2
172
    0
173
    0
174
    0
175
    0
176
    0
177
    0
178
    0
179
    0
271
    2
272
    4
273
    2
274
    2
275
    0
276
    0
277
    2
278
   44
279
    0
280
    0
281
    0
282
    0
283
    1
284
    0
285
    0
286
    0
288
    0
289
    3
340
STANDARD
341

371
   -2
372
   -2
  0
ENDTAB
  0
TABLE
  2
BLOCK_RECORD
  5
1
330
0
100
AcDbSymbolTable
 70
    2
  0
BLOCK_RECORD
  5
1F
330
1
100
AcDbSymbolTableRecord
100
AcDbBlockTableRecord
  2
*Model_Space
 70
    0
280
    1
281
    0
  0
BLOCK_RECORD
  5
1E
330
1
100
AcDbSymbolTableRecord
100
AcDbBlockTableRecord
  2
*Paper_Space
 70
    0
280
    1
281
    0
  0
BLOCK_RECORD
  5
4D
330
1
100
AcDbSymbolTableRecord
100
AcDbBlockTableRecord
  2
cow_view
 70
    0
280
    1
281
    0
  0
BLOCK_RECORD
  5
50
330
1
100
AcDbSymbolTableRecord
100
AcDbBlockTableRecord
  2
dog_3
 70
    0
280
    1
281
    0
  0
ENDTAB
  0
ENDSEC
  0
SECTION
  2
BLOCKS
  0
BLOCK
  5
20
330
1F
100
AcDbEntity
  8
0
100
AcDbBlockBegin
  2
*Model_Space
 70
    0
 10
0
 20
0
 30
0
  3
*Model_Space
  1

  0
ENDBLK
  5
21
330
1F
100
AcDbEntity
  8
0
100
AcDbBlockEnd
  0
BLOCK
  5
1C
330
1B
100
AcDbEntity
  8
0
100
AcDbBlockBegin
  2
*Paper_Space
 70
    0
 10
0
 20
0
 30
0
  3
*Paper_Space
  1

  0
ENDBLK
  5
1D
330
1F
100
AcDbEntity
  8
0
100
AcDbBlockEnd
  0
BLOCK
  5
4E
330
4D
100
AcDbEntity
  8
0
100
AcDbBlockBegin
  2
cow_view
 70
    0
 10
0
 20
0
  3
cow_view
  1

  0
LINE
  5
53
100
AcDbEntity
  8
0
  6
ByLayer
 62
  256
370
   -1
100
AcDbLine
 10
1.85589303516
 20
1.33180519821
 11
1.78659477416
 21
1.33087579721
  0
LINE
  5
54
100
AcDbEntity
  8
0
  6
ByLayer
 62
  256
370
   -1
100
AcDbLine
 10
1.83129080516
 20
0.74029715721
 11
1.79879048016
 21
0.71702559421
  0
LINE
  5
55
100
AcDbEntity
  8
0
  6
ByLayer
 62
  256
370
   -1
100
AcDbLine
 10
1.86865508116
 20
0.57654210621
 11
1.80628564216
 21
0.53424667721
  0
LINE
  5
56
100
AcDbEntity
  8
0
  6
ByLayer
 62
  256
370
   -1
100
AcDbLine
 10
0.103867922163
 20
0.21392991421
 11
0.108378481163
 21
0.26219459821
  0
LINE
  5
57
100
AcDbEntity
  8
0
  6
ByLayer
 62
  256
370
   -1
100
AcDbLine
 10
0.196815578163
 20
0.22573245821
 11
0.188034931163
 21
0.18485133521
  0
LINE
  5
58
100
AcDbEntity
  8
0
  6
ByLayer
 62
  256
370
   -1
100
AcDbLine
 10
0.108378481163
 20
0.26219459821
 11
0.09577643816339999
 21
0.31069011221
  0
LINE
  5
59
100
AcDbEntity
  8
0
  6
ByLayer
 62
  256
370
   -1
100
AcDbLine
 10
0.226525611163
 20
0.29842078621
 11
0.196815578163
 21
0.22573245821
  0
LINE
  5
5A
100
AcDbEntity
  8
0
  6
ByLayer
 62
  256
370
   -1
100
AcDbLine
 10
0.485118635163
 20
0.23634720521
 11
0.509234294163
 21
0.16782478721
  0
LINE
  5
5B
100
AcDbEntity
  8
0
  6
ByLayer
 62
  256
370
   -1
100
AcDbLine
 10
0.509234294163
 20
0.16782478721
 11
0.519796016163
 21
0.12602059521
  0
LINE
  5
5C
100
AcDbEntity
  8
0
  6
ByLayer
 62
  256
370
   -1
100
AcDbLine
 10
0.422546842163
 20
0.14542867321
 11
0.391861730163
 21
0.20549877721
  0
LINE
  5
5D
100
AcDbEntity
  8
0
  6
ByLayer
 62
  256
370
   -1
100
AcDbLine
 10
0.430370207163
 20
0.10500631021
 11
0.422546842163
 21
0.14542867321
  0
LINE
  5
5E
100
AcDbEntity
  8
0
  6
ByLayer
 62
  256
370
   -1
100
AcDbLine
 10
0.519796016163
 20
0.12602059521
 11
0.559645388163
 21
0.0538633032098
  0
LINE
  5
5F
100
AcDbEntity
  8
0
  6
ByLayer
 62
  256
370
   -1
100
AcDbLine
 10
0.559645388163
 20
0.0538633032098
 11
0.595984059163
 21
0.00377406420981
  0
LINE
  5
60
100
AcDbEntity
  8
0
  6
ByLayer
 62
  256
370
   -1
100
AcDbLine
 10
0.595984059163
 20
0.00377406420981
 11
0.495983487163
 21
0.00875150720981
  0
LINE
  5
61
100
AcDbEntity
  8
0
  6
ByLayer
 62
  256
370
   -1
100
AcDbLine
 10
0.495983487163
 20
0.00875150720981
 11
0.480466696163
 21
0.0581500382098
  0
LINE
  5
62
100
AcDbEntity
  8
0
  6
ByLayer
 62
  256
370
   -1
100
AcDbLine
 10
0.480466696163
 20
0.0581500382098
 11
0.451612312163
 21
0.0502527762098
  0
LINE
  5
63
100
AcDbEntity
  8
0
  6
ByLayer
 62
  256
370
   -1
100
AcDbLine
 10
0.451612312163
 20
0.0502527762098
 11
0.430370207163
 21
0.10500631021
  0
LINE
  5
64
100
AcDbEntity
  8
0
  6
ByLayer
 62
  256
370
   -1
100
AcDbLine
 10
0.5596819221629999
 20
0.0575895912098
 11
0.621204682163
 21
0.00609891720981
  0
LINE
  5
65
100
AcDbEntity
  8
0
  6
ByLayer
 62
  256
370
   -1
100
AcDbLine
 10
0.621204682163
 20
0.00609891720981
 11
0.593239791163
 21
0.0083376422098
  0
LINE
  5
66
100
AcDbEntity
  8
0
  6
ByLayer
 62
  256
370
   -1
100
AcDbLine
 10
0.556326135163
 20
0.0564702282098
 11
0.481380227163
 21
0.0564702282098
  0
LINE
  5
67
100
AcDbEntity
  8
0
  6
ByLayer
 62
  256
370
   -1
100
AcDbLine
 10
0.0713321821634
 20
0.0672509752098
 11
0.07289512816340001
 21
0.14495205021
  0
LINE
  5
68
100
AcDbEntity
  8
0
  6
ByLayer
 62
  256
370
   -1
100
AcDbLine
 10
0.195430266163
 20
0.0880374412098
 11
0.209700884163
 21
0.0344375022098
  0
LINE
  5
69
100
AcDbEntity
  8
0
  6
ByLayer
 62
  256
370
   -1
100
AcDbLine
 10
0.155914022163
 20
0.0748367132098
 11
0.166214799163
 21
0.008610364209800001
  0
LINE
  5
6A
100
AcDbEntity
  8
0
  6
ByLayer
 62
  256
370
   -1
100
AcDbLine
 10
0.161800180163
 20
0.0741008642098
 11
0.190495203163
 21
0.00419527520981
  0
LINE
  5
6B
100
AcDbEntity
  8
0
  6
ByLayer
 62
  256
370
   -1
100
AcDbLine
 10
0.199324441163
 20
0.07189331920979999
 11
0.07130049316339999
 21
0.08219519620979999
  0
LINE
  5
6C
100
AcDbEntity
  8
0
  6
ByLayer
 62
  256
370
   -1
100
AcDbLine
 10
0.113164723163
 20
0.0187319312098
 11
0.0713321821634
 21
0.0672509752098
  0
LINE
  5
6D
100
AcDbEntity
  8
0
  6
ByLayer
 62
  256
370
   -1
100
AcDbLine
 10
0.192713726163
 20
0.0033648802098
 11
0.113164723163
 21
0.0187319312098
  0
LINE
  5
6E
100
AcDbEntity
  8
0
  6
ByLayer
 62
  256
370
   -1
100
AcDbLine
 10
0.209700884163
 20
0.0344375022098
 11
0.192713726163
 21
0.0033648802098
  0
LINE
  5
6F
100
AcDbEntity
  8
0
  6
ByLayer
 62
  256
370
   -1
100
AcDbLine
 10
0.0817109161634
 20
0.17159182121
 11
0.103867922163
 21
0.21392991421
  0
LINE
  5
70
100
AcDbEntity
  8
0
  6
ByLayer
 62
  256
370
   -1
100
AcDbLine
 10
0.07289512816340001
 20
0.14495205021
 11
0.0817109161634
 21
0.17159182121
  0
LINE
  5
71
100
AcDbEntity
  8
0
  6
ByLayer
 62
  256
370
   -1
100
AcDbLine
 10
0.188501444163
 20
0.12940346921
 11
0.195430266163
 21
0.0880374412098
  0
LINE
  5
72
100
AcDbEntity
  8
0
  6
ByLayer
 62
  256
370
   -1
100
AcDbLine
 10
0.188034931163
 20
0.18485133521
 11
0.188501444163
 21
0.12940346921
  0
LINE
  5
73
100
AcDbEntity
  8
0
  6
ByLayer
 62
  256
370
   -1
100
AcDbLine
 10
0.0452034931634
 20
0.49871302921
 11
0.0387027841634
 21
0.44407161521
  0
LINE
  5
74
100
AcDbEntity
  8
0
  6
ByLayer
 62
  256
370
   -1
100
AcDbLine
 10
0.0543044871634
 20
0.45968344721
 11
0.0530043451634
 21
0.39983808921
  0
LINE
  5
75
100
AcDbEntity
  8
0
  6
ByLayer
 62
  256
370
   -1
100
AcDbLine
 10
0.0621053381634
 20
0.48570316821
 11
0.0673059061634
 21
0.41414893521
  0
LINE
  5
76
100
AcDbEntity
  8
0
  6
ByLayer
 62
  256
370
   -1
100
AcDbLine
 10
0.0660057641634
 20
0.53774261021
 11
0.07380661516339999
 21
0.46098443321
  0
LINE
  5
77
100
AcDbEntity
  8
0
  6
ByLayer
 62
  256
370
   -1
100
AcDbLine
 10
0.08530943216340001
 20
0.72301424921
 11
0.0917257651634
 21
0.67380663721
  0
LINE
  5
78
100
AcDbEntity
  8
0
  6
ByLayer
 62
  256
370
   -1
100
AcDbLine
 10
0.0817529291634
 20
0.76214828421
 11
0.08530943216340001
 21
0.72301424921
  0
LINE
  5
79
100
AcDbEntity
  8
0
  6
ByLayer
 62
  256
370
   -1
100
AcDbLine
 10
0.0710834211634
 20
0.80839759821
 11
0.0817529291634
 21
0.76214828421
  0
LINE
  5
7A
100
AcDbEntity
  8
0
  6
ByLayer
 62
  256
370
   -1
100
AcDbLine
 10
0.0693051701634
 20
0.86354101021
 11
0.0710834211634
 21
0.80839759821
  0
LINE
  5
7B
100
AcDbEntity
  8
0
  6
ByLayer
 62
  256
370
   -1
100
AcDbLine
 10
0.0799746781634
 20
0.9097903242099999
 11
0.0693051701634
 21
0.86354101021
  0
LINE
  5
7C
100
AcDbEntity
  8
0
  6
ByLayer
 62
  256
370
   -1
100
AcDbLine
 10
0.09420068916340001
 20
0.97382783521
 11
0.0799746781634
 21
0.9097903242099999
  0
LINE
  5
7D
100
AcDbEntity
  8
0
  6
ByLayer
 62
  256
370
   -1
100
AcDbLine
 10
0.0849215321634
 20
0.60571036221
 11
0.0998246761634
 21
0.54770774321
  0
LINE
  5
7E
100
AcDbEntity
  8
0
  6
ByLayer
 62
  256
370
   -1
100
AcDbLine
 10
0.0917257651634
 20
0.67380663721
 11
0.0849215321634
 21
0.60571036221
  0
LINE
  5
7F
100
AcDbEntity
  8
0
  6
ByLayer
 62
  256
370
   -1
100
AcDbLine
 10
0.0398078481634
 20
0.35734284921
 11
0.0328899201634
 21
0.30081348521
  0
LINE
  5
80
100
AcDbEntity
  8
0
  6
ByLayer
 62
  256
370
   -1
100
AcDbLine
 10
0.06286760716339999
 20
0.27543295421
 11
0.0490317521634
 21
0.32504035521
  0
LINE
  5
81
100
AcDbEntity
  8
0
  6
ByLayer
 62
  256
370
   -1
100
AcDbLine
 10
0.0524907151634
 20
0.33542329921
 11
0.06286760716339999
 21
0.27543295421
  0
LINE
  5
82
100
AcDbEntity
  8
0
  6
ByLayer
 62
  256
370
   -1
100
AcDbLine
 10
0.0490317521634
 20
0.34926722521
 11
0.0294309571634
 21
0.27197197221
  0
LINE
  5
83
100
AcDbEntity
  8
0
  6
ByLayer
 62
  256
370
   -1
100
AcDbLine
 10
0.0686325471634
 20
0.31581107121
 11
0.0536437031634
 21
0.38618436121
  0
LINE
  5
84
100
AcDbEntity
  8
0
  6
ByLayer
 62
  256
370
   -1
100
AcDbLine
 10
0.0640205951634
 20
0.38156971921
 11
0.0686325471634
 21
0.31581107121
  0
LINE
  5
85
100
AcDbEntity
  8
0
  6
ByLayer
 62
  256
370
   -1
100
AcDbLine
 10
0.0790094381634
 20
0.45886497221
 11
0.07324449816339999
 21
0.35157454621
  0
LINE
  5
86
100
AcDbEntity
  8
0
  6
ByLayer
 62
  256
370
   -1
100
AcDbLine
 10
0.08362139016340001
 20
0.37464775621
 11
0.0790094381634
 21
0.45886497221
  0
LINE
  5
87
100
AcDbEntity
  8
0
  6
ByLayer
 62
  256
370
   -1
100
AcDbLine
 10
0.0870803541634
 20
0.47386255821
 11
0.08362139016340001
 21
0.37464775621
  0
LINE
  5
88
100
AcDbEntity
  8
0
  6
ByLayer
 62
  256
370
   -1
100
AcDbLine
 10
0.0916923061634
 20
0.40464292921
 11
0.0870803541634
 21
0.47386255821
  0
LINE
  5
89
100
AcDbEntity
  8
0
  6
ByLayer
 62
  256
370
   -1
100
AcDbLine
 10
0.0951512691634
 20
0.48424550321
 11
0.0916923061634
 21
0.40464292921
  0
LINE
  5
8A
100
AcDbEntity
  8
0
  6
ByLayer
 62
  256
370
   -1
100
AcDbLine
 10
0.102069197163
 20
0.42425515721
 11
0.0951512691634
 21
0.48424550321
  0
LINE
  5
8B
100
AcDbEntity
  8
0
  6
ByLayer
 62
  256
370
   -1
100
AcDbLine
 10
0.100916209163
 20
0.49116746621
 11
0.102069197163
 21
0.42425515721
  0
LINE
  5
8C
100
AcDbEntity
  8
0
  6
ByLayer
 62
  256
370
   -1
100
AcDbLine
 10
0.480263945163
 20
0.30227491221
 11
0.473202877163
 21
0.31994194121
  0
LINE
  5
8D
100
AcDbEntity
  8
0
  6
ByLayer
 62
  256
370
   -1
100
AcDbLine
 10
0.492032393163
 20
0.30227491221
 11
0.480263945163
 21
0.30227491221
  0
LINE
  5
8E
100
AcDbEntity
  8
0
  6
ByLayer
 62
  256
370
   -1
100
AcDbLine
 10
0.498570419163
 20
0.31143559421
 11
0.492032393163
 21
0.30227491221
  0
LINE
  5
8F
100
AcDbEntity
  8
0
  6
ByLayer
 62
  256
370
   -1
100
AcDbLine
 10
0.490724787163
 20
0.32452228221
 11
0.498570419163
 21
0.31143559421
  0
LINE
  5
90
100
AcDbEntity
  8
0
  6
ByLayer
 62
  256
370
   -1
100
AcDbLine
 10
0.556105050163
 20
0.31797893821
 11
0.554450112163
 21
0.33122921021
  0
LINE
  5
91
100
AcDbEntity
  8
0
  6
ByLayer
 62
  256
370
   -1
100
AcDbLine
 10
0.566565892163
 20
0.30620091821
 11
0.556105050163
 21
0.31797893821
  0
LINE
  5
92
100
AcDbEntity
  8
0
  6
ByLayer
 62
  256
370
   -1
100
AcDbLine
 10
0.577026734163
 20
0.30881825621
 11
0.566565892163
 21
0.30620091821
  0
LINE
  5
93
100
AcDbEntity
  8
0
  6
ByLayer
 62
  256
370
   -1
100
AcDbLine
 10
0.580949550163
 20
0.31667026921
 11
0.577026734163
 21
0.30881825621
  0
LINE
  5
94
100
AcDbEntity
  8
0
  6
ByLayer
 62
  256
370
   -1
100
AcDbLine
 10
0.574939849163
 20
0.32629361221
 11
0.580949550163
 21
0.31667026921
  0
LINE
  5
95
100
AcDbEntity
  8
0
  6
ByLayer
 62
  256
370
   -1
100
AcDbLine
 10
0.450189024163
 20
0.36770835521
 11
0.446266209163
 21
0.37425169921
  0
LINE
  5
96
100
AcDbEntity
  8
0
  6
ByLayer
 62
  256
370
   -1
100
AcDbLine
 10
0.448881419163
 20
0.35593033521
 11
0.450189024163
 21
0.36770835521
  0
LINE
  5
97
100
AcDbEntity
  8
0
  6
ByLayer
 62
  256
370
   -1
100
AcDbLine
 10
0.446266209163
 20
0.34153497821
 11
0.448881419163
 21
0.35593033521
  0
LINE
  5
98
100
AcDbEntity
  8
0
  6
ByLayer
 62
  256
370
   -1
100
AcDbLine
 10
0.448881419163
 20
0.32975695821
 11
0.446266209163
 21
0.34153497821
  0
LINE
  5
99
100
AcDbEntity
  8
0
  6
ByLayer
 62
  256
370
   -1
100
AcDbLine
 10
0.458034656163
 20
0.31928760721
 11
0.448881419163
 21
0.32975695821
  0
LINE
  5
9A
100
AcDbEntity
  8
0
  6
ByLayer
 62
  256
370
   -1
100
AcDbLine
 10
0.471110708163
 20
0.31928760721
 11
0.458034656163
 21
0.31928760721
  0
LINE
  5
9B
100
AcDbEntity
  8
0
  6
ByLayer
 62
  256
370
   -1
100
AcDbLine
 10
0.492032393163
 20
0.32583095121
 11
0.471110708163
 21
0.31928760721
  0
LINE
  5
9C
100
AcDbEntity
  8
0
  6
ByLayer
 62
  256
370
   -1
100
AcDbLine
 10
0.503800840163
 20
0.33760897121
 11
0.492032393163
 21
0.32583095121
  0
LINE
  5
9D
100
AcDbEntity
  8
0
  6
ByLayer
 62
  256
370
   -1
100
AcDbLine
 10
0.515569287163
 20
0.35331299721
 11
0.503800840163
 21
0.33760897121
  0
LINE
  5
9E
100
AcDbEntity
  8
0
  6
ByLayer
 62
  256
370
   -1
100
AcDbLine
 10
0.520799708163
 20
0.38341238121
 11
0.515569287163
 21
0.35331299721
  0
LINE
  5
9F
100
AcDbEntity
  8
0
  6
ByLayer
 62
  256
370
   -1
100
AcDbLine
 10
0.536490971163
 20
0.40827708921
 11
0.536490971163
 21
0.42528978521
  0
LINE
  5
A0
100
AcDbEntity
  8
0
  6
ByLayer
 62
  256
370
   -1
100
AcDbLine
 10
0.536490971163
 20
0.38733838821
 11
0.536490971163
 21
0.40827708921
  0
LINE
  5
A1
100
AcDbEntity
  8
0
  6
ByLayer
 62
  256
370
   -1
100
AcDbLine
 10
0.537798576163
 20
0.36509101721
 11
0.536490971163
 21
0.38733838821
  0
LINE
  5
A2
100
AcDbEntity
  8
0
  6
ByLayer
 62
  256
370
   -1
100
AcDbLine
 10
0.540413787163
 20
0.34938699121
 11
0.537798576163
 21
0.36509101721
  0
LINE
  5
A3
100
AcDbEntity
  8
0
  6
ByLayer
 62
  256
370
   -1
100
AcDbLine
 10
0.544336603163
 20
0.34022630921
 11
0.540413787163
 21
0.34938699121
  0
LINE
  5
A4
100
AcDbEntity
  8
0
  6
ByLayer
 62
  256
370
   -1
100
AcDbLine
 10
0.556105050163
 20
0.32975695821
 11
0.544336603163
 21
0.34022630921
  0
LINE
  5
A5
100
AcDbEntity
  8
0
  6
ByLayer
 62
  256
370
   -1
100
AcDbLine
 10
0.574411524163
 20
0.32583095121
 11
0.556105050163
 21
0.32975695821
  0
LINE
  5
A6
100
AcDbEntity
  8
0
  6
ByLayer
 62
  256
370
   -1
100
AcDbLine
 10
0.584872366163
 20
0.33499163321
 11
0.574411524163
 21
0.32583095121
  0
LINE
  5
A7
100
AcDbEntity
  8
0
  6
ByLayer
 62
  256
370
   -1
100
AcDbLine
 10
0.584876889163
 20
0.36308737521
 11
0.584872366163
 21
0.33499163321
  0
LINE
  5
A8
100
AcDbEntity
  8
0
  6
ByLayer
 62
  256
370
   -1
100
AcDbLine
 10
1.46379284116
 20
0.17550096021
 11
1.48982111316
 21
0.10169171521
  0
LINE
  5
A9
100
AcDbEntity
  8
0
  6
ByLayer
 62
  256
370
   -1
100
AcDbLine
 10
1.46589569016
 20
0.22447492221
 11
1.46379284116
 21
0.17550096021
  0
LINE
  5
AA
100
AcDbEntity
  8
0
  6
ByLayer
 62
  256
370
   -1
100
AcDbLine
 10
1.50804090316
 20
0.33267123421
 11
1.47333654116
 21
0.28317562321
  0
LINE
  5
AB
100
AcDbEntity
  8
0
  6
ByLayer
 62
  256
370
   -1
100
AcDbLine
 10
1.59219898116
 20
0.27015046221
 11
1.59829597116
 21
0.13677477721
  0
LINE
  5
AC
100
AcDbEntity
  8
0
  6
ByLayer
 62
  256
370
   -1
100
AcDbLine
 10
1.59566941716
 20
0.33267123421
 11
1.59219898116
 21
0.27015046221
  0
LINE
  5
AD
100
AcDbEntity
  8
0
  6
ByLayer
 62
  256
370
   -1
100
AcDbLine
 10
1.47750857216
 20
0.28758208121
 11
1.46589569016
 21
0.22447492221
  0
LINE
  5
AE
100
AcDbEntity
  8
0
  6
ByLayer
 62
  256
370
   -1
100
AcDbLine
 10
1.48222125816
 20
0.0613427712098
 11
1.46589569016
 21
0.0633855972098
  0
LINE
  5
AF
100
AcDbEntity
  8
0
  6
ByLayer
 62
  256
370
   -1
100
AcDbLine
 10
1.41114925016
 20
0.0733498852098
 11
1.41280823316
 21
0.10656417921
  0
LINE
  5
B0
100
AcDbEntity
  8
0
  6
ByLayer
 62
  256
370
   -1
100
AcDbLine
 10
1.46539427416
 20
0.0606795012098
 11
1.41114925016
 21
0.0733498852098
  0
LINE
  5
B1
100
AcDbEntity
  8
0
  6
ByLayer
 62
  256
370
   -1
100
AcDbLine
 10
1.50902925016
 20
0.06504631220980001
 11
1.48082653816
 21
0.10988560821
  0
LINE
  5
B2
100
AcDbEntity
  8
0
  6
ByLayer
 62
  256
370
   -1
100
AcDbLine
 10
1.48248552116
 20
0.0600641682098
 11
1.50902925016
 21
0.06504631220980001
  0
LINE
  5
B3
100
AcDbEntity
  8
0
  6
ByLayer
 62
  256
370
   -1
100
AcDbLine
 10
1.47293712116
 20
0.10626294121
 11
1.48248552116
 21
0.0600641682098
  0
LINE
  5
B4
100
AcDbEntity
  8
0
  6
ByLayer
 62
  256
370
   -1
100
AcDbLine
 10
1.43437501216
 20
0.10324275021
 11
1.41280823316
 21
0.10656417921
  0
LINE
  5
B5
100
AcDbEntity
  8
0
  6
ByLayer
 62
  256
370
   -1
100
AcDbLine
 10
1.47361929816
 20
0.11038552221
 11
1.43437501216
 21
0.10324275021
  0
LINE
  5
B6
100
AcDbEntity
  8
0
  6
ByLayer
 62
  256
370
   -1
100
AcDbLine
 10
1.65501975816
 20
0.0733498852098
 11
1.64219454616
 21
0.06764384120980001
  0
LINE
  5
B7
100
AcDbEntity
  8
0
  6
ByLayer
 62
  256
370
   -1
100
AcDbLine
 10
1.58023927316
 20
0.0531491562098
 11
1.52230111416
 21
0.06504631220980001
  0
LINE
  5
B8
100
AcDbEntity
  8
0
  6
ByLayer
 62
  256
370
   -1
100
AcDbLine
 10
1.63842992816
 20
0.06504631220980001
 11
1.66790374816
 21
0.0273460092098
  0
LINE
  5
B9
100
AcDbEntity
  8
0
  6
ByLayer
 62
  256
370
   -1
100
AcDbLine
 10
1.68193497416
 20
0.0343996942098
 11
1.63842992816
 21
0.06504631220980001
  0
LINE
  5
BA
100
AcDbEntity
  8
0
  6
ByLayer
 62
  256
370
   -1
100
AcDbLine
 10
0.0276172731634
 20
0.48312208421
 11
0.0356606521634
 21
0.36691763821
  0
LINE
  5
BB
100
AcDbEntity
  8
0
  6
ByLayer
 62
  256
370
   -1
100
AcDbLine
 10
0.0237326381634
 20
0.5578679252099999
 11
0.0276172731634
 21
0.48312208421
  0
LINE
  5
BC
100
AcDbEntity
  8
0
  6
ByLayer
 62
  256
370
   -1
100
AcDbLine
 10
0.0327299571634
 20
0.62056501021
 11
0.0237326381634
 21
0.5578679252099999
  0
LINE
  5
BD
100
AcDbEntity
  8
0
  6
ByLayer
 62
  256
370
   -1
100
AcDbLine
 10
0.0362796961634
 20
0.6803068612099999
 11
0.0327299571634
 21
0.62056501021
  0
LINE
  5
BE
100
AcDbEntity
  8
0
  6
ByLayer
 62
  256
370
   -1
100
AcDbLine
 10
0.0416310741634
 20
0.72762964621
 11
0.0362796961634
 21
0.6803068612099999
  0
LINE
  5
BF
100
AcDbEntity
  8
0
  6
ByLayer
 62
  256
370
   -1
100
AcDbLine
 10
0.0393166341634
 20
0.79688161821
 11
0.0416310741634
 21
0.72762964621
  0
LINE
  5
C0
100
AcDbEntity
  8
0
  6
ByLayer
 62
  256
370
   -1
100
AcDbLine
 10
0.0381557891634
 20
0.87310507621
 11
0.0393166341634
 21
0.79688161821
  0
LINE
  5
C1
100
AcDbEntity
  8
0
  6
ByLayer
 62
  256
370
   -1
100
AcDbLine
 10
0.0568483841634
 20
0.93612618221
 11
0.0381557891634
 21
0.87310507621
  0
LINE
  5
C2
100
AcDbEntity
  8
0
  6
ByLayer
 62
  256
370
   -1
100
AcDbLine
 10
0.0543487881634
 20
1.01091831221
 11
0.0568483841634
 21
0.93612618221
  0
LINE
  5
C3
100
AcDbEntity
  8
0
  6
ByLayer
 62
  256
370
   -1
100
AcDbLine
 10
0.0631146631634
 20
1.08054059421
 11
0.0543487881634
 21
1.01091831221
  0
LINE
  5
C4
100
AcDbEntity
  8
0
  6
ByLayer
 62
  256
370
   -1
100
AcDbLine
 10
0.08471620416340001
 20
1.13949916021
 11
0.0631146631634
 21
1.08054059421
  0
LINE
  5
C5
100
AcDbEntity
  8
0
  6
ByLayer
 62
  256
370
   -1
100
AcDbLine
 10
0.106410322163
 20
1.19568764721
 11
0.08471620416340001
 21
1.13949916021
  0
LINE
  5
C6
100
AcDbEntity
  8
0
  6
ByLayer
 62
  256
370
   -1
100
AcDbLine
 10
0.136599832163
 20
1.24661371021
 11
0.106410322163
 21
1.19568764721
  0
LINE
  5
C7
100
AcDbEntity
  8
0
  6
ByLayer
 62
  256
370
   -1
100
AcDbLine
 10
0.200956064163
 20
1.27094991521
 11
0.136599832163
 21
1.24661371021
  0
LINE
  5
C8
100
AcDbEntity
  8
0
  6
ByLayer
 62
  256
370
   -1
100
AcDbLine
 10
0.270667299163
 20
1.30101143221
 11
0.200956064163
 21
1.27094991521
  0
LINE
  5
C9
100
AcDbEntity
  8
0
  6
ByLayer
 62
  256
370
   -1
100
AcDbLine
 10
0.324359816163
 20
1.31251197221
 11
0.270667299163
 21
1.30101143221
  0
LINE
  5
CA
100
AcDbEntity
  8
0
  6
ByLayer
 62
  256
370
   -1
100
AcDbLine
 10
0.390749131163
 20
1.31750391421
 11
0.324359816163
 21
1.31251197221
  0
LINE
  5
CB
100
AcDbEntity
  8
0
  6
ByLayer
 62
  256
370
   -1
100
AcDbLine
 10
0.497582323163
 20
1.31552799421
 11
0.390749131163
 21
1.31750391421
  0
LINE
  5
CC
100
AcDbEntity
  8
0
  6
ByLayer
 62
  256
370
   -1
100
AcDbLine
 10
0.590379965163
 20
1.31862934421
 11
0.497582323163
 21
1.31552799421
  0
LINE
  5
CD
100
AcDbEntity
  8
0
  6
ByLayer
 62
  256
370
   -1
100
AcDbLine
 10
0.6847940911630001
 20
1.31485178621
 11
0.590379965163
 21
1.31862934421
  0
LINE
  5
CE
100
AcDbEntity
  8
0
  6
ByLayer
 62
  256
370
   -1
100
AcDbLine
 10
0.817943032163
 20
1.31375535421
 11
0.6847940911630001
 21
1.31485178621
  0
LINE
  5
CF
100
AcDbEntity
  8
0
  6
ByLayer
 62
  256
370
   -1
100
AcDbLine
 10
0.910740674163
 20
1.31685670421
 11
0.817943032163
 21
1.31375535421
  0
LINE
  5
D0
100
AcDbEntity
  8
0
  6
ByLayer
 62
  256
370
   -1
100
AcDbLine
 10
1.00076823716
 20
1.31986547721
 11
0.910740674163
 21
1.31685670421
  0
LINE
  5
D1
100
AcDbEntity
  8
0
  6
ByLayer
 62
  256
370
   -1
100
AcDbLine
 10
1.09365845716
 20
1.32019674821
 11
1.00076823716
 21
1.31986547721
  0
LINE
  5
D2
100
AcDbEntity
  8
0
  6
ByLayer
 62
  256
370
   -1
100
AcDbLine
 10
1.19232027916
 20
1.31378797721
 11
1.09365845716
 21
1.32019674821
  0
LINE
  5
D3
100
AcDbEntity
  8
0
  6
ByLayer
 62
  256
370
   -1
100
AcDbLine
 10
1.31272613216
 20
1.32058518221
 11
1.19232027916
 21
1.31378797721
  0
LINE
  5
D4
100
AcDbEntity
  8
0
  6
ByLayer
 62
  256
370
   -1
100
AcDbLine
 10
1.42874542316
 20
1.33416871821
 11
1.31272613216
 21
1.32058518221
  0
LINE
  5
D5
100
AcDbEntity
  8
0
  6
ByLayer
 62
  256
370
   -1
100
AcDbLine
 10
1.52251150516
 20
1.34978171221
 11
1.42874542316
 21
1.33416871821
  0
LINE
  5
D6
100
AcDbEntity
  8
0
  6
ByLayer
 62
  256
370
   -1
100
AcDbLine
 10
1.62828367916
 20
1.33806422821
 11
1.52251150516
 21
1.34978171221
  0
LINE
  5
D7
100
AcDbEntity
  8
0
  6
ByLayer
 62
  256
370
   -1
100
AcDbLine
 10
1.71729651416
 20
1.32994639621
 11
1.62828367916
 21
1.33806422821
  0
LINE
  5
D8
100
AcDbEntity
  8
0
  6
ByLayer
 62
  256
370
   -1
100
AcDbLine
 10
1.78659477416
 20
1.33087579721
 11
1.71729651416
 21
1.32994639621
  0
LINE
  5
D9
100
AcDbEntity
  8
0
  6
ByLayer
 62
  256
370
   -1
100
AcDbLine
 10
0.325874515163
 20
0.35443136821
 11
0.303756548163
 21
0.39390318021
  0
LINE
  5
DA
100
AcDbEntity
  8
0
  6
ByLayer
 62
  256
370
   -1
100
AcDbLine
 10
0.350303297163
 20
0.28730505721
 11
0.325874515163
 21
0.35443136821
  0
LINE
  5
DB
100
AcDbEntity
  8
0
  6
ByLayer
 62
  256
370
   -1
100
AcDbLine
 10
0.391861730163
 20
0.20549877721
 11
0.350303297163
 21
0.28730505721
  0
LINE
  5
DC
100
AcDbEntity
  8
0
  6
ByLayer
 62
  256
370
   -1
100
AcDbLine
 10
0.469694422163
 20
0.28297565721
 11
0.485118635163
 21
0.23634720521
  0
LINE
  5
DD
100
AcDbEntity
  8
0
  6
ByLayer
 62
  256
370
   -1
100
AcDbLine
 10
0.459079133163
 20
0.31928760721
 11
0.469694422163
 21
0.28297565721
  0
LINE
  5
DE
100
AcDbEntity
  8
0
  6
ByLayer
 62
  256
370
   -1
100
AcDbLine
 10
0.111777033163
 20
0.5372384502100001
 11
0.107027409163
 21
0.47191015221
  0
LINE
  5
DF
100
AcDbEntity
  8
0
  6
ByLayer
 62
  256
370
   -1
100
AcDbLine
 10
0.126912639163
 20
0.62371264921
 11
0.111777033163
 21
0.5372384502100001
  0
LINE
  5
E0
100
AcDbEntity
  8
0
  6
ByLayer
 62
  256
370
   -1
100
AcDbLine
 10
0.116106432163
 20
0.65662957421
 11
0.126912639163
 21
0.62371264921
  0
LINE
  5
E1
100
AcDbEntity
  8
0
  6
ByLayer
 62
  256
370
   -1
100
AcDbLine
 10
0.109429557163
 20
0.69577600321
 11
0.116106432163
 21
0.65662957421
  0
LINE
  5
E2
100
AcDbEntity
  8
0
  6
ByLayer
 62
  256
370
   -1
100
AcDbLine
 10
0.130839104163
 20
1.12856133621
 11
0.196024911163
 21
1.16956430321
  0
LINE
  5
E3
100
AcDbEntity
  8
0
  6
ByLayer
 62
  256
370
   -1
100
AcDbLine
 10
0.101069819163
 20
1.02357244721
 11
0.130839104163
 21
1.12856133621
  0
LINE
  5
E4
100
AcDbEntity
  8
0
  6
ByLayer
 62
  256
370
   -1
100
AcDbLine
 10
0.0907337491634
 20
0.95944403321
 11
0.101069819163
 21
1.02357244721
  0
LINE
  5
E5
100
AcDbEntity
  8
0
  6
ByLayer
 62
  256
370
   -1
100
AcDbLine
 10
0.08986151116340001
 20
0.90256483921
 11
0.0907337491634
 21
0.95944403321
  0
LINE
  5
E6
100
AcDbEntity
  8
0
  6
ByLayer
 62
  256
370
   -1
100
AcDbLine
 10
0.109074158163
 20
0.82555809621
 11
0.08986151116340001
 21
0.90256483921
  0
LINE
  5
E7
100
AcDbEntity
  8
0
  6
ByLayer
 62
  256
370
   -1
100
AcDbLine
 10
0.118267506163
 20
0.75792260821
 11
0.109074158163
 21
0.82555809621
  0
LINE
  5
E8
100
AcDbEntity
  8
0
  6
ByLayer
 62
  256
370
   -1
100
AcDbLine
 10
0.109429557163
 20
0.69577600321
 11
0.118267506163
 21
0.75792260821
  0
LINE
  5
E9
100
AcDbEntity
  8
0
  6
ByLayer
 62
  256
370
   -1
100
AcDbLine
 10
0.104253706163
 20
0.51341504621
 11
0.09990980716340001
 21
0.5604138092099999
  0
LINE
  5
EA
100
AcDbEntity
  8
0
  6
ByLayer
 62
  256
370
   -1
100
AcDbLine
 10
0.112521278163
 20
0.47348034721
 11
0.104253706163
 21
0.51341504621
  0
LINE
  5
EB
100
AcDbEntity
  8
0
  6
ByLayer
 62
  256
370
   -1
100
AcDbLine
 10
0.116680021163
 20
0.43202174121
 11
0.112521278163
 21
0.47348034721
  0
LINE
  5
EC
100
AcDbEntity
  8
0
  6
ByLayer
 62
  256
370
   -1
100
AcDbLine
 10
0.0957228991634
 20
0.39527009521
 11
0.116680021163
 21
0.43202174121
  0
LINE
  5
ED
100
AcDbEntity
  8
0
  6
ByLayer
 62
  256
370
   -1
100
AcDbLine
 10
0.0793374951634
 20
0.34619196021
 11
0.0957228991634
 21
0.39527009521
  0
LINE
  5
EE
100
AcDbEntity
  8
0
  6
ByLayer
 62
  256
370
   -1
100
AcDbLine
 10
0.09577643816339999
 20
0.31069011221
 11
0.0793374951634
 21
0.34619196021
  0
LINE
  5
EF
100
AcDbEntity
  8
0
  6
ByLayer
 62
  256
370
   -1
100
AcDbLine
 10
0.258100160163
 20
0.34939313821
 11
0.226525611163
 21
0.29842078621
  0
LINE
  5
F0
100
AcDbEntity
  8
0
  6
ByLayer
 62
  256
370
   -1
100
AcDbLine
 10
0.302510375163
 20
0.38970177221
 11
0.258100160163
 21
0.34939313821
  0
LINE
  5
F1
100
AcDbEntity
  8
0
  6
ByLayer
 62
  256
370
   -1
100
AcDbLine
 10
0.314092617163
 20
0.45803159321
 11
0.302510375163
 21
0.38970177221
  0
LINE
  5
F2
100
AcDbEntity
  8
0
  6
ByLayer
 62
  256
370
   -1
100
AcDbLine
 10
0.351253613163
 20
0.50780406021
 11
0.314092617163
 21
0.45803159321
  0
LINE
  5
F3
100
AcDbEntity
  8
0
  6
ByLayer
 62
  256
370
   -1
100
AcDbLine
 10
0.388460898163
 20
0.55619148721
 11
0.351253613163
 21
0.50780406021
  0
LINE
  5
F4
100
AcDbEntity
  8
0
  6
ByLayer
 62
  256
370
   -1
100
AcDbLine
 10
0.476316512163
 20
0.58269964121
 11
0.388460898163
 21
0.55619148721
  0
LINE
  5
F5
100
AcDbEntity
  8
0
  6
ByLayer
 62
  256
370
   -1
100
AcDbLine
 10
0.544368600163
 20
0.57942763521
 11
0.476316512163
 21
0.58269964121
  0
LINE
  5
F6
100
AcDbEntity
  8
0
  6
ByLayer
 62
  256
370
   -1
100
AcDbLine
 10
0.631166821163
 20
0.55459675321
 11
0.544368600163
 21
0.57942763521
  0
LINE
  5
F7
100
AcDbEntity
  8
0
  6
ByLayer
 62
  256
370
   -1
100
AcDbLine
 10
0.669210929163
 20
0.53645599821
 11
0.631166821163
 21
0.55459675321
  0
LINE
  5
F8
100
AcDbEntity
  8
0
  6
ByLayer
 62
  256
370
   -1
100
AcDbLine
 10
0.375821262163
 20
0.43652263021
 11
0.358780565163
 21
0.49002999121
  0
LINE
  5
F9
100
AcDbEntity
  8
0
  6
ByLayer
 62
  256
370
   -1
100
AcDbLine
 10
0.422638495163
 20
0.40480921421
 11
0.375821262163
 21
0.43652263021
  0
LINE
  5
FA
100
AcDbEntity
  8
0
  6
ByLayer
 62
  256
370
   -1
100
AcDbLine
 10
0.447202519163
 20
0.37512525621
 11
0.422638495163
 21
0.40480921421
  0
LINE
  5
FB
100
AcDbEntity
  8
0
  6
ByLayer
 62
  256
370
   -1
100
AcDbLine
 10
0.532839895163
 20
0.42651783221
 11
0.520799708163
 21
0.38341238121
  0
LINE
  5
FC
100
AcDbEntity
  8
0
  6
ByLayer
 62
  256
370
   -1
100
AcDbLine
 10
0.578453619163
 20
0.43081544121
 11
0.584876889163
 21
0.36308737521
  0
LINE
  5
FD
100
AcDbEntity
  8
0
  6
ByLayer
 62
  256
370
   -1
100
AcDbLine
 10
0.598303435163
 20
0.45921056221
 11
0.578453619163
 21
0.43081544121
  0
LINE
  5
FE
100
AcDbEntity
  8
0
  6
ByLayer
 62
  256
370
   -1
100
AcDbLine
 10
0.668847868163
 20
0.46434137021
 11
0.598303435163
 21
0.45921056221
  0
LINE
  5
FF
100
AcDbEntity
  8
0
  6
ByLayer
 62
  256
370
   -1
100
AcDbLine
 10
0.748489448163
 20
0.44620424121
 11
0.668847868163
 21
0.46434137021
  0
LINE
  5
100
100
AcDbEntity
  8
0
  6
ByLayer
 62
  256
370
   -1
100
AcDbLine
 10
0.830623374163
 20
0.43646992521
 11
0.748489448163
 21
0.44620424121
  0
LINE
  5
101
100
AcDbEntity
  8
0
  6
ByLayer
 62
  256
370
   -1
100
AcDbLine
 10
0.898999483163
 20
0.42350264321
 11
0.830623374163
 21
0.43646992521
  0
LINE
  5
102
100
AcDbEntity
  8
0
  6
ByLayer
 62
  256
370
   -1
100
AcDbLine
 10
0.990273220163
 20
0.43071282321
 11
0.898999483163
 21
0.42350264321
  0
LINE
  5
103
100
AcDbEntity
  8
0
  6
ByLayer
 62
  256
370
   -1
100
AcDbLine
 10
1.05301296916
 20
0.46192793621
 11
0.990273220163
 21
0.43071282321
  0
LINE
  5
104
100
AcDbEntity
  8
0
  6
ByLayer
 62
  256
370
   -1
100
AcDbLine
 10
1.13052526416
 20
0.50750262121
 11
1.05301296916
 21
0.46192793621
  0
LINE
  5
105
100
AcDbEntity
  8
0
  6
ByLayer
 62
  256
370
   -1
100
AcDbLine
 10
1.21731986016
 20
0.5242692102099999
 11
1.13052526416
 21
0.50750262121
  0
LINE
  5
106
100
AcDbEntity
  8
0
  6
ByLayer
 62
  256
370
   -1
100
AcDbLine
 10
1.32465860416
 20
0.54865532921
 11
1.21731986016
 21
0.5242692102099999
  0
LINE
  5
107
100
AcDbEntity
  8
0
  6
ByLayer
 62
  256
370
   -1
100
AcDbLine
 10
1.41311597316
 20
0.55715797021
 11
1.32465860416
 21
0.54865532921
  0
LINE
  5
108
100
AcDbEntity
  8
0
  6
ByLayer
 62
  256
370
   -1
100
AcDbLine
 10
1.48176981516
 20
0.5358804512100001
 11
1.41311597316
 21
0.55715797021
  0
LINE
  5
109
100
AcDbEntity
  8
0
  6
ByLayer
 62
  256
370
   -1
100
AcDbLine
 10
1.41197325216
 20
0.42539406821
 11
1.40563893516
 21
0.53194952721
  0
LINE
  5
10A
100
AcDbEntity
  8
0
  6
ByLayer
 62
  256
370
   -1
100
AcDbLine
 10
1.41456542516
 20
0.34783186021
 11
1.41197325216
 21
0.42539406821
  0
LINE
  5
10B
100
AcDbEntity
  8
0
  6
ByLayer
 62
  256
370
   -1
100
AcDbLine
 10
1.40515150716
 20
0.29760013021
 11
1.41456542516
 21
0.34783186021
  0
LINE
  5
10C
100
AcDbEntity
  8
0
  6
ByLayer
 62
  256
370
   -1
100
AcDbLine
 10
1.39693747216
 20
0.25295484621
 11
1.40515150716
 21
0.29760013021
  0
LINE
  5
10D
100
AcDbEntity
  8
0
  6
ByLayer
 62
  256
370
   -1
100
AcDbLine
 10
1.39338773316
 20
0.19321299521
 11
1.39693747216
 21
0.25295484621
  0
LINE
  5
10E
100
AcDbEntity
  8
0
  6
ByLayer
 62
  256
370
   -1
100
AcDbLine
 10
1.40715280016
 20
0.11325101821
 11
1.39338773316
 21
0.19321299521
  0
LINE
  5
10F
100
AcDbEntity
  8
0
  6
ByLayer
 62
  256
370
   -1
100
AcDbLine
 10
1.41239342916
 20
0.0982594382098
 11
1.40715280016
 21
0.11325101821
  0
LINE
  5
110
100
AcDbEntity
  8
0
  6
ByLayer
 62
  256
370
   -1
100
AcDbLine
 10
1.47361929816
 20
0.11038552221
 11
1.46539427416
 21
0.0606795012098
  0
LINE
  5
111
100
AcDbEntity
  8
0
  6
ByLayer
 62
  256
370
   -1
100
AcDbLine
 10
1.75562643816
 20
0.68091836621
 11
1.73120490516
 21
0.66484973421
  0
LINE
  5
112
100
AcDbEntity
  8
0
  6
ByLayer
 62
  256
370
   -1
100
AcDbLine
 10
1.79879048016
 20
0.71702559421
 11
1.75562643816
 21
0.68091836621
  0
LINE
  5
113
100
AcDbEntity
  8
0
  6
ByLayer
 62
  256
370
   -1
100
AcDbLine
 10
1.61417534416
 20
0.0591600272098
 11
1.58023927316
 21
0.0531491562098
  0
LINE
  5
114
100
AcDbEntity
  8
0
  6
ByLayer
 62
  256
370
   -1
100
AcDbLine
 10
1.64219454616
 20
0.06764384120980001
 11
1.61417534416
 21
0.0591600272098
  0
LINE
  5
115
100
AcDbEntity
  8
0
  6
ByLayer
 62
  256
370
   -1
100
AcDbLine
 10
1.47811299916
 20
0.64529856721
 11
1.45021980516
 21
0.7331078922099999
  0
LINE
  5
116
100
AcDbEntity
  8
0
  6
ByLayer
 62
  256
370
   -1
100
AcDbLine
 10
1.49511103216
 20
0.55157877321
 11
1.47811299916
 21
0.64529856721
  0
LINE
  5
117
100
AcDbEntity
  8
0
  6
ByLayer
 62
  256
370
   -1
100
AcDbLine
 10
1.49202418116
 20
0.47798652821
 11
1.49511103216
 21
0.55157877321
  0
LINE
  5
118
100
AcDbEntity
  8
0
  6
ByLayer
 62
  256
370
   -1
100
AcDbLine
 10
1.49780303316
 20
0.38805154221
 11
1.49202418116
 21
0.47798652821
  0
LINE
  5
119
100
AcDbEntity
  8
0
  6
ByLayer
 62
  256
370
   -1
100
AcDbLine
 10
1.51392157916
 20
0.32064749821
 11
1.49780303316
 21
0.38805154221
  0
LINE
  5
11A
100
AcDbEntity
  8
0
  6
ByLayer
 62
  256
370
   -1
100
AcDbLine
 10
1.52403707916
 20
0.26690869321
 11
1.51392157916
 21
0.32064749821
  0
LINE
  5
11B
100
AcDbEntity
  8
0
  6
ByLayer
 62
  256
370
   -1
100
AcDbLine
 10
1.52316484116
 20
0.21002949821
 11
1.52403707916
 21
0.26690869321
  0
LINE
  5
11C
100
AcDbEntity
  8
0
  6
ByLayer
 62
  256
370
   -1
100
AcDbLine
 10
1.50683297516
 20
0.0763713802098
 11
1.52316484116
 21
0.21002949821
  0
LINE
  5
11D
100
AcDbEntity
  8
0
  6
ByLayer
 62
  256
370
   -1
100
AcDbLine
 10
1.51842246716
 20
0.0615062572098
 11
1.50683297516
 21
0.0763713802098
  0
LINE
  5
11E
100
AcDbEntity
  8
0
  6
ByLayer
 62
  256
370
   -1
100
AcDbLine
 10
1.53564469516
 20
0.0440562102098
 11
1.51842246716
 21
0.0615062572098
  0
LINE
  5
11F
100
AcDbEntity
  8
0
  6
ByLayer
 62
  256
370
   -1
100
AcDbLine
 10
1.55429825116
 20
0.0252674122098
 11
1.53564469516
 21
0.0440562102098
  0
LINE
  5
120
100
AcDbEntity
  8
0
  6
ByLayer
 62
  256
370
   -1
100
AcDbLine
 10
1.58550974016
 20
0.00412513520982
 11
1.55429825116
 21
0.0252674122098
  0
LINE
  5
121
100
AcDbEntity
  8
0
  6
ByLayer
 62
  256
370
   -1
100
AcDbLine
 10
1.62429084416
 20
0.0054212222098
 11
1.58550974016
 21
0.00412513520982
  0
LINE
  5
122
100
AcDbEntity
  8
0
  6
ByLayer
 62
  256
370
   -1
100
AcDbLine
 10
1.69520196316
 20
0.0410691862098
 11
1.62429084416
 21
0.0054212222098
  0
LINE
  5
123
100
AcDbEntity
  8
0
  6
ByLayer
 62
  256
370
   -1
100
AcDbLine
 10
1.65951133516
 20
0.07176787320980001
 11
1.69520196316
 21
0.0410691862098
  0
LINE
  5
124
100
AcDbEntity
  8
0
  6
ByLayer
 62
  256
370
   -1
100
AcDbLine
 10
1.61952672116
 20
0.10648281221
 11
1.65951133516
 21
0.07176787320980001
  0
LINE
  5
125
100
AcDbEntity
  8
0
  6
ByLayer
 62
  256
370
   -1
100
AcDbLine
 10
1.59829597116
 20
0.13677477721
 11
1.61952672116
 21
0.10648281221
  0
LINE
  5
126
100
AcDbEntity
  8
0
  6
ByLayer
 62
  256
370
   -1
100
AcDbLine
 10
1.61594798416
 20
0.37952073621
 11
1.58751382416
 21
0.31756064721
  0
LINE
  5
127
100
AcDbEntity
  8
0
  6
ByLayer
 62
  256
370
   -1
100
AcDbLine
 10
1.63847167616
 20
0.45237598521
 11
1.61594798416
 21
0.37952073621
  0
LINE
  5
128
100
AcDbEntity
  8
0
  6
ByLayer
 62
  256
370
   -1
100
AcDbLine
 10
1.65171669116
 20
0.51244185821
 11
1.63847167616
 21
0.45237598521
  0
LINE
  5
129
100
AcDbEntity
  8
0
  6
ByLayer
 62
  256
370
   -1
100
AcDbLine
 10
1.66080658816
 20
0.57236886421
 11
1.65171669116
 21
0.51244185821
  0
LINE
  5
12A
100
AcDbEntity
  8
0
  6
ByLayer
 62
  256
370
   -1
100
AcDbLine
 10
1.67945289416
 20
0.63677501021
 11
1.66080658816
 21
0.57236886421
  0
LINE
  5
12B
100
AcDbEntity
  8
0
  6
ByLayer
 62
  256
370
   -1
100
AcDbLine
 10
1.70502439716
 20
0.70141260021
 11
1.67945289416
 21
0.63677501021
  0
LINE
  5
12C
100
AcDbEntity
  8
0
  6
ByLayer
 62
  256
370
   -1
100
AcDbLine
 10
1.70321913416
 20
0.75542913821
 11
1.70502439716
 21
0.70141260021
  0
LINE
  5
12D
100
AcDbEntity
  8
0
  6
ByLayer
 62
  256
370
   -1
100
AcDbLine
 10
1.70767373416
 20
0.49767293721
 11
1.66118414816
 21
0.47809360521
  0
LINE
  5
12E
100
AcDbEntity
  8
0
  6
ByLayer
 62
  256
370
   -1
100
AcDbLine
 10
1.80628564216
 20
0.53424667721
 11
1.70767373416
 21
0.49767293721
  0
LINE
  5
12F
100
AcDbEntity
  8
0
  6
ByLayer
 62
  256
370
   -1
100
AcDbLine
 10
2.13330066416
 20
0.90727263321
 11
2.08985519916
 21
0.89556523721
  0
LINE
  5
130
100
AcDbEntity
  8
0
  6
ByLayer
 62
  256
370
   -1
100
AcDbLine
 10
2.18343004716
 20
0.9256699712100001
 11
2.13330066416
 21
0.90727263321
  0
LINE
  5
131
100
AcDbEntity
  8
0
  6
ByLayer
 62
  256
370
   -1
100
AcDbLine
 10
2.23523040916
 20
0.94741227921
 11
2.18343004716
 21
0.9256699712100001
  0
LINE
  5
132
100
AcDbEntity
  8
0
  6
ByLayer
 62
  256
370
   -1
100
AcDbLine
 10
2.28870175116
 20
0.95075724921
 11
2.23523040916
 21
0.94741227921
  0
LINE
  5
133
100
AcDbEntity
  8
0
  6
ByLayer
 62
  256
370
   -1
100
AcDbLine
 10
2.32546329916
 20
0.9624646462100001
 11
2.28870175116
 21
0.95075724921
  0
LINE
  5
134
100
AcDbEntity
  8
0
  6
ByLayer
 62
  256
370
   -1
100
AcDbLine
 10
2.30374056616
 20
0.98587943921
 11
2.26697901916
 21
1.01263920221
  0
LINE
  5
135
100
AcDbEntity
  8
0
  6
ByLayer
 62
  256
370
   -1
100
AcDbLine
 10
2.34384407216
 20
0.9624646462100001
 11
2.30374056616
 21
0.98587943921
  0
LINE
  5
136
100
AcDbEntity
  8
0
  6
ByLayer
 62
  256
370
   -1
100
AcDbLine
 10
2.38728953816
 20
0.94573979321
 11
2.34384407216
 21
0.9624646462100001
  0
LINE
  5
137
100
AcDbEntity
  8
0
  6
ByLayer
 62
  256
370
   -1
100
AcDbLine
 10
2.44577381816
 20
0.94239482321
 11
2.38728953816
 21
0.94573979321
  0
LINE
  5
138
100
AcDbEntity
  8
0
  6
ByLayer
 62
  256
370
   -1
100
AcDbLine
 10
2.46187566716
 20
0.98086519321
 11
2.46117329816
 21
0.98555200421
  0
LINE
  5
139
100
AcDbEntity
  8
0
  6
ByLayer
 62
  256
370
   -1
100
AcDbLine
 10
2.46796286116
 20
0.97383497721
 11
2.46187566716
 21
0.98086519321
  0
LINE
  5
13A
100
AcDbEntity
  8
0
  6
ByLayer
 62
  256
370
   -1
100
AcDbLine
 10
2.47779602216
 20
0.97172591221
 11
2.46796286116
 21
0.97383497721
  0
LINE
  5
13B
100
AcDbEntity
  8
0
  6
ByLayer
 62
  256
370
   -1
100
AcDbLine
 10
2.48435146216
 20
0.97219459321
 11
2.47779602216
 21
0.97172591221
  0
LINE
  5
13C
100
AcDbEntity
  8
0
  6
ByLayer
 62
  256
370
   -1
100
AcDbLine
 10
2.48903392016
 20
0.97500668021
 11
2.48435146216
 21
0.97219459321
  0
LINE
  5
13D
100
AcDbEntity
  8
0
  6
ByLayer
 62
  256
370
   -1
100
AcDbLine
 10
2.49020453416
 20
0.98063085321
 11
2.48903392016
 21
0.97500668021
  0
LINE
  5
13E
100
AcDbEntity
  8
0
  6
ByLayer
 62
  256
370
   -1
100
AcDbLine
 10
2.49043865716
 20
0.9862550262100001
 11
2.49020453416
 21
0.98063085321
  0
LINE
  5
13F
100
AcDbEntity
  8
0
  6
ByLayer
 62
  256
370
   -1
100
AcDbLine
 10
2.48809742816
 20
0.99187919921
 11
2.49043865716
 21
0.9862550262100001
  0
LINE
  5
140
100
AcDbEntity
  8
0
  6
ByLayer
 62
  256
370
   -1
100
AcDbLine
 10
2.48130786516
 20
0.99492562621
 11
2.48809742816
 21
0.99187919921
  0
LINE
  5
141
100
AcDbEntity
  8
0
  6
ByLayer
 62
  256
370
   -1
100
AcDbLine
 10
2.47217707316
 20
0.99586298821
 11
2.48130786516
 21
0.99492562621
  0
LINE
  5
142
100
AcDbEntity
  8
0
  6
ByLayer
 62
  256
370
   -1
100
AcDbLine
 10
2.29105439816
 20
1.22054403121
 11
2.30881508116
 21
1.21775973021
  0
LINE
  5
143
100
AcDbEntity
  8
0
  6
ByLayer
 62
  256
370
   -1
100
AcDbLine
 10
2.23798633416
 20
1.21047771321
 11
2.23349266716
 21
1.20062557321
  0
LINE
  5
144
100
AcDbEntity
  8
0
  6
ByLayer
 62
  256
370
   -1
100
AcDbLine
 10
2.24162406416
 20
1.21304783721
 11
2.24376390516
 21
1.20255316621
  0
LINE
  5
145
100
AcDbEntity
  8
0
  6
ByLayer
 62
  256
370
   -1
100
AcDbLine
 10
2.24847155616
 20
1.21497543021
 11
2.25125335016
 21
1.20597999721
  0
LINE
  5
146
100
AcDbEntity
  8
0
  6
ByLayer
 62
  256
370
   -1
100
AcDbLine
 10
2.25467709616
 20
1.21626049121
 11
2.25810084216
 21
1.20790759021
  0
LINE
  5
147
100
AcDbEntity
  8
0
  6
ByLayer
 62
  256
370
   -1
100
AcDbLine
 10
2.25959873116
 20
1.21754555321
 11
2.26922801716
 21
1.21026353621
  0
LINE
  5
148
100
AcDbEntity
  8
0
  6
ByLayer
 62
  256
370
   -1
100
AcDbLine
 10
2.26708817516
 20
1.21818808421
 11
2.27564754116
 21
1.21369036821
  0
LINE
  5
149
100
AcDbEntity
  8
0
  6
ByLayer
 62
  256
370
   -1
100
AcDbLine
 10
2.27265176316
 20
1.21883061521
 11
2.28228104916
 21
1.21647466821
  0
LINE
  5
14A
100
AcDbEntity
  8
0
  6
ByLayer
 62
  256
370
   -1
100
AcDbLine
 10
2.28121112816
 20
1.21904479221
 11
2.29169635116
 21
1.21754555321
  0
LINE
  5
14B
100
AcDbEntity
  8
0
  6
ByLayer
 62
  256
370
   -1
100
AcDbLine
 10
2.28741666816
 20
1.21990150021
 11
2.29619001716
 21
1.21818808421
  0
LINE
  5
14C
100
AcDbEntity
  8
0
  6
ByLayer
 62
  256
370
   -1
100
AcDbLine
 10
2.26623223916
 20
1.21369036821
 11
2.28270901716
 21
1.21476125321
  0
LINE
  5
14D
100
AcDbEntity
  8
0
  6
ByLayer
 62
  256
370
   -1
100
AcDbLine
 10
2.24847155616
 20
1.21069189021
 11
2.26623223916
 21
1.21369036821
  0
LINE
  5
14E
100
AcDbEntity
  8
0
  6
ByLayer
 62
  256
370
   -1
100
AcDbLine
 10
2.23862828616
 20
1.20662252821
 11
2.24847155616
 21
1.21069189021
  0
LINE
  5
14F
100
AcDbEntity
  8
0
  6
ByLayer
 62
  256
370
   -1
100
AcDbLine
 10
2.23648844516
 20
1.20019721921
 11
2.23862828616
 21
1.20662252821
  0
LINE
  5
150
100
AcDbEntity
  8
0
  6
ByLayer
 62
  256
370
   -1
100
AcDbLine
 10
2.24440585716
 20
1.19355773321
 11
2.23648844516
 21
1.20019721921
  0
LINE
  5
151
100
AcDbEntity
  8
0
  6
ByLayer
 62
  256
370
   -1
100
AcDbLine
 10
2.25788685816
 20
1.19248684921
 11
2.24440585716
 21
1.19355773321
  0
LINE
  5
152
100
AcDbEntity
  8
0
  6
ByLayer
 62
  256
370
   -1
100
AcDbLine
 10
2.27200981016
 20
1.19141596421
 11
2.25788685816
 21
1.19248684921
  0
LINE
  5
153
100
AcDbEntity
  8
0
  6
ByLayer
 62
  256
370
   -1
100
AcDbLine
 10
2.28613276316
 20
1.19355773321
 11
2.27200981016
 21
1.19141596421
  0
LINE
  5
154
100
AcDbEntity
  8
0
  6
ByLayer
 62
  256
370
   -1
100
AcDbLine
 10
2.29704595416
 20
1.19912633421
 11
2.28613276316
 21
1.19355773321
  0
LINE
  5
155
100
AcDbEntity
  8
0
  6
ByLayer
 62
  256
370
   -1
100
AcDbLine
 10
2.30346547816
 20
1.20533746621
 11
2.29704595416
 21
1.19912633421
  0
LINE
  5
156
100
AcDbEntity
  8
0
  6
ByLayer
 62
  256
370
   -1
100
AcDbLine
 10
2.30795914516
 20
1.21261948321
 11
2.30346547816
 21
1.20533746621
  0
LINE
  5
157
100
AcDbEntity
  8
0
  6
ByLayer
 62
  256
370
   -1
100
AcDbLine
 10
2.30282352616
 20
1.21411872221
 11
2.30795914516
 21
1.21261948321
  0
LINE
  5
158
100
AcDbEntity
  8
0
  6
ByLayer
 62
  256
370
   -1
100
AcDbLine
 10
2.29062643016
 20
1.21497543021
 11
2.30282352616
 21
1.21411872221
  0
LINE
  5
159
100
AcDbEntity
  8
0
  6
ByLayer
 62
  256
370
   -1
100
AcDbLine
 10
2.28228104916
 20
1.21454707621
 11
2.29062643016
 21
1.21497543021
  0
LINE
  5
15A
100
AcDbEntity
  8
0
  6
ByLayer
 62
  256
370
   -1
100
AcDbLine
 10
2.27863993716
 20
1.41068476521
 11
2.29200895916
 21
1.39897511121
  0
LINE
  5
15B
100
AcDbEntity
  8
0
  6
ByLayer
 62
  256
370
   -1
100
AcDbLine
 10
2.29200895916
 20
1.41737599621
 11
2.31039136516
 21
1.40399353421
  0
LINE
  5
15C
100
AcDbEntity
  8
0
  6
ByLayer
 62
  256
370
   -1
100
AcDbLine
 10
2.31039136516
 20
1.41904880321
 11
2.32376038716
 21
1.40399353421
  0
LINE
  5
15D
100
AcDbEntity
  8
0
  6
ByLayer
 62
  256
370
   -1
100
AcDbLine
 10
2.32877377016
 20
1.42072161121
 11
2.33545828116
 21
1.41403038021
  0
LINE
  5
15E
100
AcDbEntity
  8
0
  6
ByLayer
 62
  256
370
   -1
100
AcDbLine
 10
2.10651377816
 20
1.23503995521
 11
2.13993633316
 21
1.24173118621
  0
LINE
  5
15F
100
AcDbEntity
  8
0
  6
ByLayer
 62
  256
370
   -1
100
AcDbLine
 10
2.06974896716
 20
1.25176803221
 11
2.10651377816
 21
1.23503995521
  0
LINE
  5
160
100
AcDbEntity
  8
0
  6
ByLayer
 62
  256
370
   -1
100
AcDbLine
 10
2.05637994516
 20
1.28522418721
 11
2.06974896716
 21
1.25176803221
  0
LINE
  5
161
100
AcDbEntity
  8
0
  6
ByLayer
 62
  256
370
   -1
100
AcDbLine
 10
2.07309122316
 20
1.31868034121
 11
2.05637994516
 21
1.28522418721
  0
LINE
  5
162
100
AcDbEntity
  8
0
  6
ByLayer
 62
  256
370
   -1
100
AcDbLine
 10
2.10317152216
 20
1.32537157221
 11
2.07309122316
 21
1.31868034121
  0
LINE
  5
163
100
AcDbEntity
  8
0
  6
ByLayer
 62
  256
370
   -1
100
AcDbLine
 10
2.48251752416
 20
1.28689699421
 11
2.44241045816
 21
1.28689699421
  0
LINE
  5
164
100
AcDbEntity
  8
0
  6
ByLayer
 62
  256
370
   -1
100
AcDbLine
 10
2.50758444016
 20
1.31533472521
 11
2.48251752416
 21
1.28689699421
  0
LINE
  5
165
100
AcDbEntity
  8
0
  6
ByLayer
 62
  256
370
   -1
100
AcDbLine
 10
2.49755767416
 20
1.34544526421
 11
2.50758444016
 21
1.31533472521
  0
LINE
  5
166
100
AcDbEntity
  8
0
  6
ByLayer
 62
  256
370
   -1
100
AcDbLine
 10
2.45930038716
 20
1.26877623021
 11
2.43405481916
 21
1.27351453321
  0
LINE
  5
167
100
AcDbEntity
  8
0
  6
ByLayer
 62
  256
370
   -1
100
AcDbLine
 10
2.19341242116
 20
1.40733915021
 11
2.22850610416
 21
1.42239441921
  0
LINE
  5
168
100
AcDbEntity
  8
0
  6
ByLayer
 62
  256
370
   -1
100
AcDbLine
 10
2.17168776116
 20
1.39395668821
 11
2.19341242116
 21
1.40733915021
  0
LINE
  5
169
100
AcDbEntity
  8
0
  6
ByLayer
 62
  256
370
   -1
100
AcDbLine
 10
2.15330535516
 20
1.37890141821
 11
2.17168776116
 21
1.39395668821
  0
LINE
  5
16A
100
AcDbEntity
  8
0
  6
ByLayer
 62
  256
370
   -1
100
AcDbLine
 10
2.14662084416
 20
1.35882772621
 11
2.15330535516
 21
1.37890141821
  0
LINE
  5
16B
100
AcDbEntity
  8
0
  6
ByLayer
 62
  256
370
   -1
100
AcDbLine
 10
2.15664761116
 20
1.33875403321
 11
2.14662084416
 21
1.35882772621
  0
LINE
  5
16C
100
AcDbEntity
  8
0
  6
ByLayer
 62
  256
370
   -1
100
AcDbLine
 10
2.17503001616
 20
1.32369876421
 11
2.15664761116
 21
1.33875403321
  0
LINE
  5
16D
100
AcDbEntity
  8
0
  6
ByLayer
 62
  256
370
   -1
100
AcDbLine
 10
2.21179482716
 20
1.32537157221
 11
2.17503001616
 21
1.32369876421
  0
LINE
  5
16E
100
AcDbEntity
  8
0
  6
ByLayer
 62
  256
370
   -1
100
AcDbLine
 10
2.24855963816
 20
1.33206280221
 11
2.21179482716
 21
1.32537157221
  0
LINE
  5
16F
100
AcDbEntity
  8
0
  6
ByLayer
 62
  256
370
   -1
100
AcDbLine
 10
2.27362655416
 20
1.34711807221
 11
2.24855963816
 21
1.33206280221
  0
LINE
  5
170
100
AcDbEntity
  8
0
  6
ByLayer
 62
  256
370
   -1
100
AcDbLine
 10
2.27863993716
 20
1.35882772621
 11
2.27362655416
 21
1.34711807221
  0
LINE
  5
171
100
AcDbEntity
  8
0
  6
ByLayer
 62
  256
370
   -1
100
AcDbLine
 10
2.26192866016
 20
1.35213649521
 11
2.27863993716
 21
1.35882772621
  0
LINE
  5
172
100
AcDbEntity
  8
0
  6
ByLayer
 62
  256
370
   -1
100
AcDbLine
 10
2.23351948816
 20
1.34377245621
 11
2.26192866016
 21
1.35213649521
  0
LINE
  5
173
100
AcDbEntity
  8
0
  6
ByLayer
 62
  256
370
   -1
100
AcDbLine
 10
2.20009693316
 20
1.34377245621
 11
2.23351948816
 21
1.34377245621
  0
LINE
  5
174
100
AcDbEntity
  8
0
  6
ByLayer
 62
  256
370
   -1
100
AcDbLine
 10
2.18505678316
 20
1.35380930321
 11
2.20009693316
 21
1.34377245621
  0
LINE
  5
175
100
AcDbEntity
  8
0
  6
ByLayer
 62
  256
370
   -1
100
AcDbLine
 10
2.18839903816
 20
1.37221018821
 11
2.18505678316
 21
1.35380930321
  0
LINE
  5
176
100
AcDbEntity
  8
0
  6
ByLayer
 62
  256
370
   -1
100
AcDbLine
 10
2.21012369916
 20
1.37388299521
 11
2.18839903816
 21
1.37221018821
  0
LINE
  5
177
100
AcDbEntity
  8
0
  6
ByLayer
 62
  256
370
   -1
100
AcDbLine
 10
2.23853287116
 20
1.37890141821
 11
2.21012369916
 21
1.37388299521
  0
LINE
  5
178
100
AcDbEntity
  8
0
  6
ByLayer
 62
  256
370
   -1
100
AcDbLine
 10
2.25524414916
 20
1.38559264921
 11
2.23853287116
 21
1.37890141821
  0
LINE
  5
179
100
AcDbEntity
  8
0
  6
ByLayer
 62
  256
370
   -1
100
AcDbLine
 10
2.26527091516
 20
1.40232072621
 11
2.25524414916
 21
1.38559264921
  0
LINE
  5
17A
100
AcDbEntity
  8
0
  6
ByLayer
 62
  256
370
   -1
100
AcDbLine
 10
2.25691527616
 20
1.41904880321
 11
2.26527091516
 21
1.40232072621
  0
LINE
  5
17B
100
AcDbEntity
  8
0
  6
ByLayer
 62
  256
370
   -1
100
AcDbLine
 10
2.23184836016
 20
1.42406722721
 11
2.25691527616
 21
1.41904880321
  0
LINE
  5
17C
100
AcDbEntity
  8
0
  6
ByLayer
 62
  256
370
   -1
100
AcDbLine
 10
2.35216955916
 20
1.40733915021
 11
2.36720970916
 21
1.42072161121
  0
LINE
  5
17D
100
AcDbEntity
  8
0
  6
ByLayer
 62
  256
370
   -1
100
AcDbLine
 10
2.36052519716
 20
1.38726545721
 11
2.35216955916
 21
1.40733915021
  0
LINE
  5
17E
100
AcDbEntity
  8
0
  6
ByLayer
 62
  256
370
   -1
100
AcDbLine
 10
2.38893436916
 20
1.38224703421
 11
2.36052519716
 21
1.38726545721
  0
LINE
  5
17F
100
AcDbEntity
  8
0
  6
ByLayer
 62
  256
370
   -1
100
AcDbLine
 10
2.43071256316
 20
1.37890141821
 11
2.38893436916
 21
1.38224703421
  0
LINE
  5
180
100
AcDbEntity
  8
0
  6
ByLayer
 62
  256
370
   -1
100
AcDbLine
 10
2.44241045816
 20
1.36217334121
 11
2.43071256316
 21
1.37890141821
  0
LINE
  5
181
100
AcDbEntity
  8
0
  6
ByLayer
 62
  256
370
   -1
100
AcDbLine
 10
2.41567241416
 20
1.35046368721
 11
2.44241045816
 21
1.36217334121
  0
LINE
  5
182
100
AcDbEntity
  8
0
  6
ByLayer
 62
  256
370
   -1
100
AcDbLine
 10
2.38392098616
 20
1.35213649521
 11
2.41567241416
 21
1.35046368721
  0
LINE
  5
183
100
AcDbEntity
  8
0
  6
ByLayer
 62
  256
370
   -1
100
AcDbLine
 10
2.35216955916
 20
1.35715491821
 11
2.38392098616
 21
1.35213649521
  0
LINE
  5
184
100
AcDbEntity
  8
0
  6
ByLayer
 62
  256
370
   -1
100
AcDbLine
 10
2.37389422016
 20
1.34544526421
 11
2.35216955916
 21
1.35715491821
  0
LINE
  5
185
100
AcDbEntity
  8
0
  6
ByLayer
 62
  256
370
   -1
100
AcDbLine
 10
2.41400128616
 20
1.33373561021
 11
2.37389422016
 21
1.34544526421
  0
LINE
  5
186
100
AcDbEntity
  8
0
  6
ByLayer
 62
  256
370
   -1
100
AcDbLine
 10
2.45076609716
 20
1.33540841821
 11
2.41400128616
 21
1.33373561021
  0
LINE
  5
187
100
AcDbEntity
  8
0
  6
ByLayer
 62
  256
370
   -1
100
AcDbLine
 10
2.48084639616
 20
1.33875403321
 11
2.45076609716
 21
1.33540841821
  0
LINE
  5
188
100
AcDbEntity
  8
0
  6
ByLayer
 62
  256
370
   -1
100
AcDbLine
 10
2.49254429116
 20
1.35548211021
 11
2.48084639616
 21
1.33875403321
  0
LINE
  5
189
100
AcDbEntity
  8
0
  6
ByLayer
 62
  256
370
   -1
100
AcDbLine
 10
2.48753090716
 20
1.38057422621
 11
2.49254429116
 21
1.35548211021
  0
LINE
  5
18A
100
AcDbEntity
  8
0
  6
ByLayer
 62
  256
370
   -1
100
AcDbLine
 10
2.46413511916
 20
1.39897511121
 11
2.48753090716
 21
1.38057422621
  0
LINE
  5
18B
100
AcDbEntity
  8
0
  6
ByLayer
 62
  256
370
   -1
100
AcDbLine
 10
2.44408158516
 20
1.40733915021
 11
2.46413511916
 21
1.39897511121
  0
LINE
  5
18C
100
AcDbEntity
  8
0
  6
ByLayer
 62
  256
370
   -1
100
AcDbLine
 10
2.41901466916
 20
1.41403038021
 11
2.44408158516
 21
1.40733915021
  0
LINE
  5
18D
100
AcDbEntity
  8
0
  6
ByLayer
 62
  256
370
   -1
100
AcDbLine
 10
2.38057873116
 20
1.41904880321
 11
2.41901466916
 21
1.41403038021
  0
LINE
  5
18E
100
AcDbEntity
  8
0
  6
ByLayer
 62
  256
370
   -1
100
AcDbLine
 10
2.49440346516
 20
1.26994939521
 11
2.45930038716
 21
1.26877623021
  0
LINE
  5
18F
100
AcDbEntity
  8
0
  6
ByLayer
 62
  256
370
   -1
100
AcDbLine
 10
2.52247093916
 20
1.30139232821
 11
2.49440346516
 21
1.26994939521
  0
LINE
  5
190
100
AcDbEntity
  8
0
  6
ByLayer
 62
  256
370
   -1
100
AcDbLine
 10
2.51230915016
 20
1.35651617221
 11
2.52247093916
 21
1.30139232821
  0
LINE
  5
191
100
AcDbEntity
  8
0
  6
ByLayer
 62
  256
370
   -1
100
AcDbLine
 10
2.49268715416
 20
1.36279332621
 11
2.51230915016
 21
1.35651617221
  0
LINE
  5
192
100
AcDbEntity
  8
0
  6
ByLayer
 62
  256
370
   -1
100
AcDbLine
 10
2.33497056416
 20
1.43517118821
 11
2.34909869116
 21
1.42732383921
  0
LINE
  5
193
100
AcDbEntity
  8
0
  6
ByLayer
 62
  256
370
   -1
100
AcDbLine
 10
2.30856223716
 20
1.43706177921
 11
2.33497056416
 21
1.43517118821
  0
LINE
  5
194
100
AcDbEntity
  8
0
  6
ByLayer
 62
  256
370
   -1
100
AcDbLine
 10
2.26701105416
 20
1.43567311521
 11
2.30856223716
 21
1.43706177921
  0
LINE
  5
195
100
AcDbEntity
  8
0
  6
ByLayer
 62
  256
370
   -1
100
AcDbLine
 10
2.22578389216
 20
1.42458917521
 11
2.26701105416
 21
1.43567311521
  0
LINE
  5
196
100
AcDbEntity
  8
0
  6
ByLayer
 62
  256
370
   -1
100
AcDbLine
 10
2.20800982416
 20
1.41706222321
 11
2.22578389216
 21
1.42458917521
  0
LINE
  5
197
100
AcDbEntity
  8
0
  6
ByLayer
 62
  256
370
   -1
100
AcDbLine
 10
2.10142620016
 20
1.20412558621
 11
2.14232934016
 21
1.22490480221
  0
LINE
  5
198
100
AcDbEntity
  8
0
  6
ByLayer
 62
  256
370
   -1
100
AcDbLine
 10
2.04477482516
 20
1.23967009921
 11
2.10142620016
 21
1.20412558621
  0
LINE
  5
199
100
AcDbEntity
  8
0
  6
ByLayer
 62
  256
370
   -1
100
AcDbLine
 10
2.02870256816
 20
1.30568910321
 11
2.04477482516
 21
1.23967009921
  0
LINE
  5
19A
100
AcDbEntity
  8
0
  6
ByLayer
 62
  256
370
   -1
100
AcDbLine
 10
2.05681633116
 20
1.33574699621
 11
2.02870256816
 21
1.30568910321
  0
LINE
  5
19B
100
AcDbEntity
  8
0
  6
ByLayer
 62
  256
370
   -1
100
AcDbLine
 10
2.10626115116
 20
1.34987874821
 11
2.05681633116
 21
1.33574699621
  0
LINE
  5
19C
100
AcDbEntity
  8
0
  6
ByLayer
 62
  256
370
   -1
100
AcDbLine
 10
1.93604016716
 20
1.34003010721
 11
1.85589303516
 21
1.33180519821
  0
LINE
  5
19D
100
AcDbEntity
  8
0
  6
ByLayer
 62
  256
370
   -1
100
AcDbLine
 10
2.01904995616
 20
1.34557751421
 11
1.93604016716
 21
1.34003010721
  0
LINE
  5
19E
100
AcDbEntity
  8
0
  6
ByLayer
 62
  256
370
   -1
100
AcDbLine
 10
1.87214765616
 20
0.76246141221
 11
1.83129080516
 21
0.74029715721
  0
LINE
  5
19F
100
AcDbEntity
  8
0
  6
ByLayer
 62
  256
370
   -1
100
AcDbLine
 10
1.95465914216
 20
0.65845183821
 11
1.86865508116
 21
0.57654210621
  0
LINE
  5
1A0
100
AcDbEntity
  8
0
  6
ByLayer
 62
  256
370
   -1
100
AcDbLine
 10
2.00165065616
 20
0.74599068021
 11
1.95465914216
 21
0.65845183821
  0
LINE
  5
1A1
100
AcDbEntity
  8
0
  6
ByLayer
 62
  256
370
   -1
100
AcDbLine
 10
2.02846833316
 20
0.81482967721
 11
2.00165065616
 21
0.74599068021
  0
LINE
  5
1A2
100
AcDbEntity
  8
0
  6
ByLayer
 62
  256
370
   -1
100
AcDbLine
 10
2.07338409916
 20
0.8815003502099999
 11
2.02846833316
 21
0.81482967721
  0
LINE
  5
1A3
100
AcDbEntity
  8
0
  6
ByLayer
 62
  256
370
   -1
100
AcDbLine
 10
2.12194943216
 20
0.92194785221
 11
2.07338409916
 21
0.8815003502099999
  0
LINE
  5
1A4
100
AcDbEntity
  8
0
  6
ByLayer
 62
  256
370
   -1
100
AcDbLine
 10
2.17637894516
 20
0.95288523221
 11
2.12194943216
 21
0.92194785221
  0
LINE
  5
1A5
100
AcDbEntity
  8
0
  6
ByLayer
 62
  256
370
   -1
100
AcDbLine
 10
2.20633701116
 20
1.01073649221
 11
2.17637894516
 21
0.95288523221
  0
LINE
  5
1A6
100
AcDbEntity
  8
0
  6
ByLayer
 62
  256
370
   -1
100
AcDbLine
 10
2.24211659216
 20
1.01886519821
 11
2.20633701116
 21
1.01073649221
  0
LINE
  5
1A7
100
AcDbEntity
  8
0
  6
ByLayer
 62
  256
370
   -1
100
AcDbLine
 10
2.28020698916
 20
0.99933940421
 11
2.24211659216
 21
1.01886519821
  0
LINE
  5
1A8
100
AcDbEntity
  8
0
  6
ByLayer
 62
  256
370
   -1
100
AcDbLine
 10
2.34281512116
 20
0.95151469221
 11
2.28020698916
 21
0.99933940421
  0
LINE
  5
1A9
100
AcDbEntity
  8
0
  6
ByLayer
 62
  256
370
   -1
100
AcDbLine
 10
2.38681598616
 20
0.92109373821
 11
2.34281512116
 21
0.95151469221
  0
LINE
  5
1AA
100
AcDbEntity
  8
0
  6
ByLayer
 62
  256
370
   -1
100
AcDbLine
 10
2.44027705916
 20
0.93951947521
 11
2.38681598616
 21
0.92109373821
  0
LINE
  5
1AB
100
AcDbEntity
  8
0
  6
ByLayer
 62
  256
370
   -1
100
AcDbLine
 10
2.50943282816
 20
0.98620146621
 11
2.44027705916
 21
0.93951947521
  0
LINE
  5
1AC
100
AcDbEntity
  8
0
  6
ByLayer
 62
  256
370
   -1
100
AcDbLine
 10
2.53103436916
 20
1.04516003221
 11
2.50943282816
 21
0.98620146621
  0
LINE
  5
1AD
100
AcDbEntity
  8
0
  6
ByLayer
 62
  256
370
   -1
100
AcDbLine
 10
2.50236151516
 20
1.07332008421
 11
2.53103436916
 21
1.04516003221
  0
LINE
  5
1AE
100
AcDbEntity
  8
0
  6
ByLayer
 62
  256
370
   -1
100
AcDbLine
 10
2.46449893716
 20
1.12751815221
 11
2.50236151516
 21
1.07332008421
  0
LINE
  5
1AF
100
AcDbEntity
  8
0
  6
ByLayer
 62
  256
370
   -1
100
AcDbLine
 10
2.44602691216
 20
1.18236426421
 11
2.46449893716
 21
1.12751815221
  0
LINE
  5
1B0
100
AcDbEntity
  8
0
  6
ByLayer
 62
  256
370
   -1
100
AcDbLine
 10
2.42976949916
 20
1.25392342721
 11
2.44602691216
 21
1.18236426421
  0
LINE
  5
1B1
100
AcDbEntity
  8
0
  6
ByLayer
 62
  256
370
   -1
100
AcDbLine
 10
2.43415243716
 20
1.28873456821
 11
2.42976949916
 21
1.25392342721
  0
LINE
  5
1B2
100
AcDbEntity
  8
0
  6
ByLayer
 62
  256
370
   -1
100
AcDbLine
 10
2.41413095316
 20
1.33374151021
 11
2.43415243716
 21
1.28873456821
  0
LWPOLYLINE
  5
1B3
100
AcDbEntity
  8
0
  6
ByLayer
 62
  256
370
   -1
100
AcDbPolyline
 90
    3
 70
    0
 43
0
 10
2.01904995616
 20
1.34557751421
 10
2.09262395116
 20
1.35620324821
 10
2.14662084416
 20
1.35882772621
  0
ENDBLK
  5
4F
330
4D
100
AcDbEntity
  8
0
100
AcDbBlockEnd
  0
BLOCK
  5
51
330
50
100
AcDbEntity
  8
0
100
AcDbBlockBegin
  2
dog_3
 70
    0
 10
0
 20
0
  3
dog_3
  1

  0
LINE
  5
1B4
100
AcDbEntity
  8
0
  6
ByLayer
 62
    7
370
   -1
100
AcDbLine
 10
6.25613289674
 20
10.3795101295
 11
6.31101309674
 21
10.3674177295
  0
LINE
  5
1B5
100
AcDbEntity
  8
0
  6
ByLayer
 62
    7
370
   -1
100
AcDbLine
 10
7.32862509674
 20
10.1147193295
 11
7.31498289674
 21
10.0607697295
  0
LINE
  5
1B6
100
AcDbEntity
  8
0
  6
ByLayer
 62
    7
370
   -1
100
AcDbLine
 10
7.18785969674
 20
10.2316113295
 11
7.32862509674
 21
10.1147193295
  0
LINE
  5
1B7
100
AcDbEntity
  8
0
  6
ByLayer
 62
    7
370
   -1
100
AcDbLine
 10
6.94725369674
 20
10.3190481295
 11
7.18785969674
 21
10.2316113295
  0
LINE
  5
1B8
100
AcDbEntity
  8
0
  6
ByLayer
 62
    7
370
   -1
100
AcDbLine
 10
6.29395989674
 20
10.3689675295
 11
6.94725369674
 21
10.3190481295
  0
LINE
  5
1B9
100
AcDbEntity
  8
0
  6
ByLayer
 62
    7
370
   -1
100
AcDbLine
 10
8.544364896739999
 20
11.0045871295
 11
8.67552009674
 21
11.0402451295
  0
LINE
  5
1BA
100
AcDbEntity
  8
0
  6
ByLayer
 62
    7
370
   -1
100
AcDbLine
 10
8.31585129674
 20
10.9884645295
 11
8.544364896739999
 21
11.0045871295
  0
LINE
  5
1BB
100
AcDbEntity
  8
0
  6
ByLayer
 62
    7
370
   -1
100
AcDbLine
 10
8.027808096739999
 20
10.9568385295
 11
8.31585129674
 21
10.9884645295
  0
LINE
  5
1BC
100
AcDbEntity
  8
0
  6
ByLayer
 62
    7
370
   -1
100
AcDbLine
 10
5.61369129674
 20
10.8994779295
 11
5.37308529674
 21
10.9249029295
  0
LINE
  5
1BD
100
AcDbEntity
  8
0
  6
ByLayer
 62
    7
370
   -1
100
AcDbLine
 10
7.42102269674
 20
10.9407159295
 11
8.01323529674
 21
10.9590093295
  0
LINE
  5
1BE
100
AcDbEntity
  8
0
  6
ByLayer
 62
    7
370
   -1
100
AcDbLine
 10
6.40154949674
 20
10.9469169295
 11
7.42102269674
 21
10.9407159295
  0
LINE
  5
1BF
100
AcDbEntity
  8
0
  6
ByLayer
 62
    7
370
   -1
100
AcDbLine
 10
5.58981609674
 20
10.8979281295
 11
6.40154949674
 21
10.9469169295
  0
CIRCLE
  5
1C0
100
AcDbEntity
  8
0
  6
ByLayer
 62
    7
370
   -1
100
AcDbCircle
 10
25.3420998967
 20
10.7149923295
 40
0.2765718
  0
LWPOLYLINE
  5
1C1
100
AcDbEntity
  8
0
  6
ByLayer
 62
    7
370
   -1
100
AcDbPolyline
 90
  104
 70
    0
 43
0
 10
25.8636181483
 20
10.9007179927
 10
25.8255626117
 20
10.9812864715
 10
25.785386573
 20
11.0498711551
 10
25.743538495
 20
11.1074207569
 10
25.7004668412
 20
11.1548839849
 10
25.656620074
 20
11.1932095489
 10
25.6124466568
 20
11.2233461587
 10
25.5683950524
 20
11.2462425259
 10
25.5249137237
 20
11.2628473567
 10
25.4824511338
 20
11.2741093645
 10
25.4414557458
 20
11.2809772591
 10
25.4023390225
 20
11.2843630717
 10
25.3651304547
 20
11.2848002179
 10
25.3296341899
 20
11.2825987369
 10
25.2956514627
 20
11.2780657879
 10
25.2629835082
 20
11.2715085283
 10
25.2314315611
 20
11.2632341119
 10
25.2007968562
 20
11.2535496997
 10
25.1708806285
 20
11.2427624437
 10
25.1414841128
 20
11.2311795031
 10
25.112408544
 20
11.2191080353
 10
25.0834588236
 20
11.2068497887
 10
25.0545823992
 20
11.1944963131
 10
25.0259118903
 20
11.1818660983
 10
24.9975922921
 20
11.1687593857
 10
24.9697685993
 20
11.1549764167
 10
24.9425858071
 20
11.1403174345
 10
24.9161889105
 20
11.1245826823
 10
24.8907229045
 20
11.1075723979
 10
24.8663327839
 20
11.0890868245
 10
24.8431635439
 20
11.0689262053
 10
24.8213601716
 20
11.0468908537
 10
24.8010571737
 20
11.0228787349
 10
24.7823579169
 20
10.9970779561
 10
24.7653600103
 20
10.9697302699
 10
24.7501610632
 20
10.9410774307
 10
24.7368586845
 20
10.9113611911
 10
24.7255504837
 20
10.8808233037
 10
24.7163340695
 20
10.8497055229
 10
24.7093070513
 20
10.8182495977
 10
24.7045670384
 20
10.7866972843
 10
24.7022116398
 20
10.7552903353
 10
24.7023094329
 20
10.7242462663
 10
24.7047144345
 20
10.6936034623
 10
24.7091844938
 20
10.6633200247
 10
24.7154770069
 20
10.6333536751
 10
24.7233493695
 20
10.6036621333
 10
24.7325589774
 20
10.5742031245
 10
24.7428632266
 20
10.5449343685
 10
24.754019513
 20
10.5158135869
 10
24.7657852323
 20
10.4867984995
 10
24.7779177802
 20
10.4578468315
 10
24.7901837452
 20
10.4289202087
 10
24.8025611367
 20
10.4000701345
 10
24.8152393857
 20
10.3714379773
 10
24.8284171155
 20
10.3431690169
 10
24.8422929492
 20
10.3154085331
 10
24.8570655105
 20
10.2883018021
 10
24.8729334222
 20
10.2619941055
 10
24.8900953078
 20
10.2366307195
 10
24.9087497907
 20
10.2123569239
 10
24.929095494
 20
10.1893179985
 10
24.951330455
 20
10.1676591583
 10
24.9755284719
 20
10.1475121417
 10
25.0014861489
 20
10.1289786271
 10
25.0289625848
 20
10.1121562249
 10
25.0577168778
 20
10.0971425419
 10
25.0875081259
 20
10.0840351885
 10
25.118095428
 20
10.0729317733
 10
25.1492378819
 20
10.0639299067
 10
25.1806945863
 20
10.0571271973
 10
25.2122246395
 20
10.0526212519
 10
25.2435871396
 20
10.0505096845
 10
25.274575247
 20
10.0508485903
 10
25.305166353
 20
10.0534695667
 10
25.3353998521
 20
10.0581286435
 10
25.3653151851
 20
10.0645817983
 10
25.3949517928
 20
10.0725850105
 10
25.4243491162
 20
10.0818942559
 10
25.4535465963
 20
10.0922655103
 10
25.482583674
 20
10.1034547531
 10
25.5114997898
 20
10.1152179601
 10
25.5403343853
 20
10.1273111089
 10
25.5691227587
 20
10.1395116331
 10
25.5978382302
 20
10.1519180179
 10
25.6264064083
 20
10.1648758939
 10
25.6547516743
 20
10.1787372511
 10
25.6827984096
 20
10.1938540759
 10
25.7104709955
 20
10.2105783601
 10
25.737693813
 20
10.2292620919
 10
25.7643912436
 20
10.2502572577
 10
25.7904876686
 20
10.2739158493
 10
25.8159074693
 20
10.3005898549
 10
25.840571011
 20
10.3306312429
 10
25.8640879604
 20
10.3643906047
 10
25.8855413275
 20
10.4022161827
 10
25.9039631077
 20
10.4444559925
 10
25.9183852959
 20
10.4914580497
 10
25.9278398877
 20
10.5435703717
 10
25.9313588784
 20
10.6011409759
 10
25.9279742629
 20
10.6645178761
 10
25.9167180371
 20
10.7340490915
 10
25.8966221958
 20
10.8100826359
 10
25.8667187342
 20
10.8929665285
  0
LINE
  5
1C2
100
AcDbEntity
  8
0
  6
ByLayer
 62
    7
370
   -1
100
AcDbLine
 10
20.6909106967
 20
12.0516561295
 11
20.7823776967
 21
12.2773779295
  0
LINE
  5
1C3
100
AcDbEntity
  8
0
  6
ByLayer
 62
    7
370
   -1
100
AcDbLine
 10
20.6543238967
 20
11.9232909295
 11
20.6909106967
 21
12.0516561295
  0
LINE
  5
1C4
100
AcDbEntity
  8
0
  6
ByLayer
 62
    7
370
   -1
100
AcDbLine
 10
7.29886029674
 20
10.1165805295
 11
7.33544709674
 21
10.0923957295
  0
LINE
  5
1C5
100
AcDbEntity
  8
0
  6
ByLayer
 62
    7
370
   -1
100
AcDbLine
 10
13.0730802967
 20
1.25386472946
 11
13.0182000967
 21
1.00333712946
  0
LINE
  5
1C6
100
AcDbEntity
  8
0
  6
ByLayer
 62
    7
370
   -1
100
AcDbLine
 10
13.0244010967
 20
1.68112532946
 11
13.0730802967
 21
1.25386472946
  0
LINE
  5
1C7
100
AcDbEntity
  8
0
  6
ByLayer
 62
    7
370
   -1
100
AcDbLine
 10
12.6579120967
 20
1.73600552946
 11
13.0244010967
 21
1.68112532946
  0
LINE
  5
1C8
100
AcDbEntity
  8
0
  6
ByLayer
 62
    7
370
   -1
100
AcDbLine
 10
23.8466868967
 20
0.869391929463
 11
24.2249586967
 21
0.924272129463
  0
LINE
  5
1C9
100
AcDbEntity
  8
0
  6
ByLayer
 62
    7
370
   -1
100
AcDbLine
 10
21.2034372967
 20
1.46129492946
 11
21.1488666967
 21
1.14379472946
  0
LINE
  5
1CA
100
AcDbEntity
  8
0
  6
ByLayer
 62
    7
370
   -1
100
AcDbLine
 10
10.4056476967
 20
2.65781072946
 11
10.6682658967
 21
2.34651152946
  0
LINE
  5
1CB
100
AcDbEntity
  8
0
  6
ByLayer
 62
    7
370
   -1
100
AcDbLine
 10
29.4010764967
 20
14.7128877295
 11
29.5294416967
 21
14.7190887295
  0
LINE
  5
1CC
100
AcDbEntity
  8
0
  6
ByLayer
 62
    7
370
   -1
100
AcDbLine
 10
29.3765820967
 20
14.7007953295
 11
29.4010764967
 21
14.7128877295
  0
LINE
  5
1CD
100
AcDbEntity
  8
0
  6
ByLayer
 62
    7
370
   -1
100
AcDbLine
 10
29.4742500967
 20
14.7435849295
 11
29.3765820967
 21
14.7007953295
  0
LINE
  5
1CE
100
AcDbEntity
  8
0
  6
ByLayer
 62
    7
370
   -1
100
AcDbLine
 10
29.5353312967
 20
14.8105575295
 11
29.4742500967
 21
14.7435849295
  0
LINE
  5
1CF
100
AcDbEntity
  8
0
  6
ByLayer
 62
    7
370
   -1
100
AcDbLine
 10
26.0440728967
 20
8.18770592946
 11
26.1110454967
 21
8.03515592946
  0
LINE
  5
1D0
100
AcDbEntity
  8
0
  6
ByLayer
 62
    7
370
   -1
100
AcDbLine
 10
25.9646964967
 20
8.46241652946
 11
26.0440728967
 21
8.18770592946
  0
LINE
  5
1D1
100
AcDbEntity
  8
0
  6
ByLayer
 62
    7
370
   -1
100
AcDbLine
 10
25.7510670967
 20
8.69434112946
 11
25.9646964967
 21
8.46241652946
  0
LINE
  5
1D2
100
AcDbEntity
  8
0
  6
ByLayer
 62
    7
370
   -1
100
AcDbLine
 10
29.4602982967
 20
14.4670113295
 11
29.5604466967
 21
14.4542997295
  0
LINE
  5
1D3
100
AcDbEntity
  8
0
  6
ByLayer
 62
    7
370
   -1
100
AcDbLine
 10
29.0925690967
 20
14.5519677295
 11
29.4602982967
 21
14.4670113295
  0
LINE
  5
1D4
100
AcDbEntity
  8
0
  6
ByLayer
 62
    7
370
   -1
100
AcDbLine
 10
28.9384692967
 20
14.6784717295
 11
29.0925690967
 21
14.5519677295
  0
LINE
  5
1D5
100
AcDbEntity
  8
0
  6
ByLayer
 62
    7
370
   -1
100
AcDbLine
 10
29.2293042967
 20
14.8722579295
 11
28.9384692967
 21
14.6784717295
  0
LINE
  5
1D6
100
AcDbEntity
  8
0
  6
ByLayer
 62
    7
370
   -1
100
AcDbLine
 10
29.3080596967
 20
14.9745771295
 11
29.2293042967
 21
14.8722579295
  0
LINE
  5
1D7
100
AcDbEntity
  8
0
  6
ByLayer
 62
    7
370
   -1
100
AcDbLine
 10
29.4987444967
 20
15.1810767295
 11
29.3080596967
 21
14.9745771295
  0
LINE
  5
1D8
100
AcDbEntity
  8
0
  6
ByLayer
 62
    7
370
   -1
100
AcDbLine
 10
26.0456226967
 20
13.6543491295
 11
26.3606424967
 21
13.6500075295
  0
LINE
  5
1D9
100
AcDbEntity
  8
0
  6
ByLayer
 62
    7
370
   -1
100
AcDbLine
 10
25.5941772967
 20
13.7526363295
 11
26.0456226967
 21
13.6543491295
  0
LWPOLYLINE
  5
1DA
100
AcDbEntity
  8
0
  6
ByLayer
 62
    7
370
   -1
100
AcDbPolyline
 90
  104
 70
    0
 43
0
 10
25.879121078
 20
10.6982497303
 10
25.8776467277
 20
10.7813954617
 10
25.8697496952
 20
10.8551550535
 10
25.8561793576
 20
10.9201639543
 10
25.8376850924
 20
10.9770576199
 10
25.8150162767
 20
11.0264715007
 10
25.7889222876
 20
11.0690410507
 10
25.7601525026
 20
11.1054017239
 10
25.7294562987
 20
11.1361889689
 10
25.6975830534
 20
11.1620382415
 10
25.6652821438
 20
11.1835849939
 10
25.6332570582
 20
11.2014476467
 10
25.6017375453
 20
11.2160687875
 10
25.5706738729
 20
11.2277872771
 10
25.5400126963
 20
11.2369406335
 10
25.5097006711
 20
11.2438663711
 10
25.4796844527
 20
11.2489020097
 10
25.4499106966
 20
11.2523850673
 10
25.420326058
 20
11.2546530619
 10
25.3908771928
 20
11.2560435097
 10
25.3615107564
 20
11.2568939305
 10
25.3321744813
 20
11.2575358357
 10
25.302857988
 20
11.2580673613
 10
25.2736053096
 20
11.2582834747
 10
25.2444641157
 20
11.2579588771
 10
25.2154820757
 20
11.2568682751
 10
25.1867068592
 20
11.2547863735
 10
25.158186136
 20
11.2514878753
 10
25.1299675755
 20
11.2467474871
 10
25.1020988472
 20
11.2403399101
 10
25.0746276211
 20
11.2320398509
 10
25.0476015877
 20
11.2216220791
 10
25.0210968037
 20
11.2089483439
 10
24.9952736097
 20
11.1941388421
 10
24.970307929
 20
11.1773615497
 10
24.9463756852
 20
11.1587844481
 10
24.9236528018
 20
11.1385755133
 10
24.9023152022
 20
11.1169027249
 10
24.8825388101
 20
11.0939340607
 10
24.8644995487
 20
11.0698375021
 10
24.8483733415
 20
11.0447810251
 10
24.834336112
 20
11.0189326075
 10
24.8225297401
 20
10.9924507861
 10
24.8128445017
 20
10.9654243063
 10
24.8050579033
 20
10.9379106331
 10
24.7989469192
 20
10.9099670803
 10
24.7942885239
 20
10.8816509671
 10
24.7908596916
 20
10.8530196127
 10
24.7884373971
 20
10.8241303291
 10
24.7867986146
 20
10.7950404373
 10
24.7857203187
 20
10.7658072529
 10
24.7849794837
 20
10.7364880933
 10
24.7843624122
 20
10.7071400743
 10
24.7838699556
 20
10.6778156875
 10
24.7837175136
 20
10.6485628075
 10
24.7841298144
 20
10.6194291001
 10
24.785331586
 20
10.5904622347
 10
24.7875475563
 20
10.5617098843
 10
24.7910024536
 20
10.5332197165
 10
24.7959210058
 20
10.5050394007
 10
24.8025279409
 20
10.4772166081
 10
24.8110479869
 20
10.4497990063
 10
24.821705349
 20
10.4228344339
 10
24.8346133066
 20
10.3964068267
 10
24.8496376521
 20
10.3706806435
 10
24.8666106906
 20
10.3458312403
 10
24.8853647271
 20
10.3220339731
 10
24.9057320671
 20
10.2994641979
 10
24.9275450156
 20
10.2782972707
 10
24.950635878
 20
10.2587085457
 10
24.9748369592
 20
10.2408733825
 10
24.9999805647
 20
10.2249671335
 10
25.0258989996
 20
10.2111651565
 10
25.052437256
 20
10.1995944397
 10
25.0795089468
 20
10.1901203503
 10
25.107050779
 20
10.1825202157
 10
25.1349994765
 20
10.1765712931
 10
25.1632917642
 20
10.1720508415
 10
25.1918643659
 20
10.1687361163
 10
25.2206540062
 20
10.1664043801
 10
25.2495974093
 20
10.1648328865
 10
25.2786312995
 20
10.1637988963
 10
25.307692401
 20
10.1630796685
 10
25.3367224128
 20
10.1624720263
 10
25.3657374697
 20
10.1620655683
 10
25.3948110069
 20
10.1621752783
 10
25.4240179338
 20
10.1631219289
 10
25.45343316
 20
10.1652262963
 10
25.4831315943
 20
10.1688091603
 10
25.5131881466
 20
10.1741912953
 10
25.5436777258
 20
10.1816934793
 10
25.5746752416
 20
10.1916364867
 10
25.6062556033
 20
10.2043410955
 10
25.6384903912
 20
10.2201296569
 10
25.6711936368
 20
10.2394463317
 10
25.7037428075
 20
10.2629417551
 10
25.7354730829
 20
10.2912865675
 10
25.7657196423
 20
10.3251514039
 10
25.7938176655
 20
10.3652069011
 10
25.8191023318
 20
10.4121236995
 10
25.8409088209
 20
10.4665724323
 10
25.8585723122
 20
10.5292237399
 10
25.8714279851
 20
10.6007482591
 10
25.8788110194
 20
10.6818166249
  0
LINE
  5
1DB
100
AcDbEntity
  8
0
  6
ByLayer
 62
    7
370
   -1
100
AcDbLine
 10
5.21371509674
 20
10.3385817295
 11
6.25613289674
 21
10.3795101295
  0
LINE
  5
1DC
100
AcDbEntity
  8
0
  6
ByLayer
 62
    7
370
   -1
100
AcDbLine
 10
4.14153249674
 20
10.2139389295
 11
5.21371509674
 21
10.3385817295
  0
LINE
  5
1DD
100
AcDbEntity
  8
0
  6
ByLayer
 62
    7
370
   -1
100
AcDbLine
 10
3.30313389674
 20
10.0486773295
 11
4.14153249674
 21
10.2139389295
  0
LINE
  5
1DE
100
AcDbEntity
  8
0
  6
ByLayer
 62
    7
370
   -1
100
AcDbLine
 10
2.19405489674
 20
10.0220121295
 11
3.30313389674
 21
10.0486773295
  0
LINE
  5
1DF
100
AcDbEntity
  8
0
  6
ByLayer
 62
    7
370
   -1
100
AcDbLine
 10
1.40681589674
 20
10.2396735295
 11
2.19405489674
 21
10.0220121295
  0
LINE
  5
1E0
100
AcDbEntity
  8
0
  6
ByLayer
 62
    7
370
   -1
100
AcDbLine
 10
0.398506296743
 20
10.5981003295
 11
1.40681589674
 21
10.2396735295
  0
LINE
  5
1E1
100
AcDbEntity
  8
0
  6
ByLayer
 62
    7
370
   -1
100
AcDbLine
 10
0.330293496743
 20
10.6452297295
 11
0.398506296743
 21
10.5981003295
  0
LINE
  5
1E2
100
AcDbEntity
  8
0
  6
ByLayer
 62
    7
370
   -1
100
AcDbLine
 10
0.694302096743
 20
10.6591815295
 11
0.330293496743
 21
10.6452297295
  0
LINE
  5
1E3
100
AcDbEntity
  8
0
  6
ByLayer
 62
    7
370
   -1
100
AcDbLine
 10
1.57765929674
 20
10.5280281295
 11
0.694302096743
 21
10.6591815295
  0
LINE
  5
1E4
100
AcDbEntity
  8
0
  6
ByLayer
 62
    7
370
   -1
100
AcDbLine
 10
2.18971509674
 20
10.5519015295
 11
1.57765929674
 21
10.5280281295
  0
LINE
  5
1E5
100
AcDbEntity
  8
0
  6
ByLayer
 62
    7
370
   -1
100
AcDbLine
 10
3.01974189674
 20
10.5181065295
 11
2.18971509674
 21
10.5519015295
  0
LINE
  5
1E6
100
AcDbEntity
  8
0
  6
ByLayer
 62
    7
370
   -1
100
AcDbLine
 10
4.10463609674
 20
10.7428977295
 11
3.01974189674
 21
10.5181065295
  0
LINE
  5
1E7
100
AcDbEntity
  8
0
  6
ByLayer
 62
    7
370
   -1
100
AcDbLine
 10
5.37308529674
 20
10.9249029295
 11
4.10463609674
 21
10.7428977295
  0
LINE
  5
1E8
100
AcDbEntity
  8
0
  6
ByLayer
 62
    7
370
   -1
100
AcDbLine
 10
12.0142302967
 20
1.25882552946
 11
12.1574778967
 21
0.982563329463
  0
LINE
  5
1E9
100
AcDbEntity
  8
0
  6
ByLayer
 62
    7
370
   -1
100
AcDbLine
 10
11.7097530967
 20
1.41261572946
 11
12.0142302967
 21
1.25882552946
  0
LINE
  5
1EA
100
AcDbEntity
  8
0
  6
ByLayer
 62
    7
370
   -1
100
AcDbLine
 10
12.6901590967
 20
0.920551529463
 11
12.5056734967
 21
0.979773329463
  0
LINE
  5
1EB
100
AcDbEntity
  8
0
  6
ByLayer
 62
    7
370
   -1
100
AcDbLine
 10
13.0318440967
 20
1.08302312946
 11
12.6901590967
 21
0.920551529463
  0
LINE
  5
1EC
100
AcDbEntity
  8
0
  6
ByLayer
 62
    7
370
   -1
100
AcDbLine
 10
13.3694970967
 20
1.34471252946
 11
13.0318440967
 21
1.08302312946
  0
LINE
  5
1ED
100
AcDbEntity
  8
0
  6
ByLayer
 62
    7
370
   -1
100
AcDbLine
 10
13.2371016967
 20
1.77042332946
 11
13.3694970967
 21
1.34471252946
  0
LINE
  5
1EE
100
AcDbEntity
  8
0
  6
ByLayer
 62
    7
370
   -1
100
AcDbLine
 10
12.8265846967
 20
2.10249452946
 11
13.2371016967
 21
1.77042332946
  0
LINE
  5
1EF
100
AcDbEntity
  8
0
  6
ByLayer
 62
    7
370
   -1
100
AcDbLine
 10
12.5515626967
 20
1.92607112946
 11
12.8265846967
 21
2.10249452946
  0
LINE
  5
1F0
100
AcDbEntity
  8
0
  6
ByLayer
 62
    7
370
   -1
100
AcDbLine
 10
12.0939162967
 20
2.18962172946
 11
12.5515626967
 21
1.92607112946
  0
LINE
  5
1F1
100
AcDbEntity
  8
0
  6
ByLayer
 62
    7
370
   -1
100
AcDbLine
 10
11.9385762967
 20
2.34930152946
 11
12.0939162967
 21
2.18962172946
  0
LINE
  5
1F2
100
AcDbEntity
  8
0
  6
ByLayer
 62
    7
370
   -1
100
AcDbLine
 10
11.3925642967
 20
3.17312732946
 11
11.9385762967
 21
2.34930152946
  0
LINE
  5
1F3
100
AcDbEntity
  8
0
  6
ByLayer
 62
    7
370
   -1
100
AcDbLine
 10
11.4108576967
 20
3.55511972946
 11
11.3925642967
 21
3.17312732946
  0
LINE
  5
1F4
100
AcDbEntity
  8
0
  6
ByLayer
 62
    7
370
   -1
100
AcDbLine
 10
11.6989008967
 20
3.81463832946
 11
11.4108576967
 21
3.55511972946
  0
LINE
  5
1F5
100
AcDbEntity
  8
0
  6
ByLayer
 62
    7
370
   -1
100
AcDbLine
 10
12.3289404967
 20
4.23693812946
 11
11.6989008967
 21
3.81463832946
  0
LINE
  5
1F6
100
AcDbEntity
  8
0
  6
ByLayer
 62
    7
370
   -1
100
AcDbLine
 10
12.5652048967
 20
4.54451672946
 11
12.3289404967
 21
4.23693812946
  0
LINE
  5
1F7
100
AcDbEntity
  8
0
  6
ByLayer
 62
    7
370
   -1
100
AcDbLine
 10
12.7729446967
 20
5.16556352946
 11
12.5652048967
 21
4.54451672946
  0
LINE
  5
1F8
100
AcDbEntity
  8
0
  6
ByLayer
 62
    7
370
   -1
100
AcDbLine
 10
12.5487726967
 20
1.14689432946
 11
12.3320418967
 21
1.60268132946
  0
LINE
  5
1F9
100
AcDbEntity
  8
0
  6
ByLayer
 62
    7
370
   -1
100
AcDbLine
 10
12.4898604967
 20
0.962410529463
 11
12.5487726967
 21
1.14689432946
  0
LINE
  5
1FA
100
AcDbEntity
  8
0
  6
ByLayer
 62
    7
370
   -1
100
AcDbLine
 10
12.1673994967
 20
0.734516129463
 11
12.4898604967
 21
0.962410529463
  0
LINE
  5
1FB
100
AcDbEntity
  8
0
  6
ByLayer
 62
    7
370
   -1
100
AcDbLine
 10
11.4685278967
 20
0.806449529463
 11
12.1673994967
 21
0.734516129463
  0
LINE
  5
1FC
100
AcDbEntity
  8
0
  6
ByLayer
 62
    7
370
   -1
100
AcDbLine
 10
11.1907158967
 20
1.12705112946
 11
11.4685278967
 21
0.806449529463
  0
LINE
  5
1FD
100
AcDbEntity
  8
0
  6
ByLayer
 62
    7
370
   -1
100
AcDbLine
 10
10.8970890967
 20
1.86126932946
 11
11.1907158967
 21
1.12705112946
  0
LINE
  5
1FE
100
AcDbEntity
  8
0
  6
ByLayer
 62
    7
370
   -1
100
AcDbLine
 10
10.4025462967
 20
3.06801812946
 11
10.8970890967
 21
1.86126932946
  0
LINE
  5
1FF
100
AcDbEntity
  8
0
  6
ByLayer
 62
    7
370
   -1
100
AcDbLine
 10
9.89870109674
 20
3.66146912946
 11
10.3858026967
 21
2.65315952946
  0
LINE
  5
200
100
AcDbEntity
  8
0
  6
ByLayer
 62
    7
370
   -1
100
AcDbLine
 10
10.3014672967
 20
4.80403532946
 11
9.89870109674
 21
3.66146912946
  0
LINE
  5
201
100
AcDbEntity
  8
0
  6
ByLayer
 62
    7
370
   -1
100
AcDbLine
 10
10.2664302967
 20
4.85240492946
 11
10.3014672967
 21
4.80403532946
  0
LINE
  5
202
100
AcDbEntity
  8
0
  6
ByLayer
 62
    7
370
   -1
100
AcDbLine
 10
10.0834962967
 20
4.87844912946
 11
10.2664302967
 21
4.85240492946
  0
LINE
  5
203
100
AcDbEntity
  8
0
  6
ByLayer
 62
    7
370
   -1
100
AcDbLine
 10
13.5496410967
 20
6.07434572946
 11
13.8872940967
 21
5.90505392946
  0
LINE
  5
204
100
AcDbEntity
  8
0
  6
ByLayer
 62
    7
370
   -1
100
AcDbLine
 10
13.1822214967
 20
6.14286812946
 11
13.5496410967
 21
6.07434572946
  0
LINE
  5
205
100
AcDbEntity
  8
0
  6
ByLayer
 62
    7
370
   -1
100
AcDbLine
 10
12.7289166967
 20
6.29076692946
 11
13.1822214967
 21
6.14286812946
  0
LINE
  5
206
100
AcDbEntity
  8
0
  6
ByLayer
 62
    7
370
   -1
100
AcDbLine
 10
12.1475562967
 20
6.33448532946
 11
12.7289166967
 21
6.29076692946
  0
LINE
  5
207
100
AcDbEntity
  8
0
  6
ByLayer
 62
    7
370
   -1
100
AcDbLine
 10
11.5696068967
 20
6.27867452946
 11
12.1475562967
 21
6.33448532946
  0
LINE
  5
208
100
AcDbEntity
  8
0
  6
ByLayer
 62
    7
370
   -1
100
AcDbLine
 10
11.2648200967
 20
6.01822532946
 11
11.5696068967
 21
6.27867452946
  0
LINE
  5
209
100
AcDbEntity
  8
0
  6
ByLayer
 62
    7
370
   -1
100
AcDbLine
 10
13.4584836967
 20
5.85544412946
 11
12.9487470967
 21
6.18348692946
  0
LINE
  5
20A
100
AcDbEntity
  8
0
  6
ByLayer
 62
    7
370
   -1
100
AcDbLine
 10
13.5118140967
 20
5.34384812946
 11
13.4584836967
 21
5.85544412946
  0
LINE
  5
20B
100
AcDbEntity
  8
0
  6
ByLayer
 62
    7
370
   -1
100
AcDbLine
 10
13.5226662967
 20
5.06231552946
 11
13.5118140967
 21
5.34384812946
  0
LINE
  5
20C
100
AcDbEntity
  8
0
  6
ByLayer
 62
    7
370
   -1
100
AcDbLine
 10
13.2250092967
 20
5.05084232946
 11
13.5226662967
 21
5.06231552946
  0
LINE
  5
20D
100
AcDbEntity
  8
0
  6
ByLayer
 62
    7
370
   -1
100
AcDbLine
 10
12.8901462967
 20
5.13703892946
 11
13.2250092967
 21
5.05084232946
  0
LINE
  5
20E
100
AcDbEntity
  8
0
  6
ByLayer
 62
    7
370
   -1
100
AcDbLine
 10
12.4833498967
 20
5.36989232946
 11
12.8901462967
 21
5.13703892946
  0
LINE
  5
20F
100
AcDbEntity
  8
0
  6
ByLayer
 62
    7
370
   -1
100
AcDbLine
 10
11.7801366967
 20
5.55778892946
 11
12.4833498967
 21
5.36989232946
  0
LINE
  5
210
100
AcDbEntity
  8
0
  6
ByLayer
 62
    7
370
   -1
100
AcDbLine
 10
11.0118120967
 20
5.71002752946
 11
11.7801366967
 21
5.55778892946
  0
LINE
  5
211
100
AcDbEntity
  8
0
  6
ByLayer
 62
    7
370
   -1
100
AcDbLine
 10
19.1663520967
 20
3.95726672946
 11
19.5133074967
 21
3.98734112946
  0
LINE
  5
212
100
AcDbEntity
  8
0
  6
ByLayer
 62
    7
370
   -1
100
AcDbLine
 10
18.7700982967
 20
3.92501972946
 11
19.1663520967
 21
3.95726672946
  0
LINE
  5
213
100
AcDbEntity
  8
0
  6
ByLayer
 62
    7
370
   -1
100
AcDbLine
 10
17.9893698967
 20
3.97741952946
 11
18.7700982967
 21
3.92501972946
  0
LINE
  5
214
100
AcDbEntity
  8
0
  6
ByLayer
 62
    7
370
   -1
100
AcDbLine
 10
16.8539352967
 20
4.19818052946
 11
17.9893698967
 21
3.97741952946
  0
LINE
  5
215
100
AcDbEntity
  8
0
  6
ByLayer
 62
    7
370
   -1
100
AcDbLine
 10
16.0924308967
 20
4.59939692946
 11
16.8539352967
 21
4.19818052946
  0
LINE
  5
216
100
AcDbEntity
  8
0
  6
ByLayer
 62
    7
370
   -1
100
AcDbLine
 10
14.7616602967
 20
5.16060272946
 11
16.0924308967
 21
4.59939692946
  0
LINE
  5
217
100
AcDbEntity
  8
0
  6
ByLayer
 62
    7
370
   -1
100
AcDbLine
 10
14.0097678967
 20
5.74413392946
 11
14.7616602967
 21
5.16060272946
  0
LINE
  5
218
100
AcDbEntity
  8
0
  6
ByLayer
 62
    7
370
   -1
100
AcDbLine
 10
13.1998956967
 20
6.54129452946
 11
14.0097678967
 21
5.74413392946
  0
LINE
  5
219
100
AcDbEntity
  8
0
  6
ByLayer
 62
    7
370
   -1
100
AcDbLine
 10
12.6842676967
 20
7.01816492946
 11
13.1998956967
 21
6.54129452946
  0
LINE
  5
21A
100
AcDbEntity
  8
0
  6
ByLayer
 62
    7
370
   -1
100
AcDbLine
 10
12.2359236967
 20
7.46464952946
 11
12.6842676967
 21
7.01816492946
  0
LINE
  5
21B
100
AcDbEntity
  8
0
  6
ByLayer
 62
    7
370
   -1
100
AcDbLine
 10
12.0905052967
 20
7.79021012946
 11
12.2359236967
 21
7.46464952946
  0
LINE
  5
21C
100
AcDbEntity
  8
0
  6
ByLayer
 62
    7
370
   -1
100
AcDbLine
 10
11.9587308967
 20
8.199486929460001
 11
12.0905052967
 21
7.79021012946
  0
LINE
  5
21D
100
AcDbEntity
  8
0
  6
ByLayer
 62
    7
370
   -1
100
AcDbLine
 10
10.8291876967
 20
5.71963952946
 11
10.5030060967
 21
5.15998352946
  0
LINE
  5
21E
100
AcDbEntity
  8
0
  6
ByLayer
 62
    7
370
   -1
100
AcDbLine
 10
10.8933684967
 20
6.20239952946
 11
10.8291876967
 21
5.71963952946
  0
LINE
  5
21F
100
AcDbEntity
  8
0
  6
ByLayer
 62
    7
370
   -1
100
AcDbLine
 10
10.9398786967
 20
6.70159532946
 11
10.8933684967
 21
6.20239952946
  0
LINE
  5
220
100
AcDbEntity
  8
0
  6
ByLayer
 62
    7
370
   -1
100
AcDbLine
 10
11.0701032967
 20
7.18714532946
 11
10.9398786967
 21
6.70159532946
  0
LINE
  5
221
100
AcDbEntity
  8
0
  6
ByLayer
 62
    7
370
   -1
100
AcDbLine
 10
11.5382904967
 20
7.50371672946
 11
11.0701032967
 21
7.18714532946
  0
LINE
  5
222
100
AcDbEntity
  8
0
  6
ByLayer
 62
    7
370
   -1
100
AcDbLine
 10
11.8616820967
 20
7.71517532946
 11
11.5382904967
 21
7.50371672946
  0
LINE
  5
223
100
AcDbEntity
  8
0
  6
ByLayer
 62
    7
370
   -1
100
AcDbLine
 10
11.9705118967
 20
8.31575972946
 11
11.8616820967
 21
7.71517532946
  0
LINE
  5
224
100
AcDbEntity
  8
0
  6
ByLayer
 62
    7
370
   -1
100
AcDbLine
 10
10.8636036967
 20
8.239484729460001
 11
10.4127774967
 21
7.47612092946
  0
LINE
  5
225
100
AcDbEntity
  8
0
  6
ByLayer
 62
    7
370
   -1
100
AcDbLine
 10
11.1023484967
 20
8.911692929459999
 11
10.8636036967
 21
8.239484729460001
  0
LINE
  5
226
100
AcDbEntity
  8
0
  6
ByLayer
 62
    7
370
   -1
100
AcDbLine
 10
10.8787956967
 20
9.54917192946
 11
11.1023484967
 21
8.911692929459999
  0
LINE
  5
227
100
AcDbEntity
  8
0
  6
ByLayer
 62
    7
370
   -1
100
AcDbLine
 10
11.0635908967
 20
5.66227892946
 11
11.3457444967
 21
6.07093472946
  0
LINE
  5
228
100
AcDbEntity
  8
0
  6
ByLayer
 62
    7
370
   -1
100
AcDbLine
 10
10.6540044967
 20
5.11626512946
 11
11.0635908967
 21
5.66227892946
  0
LINE
  5
229
100
AcDbEntity
  8
0
  6
ByLayer
 62
    7
370
   -1
100
AcDbLine
 10
10.3123194967
 20
4.95379352946
 11
10.6540044967
 21
5.11626512946
  0
LINE
  5
22A
100
AcDbEntity
  8
0
  6
ByLayer
 62
    7
370
   -1
100
AcDbLine
 10
9.69251289674
 20
4.69737632946
 11
10.3123194967
 21
4.95379352946
  0
LINE
  5
22B
100
AcDbEntity
  8
0
  6
ByLayer
 62
    7
370
   -1
100
AcDbLine
 10
9.14959869674
 20
4.17926792946
 11
9.69251289674
 21
4.69737632946
  0
LINE
  5
22C
100
AcDbEntity
  8
0
  6
ByLayer
 62
    7
370
   -1
100
AcDbLine
 10
8.83674969674
 20
3.70301852946
 11
9.14959869674
 21
4.17926792946
  0
LINE
  5
22D
100
AcDbEntity
  8
0
  6
ByLayer
 62
    7
370
   -1
100
AcDbLine
 10
8.360809896739999
 20
3.58488632946
 11
8.83674969674
 21
3.70301852946
  0
LINE
  5
22E
100
AcDbEntity
  8
0
  6
ByLayer
 62
    7
370
   -1
100
AcDbLine
 10
7.61884089674
 20
3.48969692946
 11
8.360809896739999
 21
3.58488632946
  0
LINE
  5
22F
100
AcDbEntity
  8
0
  6
ByLayer
 62
    7
370
   -1
100
AcDbLine
 10
7.24956009674
 20
3.60782912946
 11
7.61884089674
 21
3.48969692946
  0
LINE
  5
230
100
AcDbEntity
  8
0
  6
ByLayer
 62
    7
370
   -1
100
AcDbLine
 10
8.22345369674
 20
0.315317729463
 11
8.120205696739999
 21
0.410814929463
  0
LINE
  5
231
100
AcDbEntity
  8
0
  6
ByLayer
 62
    7
370
   -1
100
AcDbLine
 10
8.469020496740001
 20
0.391281329463
 11
8.22345369674
 21
0.315317729463
  0
LINE
  5
232
100
AcDbEntity
  8
0
  6
ByLayer
 62
    7
370
   -1
100
AcDbLine
 10
8.611337496739999
 20
0.562434329463
 11
8.469020496740001
 21
0.391281329463
  0
LINE
  5
233
100
AcDbEntity
  8
0
  6
ByLayer
 62
    7
370
   -1
100
AcDbLine
 10
8.51832069674
 20
0.823814129463
 11
8.611337496739999
 21
0.562434329463
  0
LINE
  5
234
100
AcDbEntity
  8
0
  6
ByLayer
 62
    7
370
   -1
100
AcDbLine
 10
8.49134589674
 20
1.08798392946
 11
8.51832069674
 21
0.823814129463
  0
LINE
  5
235
100
AcDbEntity
  8
0
  6
ByLayer
 62
    7
370
   -1
100
AcDbLine
 10
8.416311096739999
 20
1.31711672946
 11
8.49134589674
 21
1.08798392946
  0
LINE
  5
236
100
AcDbEntity
  8
0
  6
ByLayer
 62
    7
370
   -1
100
AcDbLine
 10
8.22655509674
 20
1.50842252946
 11
8.416311096739999
 21
1.31711672946
  0
LINE
  5
237
100
AcDbEntity
  8
0
  6
ByLayer
 62
    7
370
   -1
100
AcDbLine
 10
7.79247249674
 20
1.59089852946
 11
8.22655509674
 21
1.50842252946
  0
LINE
  5
238
100
AcDbEntity
  8
0
  6
ByLayer
 62
    7
370
   -1
100
AcDbLine
 10
7.71898929674
 20
1.77042332946
 11
7.79247249674
 21
1.59089852946
  0
LINE
  5
239
100
AcDbEntity
  8
0
  6
ByLayer
 62
    7
370
   -1
100
AcDbLine
 10
7.62318069674
 20
2.52882632946
 11
7.71898929674
 21
1.77042332946
  0
LINE
  5
23A
100
AcDbEntity
  8
0
  6
ByLayer
 62
    7
370
   -1
100
AcDbLine
 10
7.53698409674
 20
3.03918212946
 11
7.62318069674
 21
2.52882632946
  0
LINE
  5
23B
100
AcDbEntity
  8
0
  6
ByLayer
 62
    7
370
   -1
100
AcDbLine
 10
7.66038849674
 20
3.27606752946
 11
7.35435969674
 21
3.04848452946
  0
LINE
  5
23C
100
AcDbEntity
  8
0
  6
ByLayer
 62
    7
370
   -1
100
AcDbLine
 10
7.83340089674
 20
3.51481232946
 11
7.66038849674
 21
3.27606752946
  0
LINE
  5
23D
100
AcDbEntity
  8
0
  6
ByLayer
 62
    7
370
   -1
100
AcDbLine
 10
7.71030789674
 20
0.295163129463
 11
7.45978029674
 21
0.351594929463
  0
LINE
  5
23E
100
AcDbEntity
  8
0
  6
ByLayer
 62
    7
370
   -1
100
AcDbLine
 10
7.97075709674
 20
0.421357529463
 11
7.71030789674
 21
0.295163129463
  0
LINE
  5
23F
100
AcDbEntity
  8
0
  6
ByLayer
 62
    7
370
   -1
100
AcDbLine
 10
7.98191889674
 20
0.554372129463
 11
7.97075709674
 21
0.421357529463
  0
LINE
  5
240
100
AcDbEntity
  8
0
  6
ByLayer
 62
    7
370
   -1
100
AcDbLine
 10
7.94006169674
 20
0.784746929463
 11
7.98191889674
 21
0.554372129463
  0
LINE
  5
241
100
AcDbEntity
  8
0
  6
ByLayer
 62
    7
370
   -1
100
AcDbLine
 10
7.69914609674
 20
1.00736912946
 11
7.94006169674
 21
0.784746929463
  0
LINE
  5
242
100
AcDbEntity
  8
0
  6
ByLayer
 62
    7
370
   -1
100
AcDbLine
 10
7.22909589674
 20
0.740407529463
 11
7.27653489674
 21
0.377639129463
  0
LINE
  5
243
100
AcDbEntity
  8
0
  6
ByLayer
 62
    7
370
   -1
100
AcDbLine
 10
7.09081089674
 20
0.884274329463
 11
7.22909589674
 21
0.740407529463
  0
LINE
  5
244
100
AcDbEntity
  8
0
  6
ByLayer
 62
    7
370
   -1
100
AcDbLine
 10
6.74850669674
 20
0.323999129463
 11
7.18041669674
 21
0.291132929463
  0
LINE
  5
245
100
AcDbEntity
  8
0
  6
ByLayer
 62
    7
370
   -1
100
AcDbLine
 10
6.54138609674
 20
0.531429329463
 11
6.74850669674
 21
0.323999129463
  0
LINE
  5
246
100
AcDbEntity
  8
0
  6
ByLayer
 62
    7
370
   -1
100
AcDbLine
 10
6.51379209674
 20
0.8120313294630001
 11
6.54138609674
 21
0.531429329463
  0
LINE
  5
247
100
AcDbEntity
  8
0
  6
ByLayer
 62
    7
370
   -1
100
AcDbLine
 10
6.55130769674
 20
1.12829132946
 11
6.51379209674
 21
0.8120313294630001
  0
LINE
  5
248
100
AcDbEntity
  8
0
  6
ByLayer
 62
    7
370
   -1
100
AcDbLine
 10
6.48867669674
 20
1.45726292946
 11
6.55130769674
 21
1.12829132946
  0
LINE
  5
249
100
AcDbEntity
  8
0
  6
ByLayer
 62
    7
370
   -1
100
AcDbLine
 10
6.44526789674
 20
2.56572272946
 11
6.48867669674
 21
1.45726292946
  0
LINE
  5
24A
100
AcDbEntity
  8
0
  6
ByLayer
 62
    7
370
   -1
100
AcDbLine
 10
6.46325169674
 20
2.53316612946
 11
6.58417389674
 21
2.40542192946
  0
LINE
  5
24B
100
AcDbEntity
  8
0
  6
ByLayer
 62
    7
370
   -1
100
AcDbLine
 10
6.30016089674
 20
2.89128512946
 11
6.46325169674
 21
2.53316612946
  0
LINE
  5
24C
100
AcDbEntity
  8
0
  6
ByLayer
 62
    7
370
   -1
100
AcDbLine
 10
6.23690889674
 20
3.23700032946
 11
6.30016089674
 21
2.89128512946
  0
LINE
  5
24D
100
AcDbEntity
  8
0
  6
ByLayer
 62
    7
370
   -1
100
AcDbLine
 10
6.28434789674
 20
3.71945072946
 11
6.23690889674
 21
3.23700032946
  0
LINE
  5
24E
100
AcDbEntity
  8
0
  6
ByLayer
 62
    7
370
   -1
100
AcDbLine
 10
6.35535069674
 20
4.02020732946
 11
6.28434789674
 21
3.71945072946
  0
LINE
  5
24F
100
AcDbEntity
  8
0
  6
ByLayer
 62
    7
370
   -1
100
AcDbLine
 10
6.17799849674
 20
3.89742392946
 11
6.23287869674
 21
3.76688972946
  0
LINE
  5
250
100
AcDbEntity
  8
0
  6
ByLayer
 62
    7
370
   -1
100
AcDbLine
 10
6.16559649674
 20
4.21182452946
 11
6.17799849674
 21
3.89742392946
  0
LINE
  5
251
100
AcDbEntity
  8
0
  6
ByLayer
 62
    7
370
   -1
100
AcDbLine
 10
6.20280249674
 20
4.52808452946
 11
6.16559649674
 21
4.21182452946
  0
LINE
  5
252
100
AcDbEntity
  8
0
  6
ByLayer
 62
    7
370
   -1
100
AcDbLine
 10
6.36403389674
 20
4.65024692946
 11
6.20280249674
 21
4.52808452946
  0
LINE
  5
253
100
AcDbEntity
  8
0
  6
ByLayer
 62
    7
370
   -1
100
AcDbLine
 10
6.77362029674
 20
4.76558912946
 11
6.36403389674
 21
4.65024692946
  0
LINE
  5
254
100
AcDbEntity
  8
0
  6
ByLayer
 62
    7
370
   -1
100
AcDbLine
 10
6.96647769674
 20
4.92247892946
 11
6.77362029674
 21
4.76558912946
  0
LINE
  5
255
100
AcDbEntity
  8
0
  6
ByLayer
 62
    7
370
   -1
100
AcDbLine
 10
23.6228244967
 20
1.01605052946
 11
23.8435872967
 21
0.875592929463
  0
LINE
  5
256
100
AcDbEntity
  8
0
  6
ByLayer
 62
    7
370
   -1
100
AcDbLine
 10
23.6377068967
 20
1.48051712946
 11
23.6228244967
 21
1.01605052946
  0
LINE
  5
257
100
AcDbEntity
  8
0
  6
ByLayer
 62
    7
370
   -1
100
AcDbLine
 10
23.1440946967
 20
3.51605252946
 11
23.1794412967
 21
3.03670172946
  0
LINE
  5
258
100
AcDbEntity
  8
0
  6
ByLayer
 62
    7
370
   -1
100
AcDbLine
 10
25.9867122967
 20
1.15805612946
 11
26.1925908967
 21
1.39804292946
  0
LINE
  5
259
100
AcDbEntity
  8
0
  6
ByLayer
 62
    7
370
   -1
100
AcDbLine
 10
25.5718536967
 20
1.17510932946
 11
25.9867122967
 21
1.15805612946
  0
LINE
  5
25A
100
AcDbEntity
  8
0
  6
ByLayer
 62
    7
370
   -1
100
AcDbLine
 10
25.3762062967
 20
1.51524452946
 11
25.5718536967
 21
1.17510932946
  0
LINE
  5
25B
100
AcDbEntity
  8
0
  6
ByLayer
 62
    7
370
   -1
100
AcDbLine
 10
25.0580850967
 20
1.60236992946
 11
25.3762062967
 21
1.51524452946
  0
LINE
  5
25C
100
AcDbEntity
  8
0
  6
ByLayer
 62
    7
370
   -1
100
AcDbLine
 10
25.1200968967
 20
1.70406992946
 11
25.0580850967
 21
1.60236992946
  0
LINE
  5
25D
100
AcDbEntity
  8
0
  6
ByLayer
 62
    7
370
   -1
100
AcDbLine
 10
25.8412938967
 20
1.91459972946
 11
26.2046832967
 21
1.51462352946
  0
LINE
  5
25E
100
AcDbEntity
  8
0
  6
ByLayer
 62
    7
370
   -1
100
AcDbLine
 10
25.2379194967
 20
2.08978292946
 11
25.8412938967
 21
1.91459972946
  0
LINE
  5
25F
100
AcDbEntity
  8
0
  6
ByLayer
 62
    7
370
   -1
100
AcDbLine
 10
24.7337646967
 20
2.26899632946
 11
25.2379194967
 21
2.08978292946
  0
LINE
  5
260
100
AcDbEntity
  8
0
  6
ByLayer
 62
    7
370
   -1
100
AcDbLine
 10
24.4739346967
 20
2.55735092946
 11
24.7337646967
 21
2.26899632946
  0
LINE
  5
261
100
AcDbEntity
  8
0
  6
ByLayer
 62
    7
370
   -1
100
AcDbLine
 10
24.4975002967
 20
2.80663832946
 11
24.4739346967
 21
2.55735092946
  0
LINE
  5
262
100
AcDbEntity
  8
0
  6
ByLayer
 62
    7
370
   -1
100
AcDbLine
 10
24.5824566967
 20
3.17436752946
 11
24.4975002967
 21
2.80663832946
  0
LINE
  5
263
100
AcDbEntity
  8
0
  6
ByLayer
 62
    7
370
   -1
100
AcDbLine
 10
24.4516110967
 20
3.55046852946
 11
24.5824566967
 21
3.17436752946
  0
LINE
  5
264
100
AcDbEntity
  8
0
  6
ByLayer
 62
    7
370
   -1
100
AcDbLine
 10
24.4717656967
 20
3.88285112946
 11
24.4516110967
 21
3.55046852946
  0
LINE
  5
265
100
AcDbEntity
  8
0
  6
ByLayer
 62
    7
370
   -1
100
AcDbLine
 10
24.7591896967
 20
4.58978492946
 11
24.4717656967
 21
3.88285112946
  0
LINE
  5
266
100
AcDbEntity
  8
0
  6
ByLayer
 62
    7
370
   -1
100
AcDbLine
 10
25.0788606967
 20
5.31470252946
 11
24.7591896967
 21
4.58978492946
  0
LINE
  5
267
100
AcDbEntity
  8
0
  6
ByLayer
 62
    7
370
   -1
100
AcDbLine
 10
25.2366792967
 20
5.93419952946
 11
25.0788606967
 21
5.31470252946
  0
LINE
  5
268
100
AcDbEntity
  8
0
  6
ByLayer
 62
    7
370
   -1
100
AcDbLine
 10
25.3820976967
 20
6.45354812946
 11
25.2366792967
 21
5.93419952946
  0
LINE
  5
269
100
AcDbEntity
  8
0
  6
ByLayer
 62
    7
370
   -1
100
AcDbLine
 10
25.5966576967
 20
0.960549329463
 11
26.1191058967
 21
1.16332832946
  0
LINE
  5
26A
100
AcDbEntity
  8
0
  6
ByLayer
 62
    7
370
   -1
100
AcDbLine
 10
25.1690874967
 20
0.8774541294630001
 11
25.5966576967
 21
0.960549329463
  0
LINE
  5
26B
100
AcDbEntity
  8
0
  6
ByLayer
 62
    7
370
   -1
100
AcDbLine
 10
24.7396560967
 20
0.844278329463
 11
25.1690874967
 21
0.8774541294630001
  0
LINE
  5
26C
100
AcDbEntity
  8
0
  6
ByLayer
 62
    7
370
   -1
100
AcDbLine
 10
23.9384634967
 20
0.9952767294630001
 11
24.7396560967
 21
0.844278329463
  0
LINE
  5
26D
100
AcDbEntity
  8
0
  6
ByLayer
 62
    7
370
   -1
100
AcDbLine
 10
23.8817238967
 20
1.17542072946
 11
23.9384634967
 21
0.9952767294630001
  0
LINE
  5
26E
100
AcDbEntity
  8
0
  6
ByLayer
 62
    7
370
   -1
100
AcDbLine
 10
23.6473188967
 20
1.66314152946
 11
23.8817238967
 21
1.17542072946
  0
LINE
  5
26F
100
AcDbEntity
  8
0
  6
ByLayer
 62
    7
370
   -1
100
AcDbLine
 10
23.3102850967
 20
2.22992912946
 11
23.6473188967
 21
1.66314152946
  0
LINE
  5
270
100
AcDbEntity
  8
0
  6
ByLayer
 62
    7
370
   -1
100
AcDbLine
 10
22.9658100967
 20
2.56448252946
 11
23.3102850967
 21
2.22992912946
  0
LINE
  5
271
100
AcDbEntity
  8
0
  6
ByLayer
 62
    7
370
   -1
100
AcDbLine
 10
23.0330940967
 20
2.96476832946
 11
22.9658100967
 21
2.56448252946
  0
LINE
  5
272
100
AcDbEntity
  8
0
  6
ByLayer
 62
    7
370
   -1
100
AcDbLine
 10
23.2498248967
 20
3.35451152946
 11
23.0330940967
 21
2.96476832946
  0
LINE
  5
273
100
AcDbEntity
  8
0
  6
ByLayer
 62
    7
370
   -1
100
AcDbLine
 10
23.6280948967
 20
3.84967532946
 11
23.2498248967
 21
3.35451152946
  0
LINE
  5
274
100
AcDbEntity
  8
0
  6
ByLayer
 62
    7
370
   -1
100
AcDbLine
 10
23.7431274967
 20
4.30174172946
 11
23.6280948967
 21
3.84967532946
  0
LINE
  5
275
100
AcDbEntity
  8
0
  6
ByLayer
 62
    7
370
   -1
100
AcDbLine
 10
23.9176896967
 20
4.92154832946
 11
23.7431274967
 21
4.30174172946
  0
LINE
  5
276
100
AcDbEntity
  8
0
  6
ByLayer
 62
    7
370
   -1
100
AcDbLine
 10
22.9453458967
 20
4.78419212946
 11
23.1586674967
 21
3.56628152946
  0
LINE
  5
277
100
AcDbEntity
  8
0
  6
ByLayer
 62
    7
370
   -1
100
AcDbLine
 10
22.4976228967
 20
0.9720225294630001
 11
22.5165354967
 21
0.492360329463
  0
LINE
  5
278
100
AcDbEntity
  8
0
  6
ByLayer
 62
    7
370
   -1
100
AcDbLine
 10
22.2787212967
 20
1.06286852946
 11
22.4976228967
 21
0.9720225294630001
  0
LINE
  5
279
100
AcDbEntity
  8
0
  6
ByLayer
 62
    7
370
   -1
100
AcDbLine
 10
21.6672846967
 20
0.591579929463
 11
21.7116240967
 21
0.311906729463
  0
LINE
  5
27A
100
AcDbEntity
  8
0
  6
ByLayer
 62
    7
370
   -1
100
AcDbLine
 10
21.5972124967
 20
1.11930032946
 11
21.6672846967
 21
0.591579929463
  0
LINE
  5
27B
100
AcDbEntity
  8
0
  6
ByLayer
 62
    7
370
   -1
100
AcDbLine
 10
21.3531954967
 20
1.42439672946
 11
21.5972124967
 21
1.11930032946
  0
LINE
  5
27C
100
AcDbEntity
  8
0
  6
ByLayer
 62
    7
370
   -1
100
AcDbLine
 10
21.0961572967
 20
1.64639972946
 11
21.3531954967
 21
1.42439672946
  0
LINE
  5
27D
100
AcDbEntity
  8
0
  6
ByLayer
 62
    7
370
   -1
100
AcDbLine
 10
21.1426656967
 20
2.14528412946
 11
21.0961572967
 21
1.64639972946
  0
LINE
  5
27E
100
AcDbEntity
  8
0
  6
ByLayer
 62
    7
370
   -1
100
AcDbLine
 10
21.0115104967
 20
2.53781732946
 11
21.2623494967
 21
2.05071572946
  0
LINE
  5
27F
100
AcDbEntity
  8
0
  6
ByLayer
 62
    7
370
   -1
100
AcDbLine
 10
20.9615910967
 20
2.96693912946
 11
21.0115104967
 21
2.53781732946
  0
LINE
  5
280
100
AcDbEntity
  8
0
  6
ByLayer
 62
    7
370
   -1
100
AcDbLine
 10
20.5166580967
 20
3.33063812946
 11
21.2710308967
 21
2.68075532946
  0
LINE
  5
281
100
AcDbEntity
  8
0
  6
ByLayer
 62
    7
370
   -1
100
AcDbLine
 10
19.8360798967
 20
3.78456392946
 11
20.5166580967
 21
3.33063812946
  0
LINE
  5
282
100
AcDbEntity
  8
0
  6
ByLayer
 62
    7
370
   -1
100
AcDbLine
 10
19.2172020967
 20
4.35693152946
 11
19.8360798967
 21
3.78456392946
  0
LINE
  5
283
100
AcDbEntity
  8
0
  6
ByLayer
 62
    7
370
   -1
100
AcDbLine
 10
18.6823518967
 20
4.89953432946
 11
19.2172020967
 21
4.35693152946
  0
LINE
  5
284
100
AcDbEntity
  8
0
  6
ByLayer
 62
    7
370
   -1
100
AcDbLine
 10
18.6879318967
 20
5.18137652946
 11
18.6823518967
 21
4.89953432946
  0
LINE
  5
285
100
AcDbEntity
  8
0
  6
ByLayer
 62
    7
370
   -1
100
AcDbLine
 10
18.6386334967
 20
6.02442632946
 11
18.6879318967
 21
5.18137652946
  0
LINE
  5
286
100
AcDbEntity
  8
0
  6
ByLayer
 62
    7
370
   -1
100
AcDbLine
 10
18.4116696967
 20
6.31371152946
 11
18.6386334967
 21
6.02442632946
  0
LINE
  5
287
100
AcDbEntity
  8
0
  6
ByLayer
 62
    7
370
   -1
100
AcDbLine
 10
18.1568022967
 20
6.90034232946
 11
18.4116696967
 21
6.31371152946
  0
LINE
  5
288
100
AcDbEntity
  8
0
  6
ByLayer
 62
    7
370
   -1
100
AcDbLine
 10
18.0278178967
 20
7.65750512946
 11
18.1568022967
 21
6.90034232946
  0
LINE
  5
289
100
AcDbEntity
  8
0
  6
ByLayer
 62
    7
370
   -1
100
AcDbLine
 10
17.9289078967
 20
8.498693729459999
 11
18.0278178967
 21
7.65750512946
  0
LINE
  5
28A
100
AcDbEntity
  8
0
  6
ByLayer
 62
    7
370
   -1
100
AcDbLine
 10
21.0049998967
 20
0.582588929463
 11
21.1166214967
 21
1.11712952946
  0
LINE
  5
28B
100
AcDbEntity
  8
0
  6
ByLayer
 62
    7
370
   -1
100
AcDbLine
 10
21.1866936967
 20
0.175171529463
 11
21.0049998967
 21
0.582588929463
  0
LINE
  5
28C
100
AcDbEntity
  8
0
  6
ByLayer
 62
    7
370
   -1
100
AcDbLine
 10
21.7658832967
 20
0.197804729463
 11
21.1866936967
 21
0.175171529463
  0
LINE
  5
28D
100
AcDbEntity
  8
0
  6
ByLayer
 62
    7
370
   -1
100
AcDbLine
 10
22.6616424967
 20
0.166799729463
 11
21.7658832967
 21
0.197804729463
  0
LINE
  5
28E
100
AcDbEntity
  8
0
  6
ByLayer
 62
    7
370
   -1
100
AcDbLine
 10
23.0597574967
 20
0.579797129463
 11
22.6616424967
 21
0.166799729463
  0
LINE
  5
28F
100
AcDbEntity
  8
0
  6
ByLayer
 62
    7
370
   -1
100
AcDbLine
 10
23.0163504967
 20
0.843347729463
 11
23.0597574967
 21
0.579797129463
  0
LINE
  5
290
100
AcDbEntity
  8
0
  6
ByLayer
 62
    7
370
   -1
100
AcDbLine
 10
22.8904656967
 20
1.10348732946
 11
23.0163504967
 21
0.843347729463
  0
LINE
  5
291
100
AcDbEntity
  8
0
  6
ByLayer
 62
    7
370
   -1
100
AcDbLine
 10
22.6979196967
 20
1.36114472946
 11
22.8904656967
 21
1.10348732946
  0
LINE
  5
292
100
AcDbEntity
  8
0
  6
ByLayer
 62
    7
370
   -1
100
AcDbLine
 10
22.4979324967
 20
1.81724132946
 11
22.6979196967
 21
1.36114472946
  0
LINE
  5
293
100
AcDbEntity
  8
0
  6
ByLayer
 62
    7
370
   -1
100
AcDbLine
 10
22.4473920967
 20
2.26279532946
 11
22.4979324967
 21
1.81724132946
  0
LINE
  5
294
100
AcDbEntity
  8
0
  6
ByLayer
 62
    7
370
   -1
100
AcDbLine
 10
22.4384010967
 20
2.49409892946
 11
22.3314306967
 21
2.25814412946
  0
LINE
  5
295
100
AcDbEntity
  8
0
  6
ByLayer
 62
    7
370
   -1
100
AcDbLine
 10
22.5748266967
 20
2.81438912946
 11
22.4384010967
 21
2.49409892946
  0
LINE
  5
296
100
AcDbEntity
  8
0
  6
ByLayer
 62
    7
370
   -1
100
AcDbLine
 10
22.4793294967
 20
3.14212232946
 11
22.5748266967
 21
2.81438912946
  0
LINE
  5
297
100
AcDbEntity
  8
0
  6
ByLayer
 62
    7
370
   -1
100
AcDbLine
 10
22.1646192967
 20
3.56070152946
 11
22.4793294967
 21
3.14212232946
  0
LINE
  5
298
100
AcDbEntity
  8
0
  6
ByLayer
 62
    7
370
   -1
100
AcDbLine
 10
21.9348654967
 20
3.93277052946
 11
22.1646192967
 21
3.56070152946
  0
LINE
  5
299
100
AcDbEntity
  8
0
  6
ByLayer
 62
    7
370
   -1
100
AcDbLine
 10
21.8809158967
 20
4.46080052946
 11
21.9348654967
 21
3.93277052946
  0
LINE
  5
29A
100
AcDbEntity
  8
0
  6
ByLayer
 62
    7
370
   -1
100
AcDbLine
 10
21.6809268967
 20
4.91689712946
 11
21.8809158967
 21
4.46080052946
  0
LINE
  5
29B
100
AcDbEntity
  8
0
  6
ByLayer
 62
    7
370
   -1
100
AcDbLine
 10
21.2511858967
 20
5.31470252946
 11
21.6809268967
 21
4.91689712946
  0
LINE
  5
29C
100
AcDbEntity
  8
0
  6
ByLayer
 62
    7
370
   -1
100
AcDbLine
 10
22.2381024967
 20
5.07130652946
 11
21.6927096967
 21
5.03347952946
  0
LINE
  5
29D
100
AcDbEntity
  8
0
  6
ByLayer
 62
    7
370
   -1
100
AcDbLine
 10
22.6293972967
 20
5.23594712946
 11
22.2381024967
 21
5.07130652946
  0
LINE
  5
29E
100
AcDbEntity
  8
0
  6
ByLayer
 62
    7
370
   -1
100
AcDbLine
 10
23.2299798967
 20
5.55747752946
 11
22.6293972967
 21
5.23594712946
  0
LINE
  5
29F
100
AcDbEntity
  8
0
  6
ByLayer
 62
    7
370
   -1
100
AcDbLine
 10
23.7062310967
 20
6.08984912946
 11
23.2299798967
 21
5.55747752946
  0
LINE
  5
2A0
100
AcDbEntity
  8
0
  6
ByLayer
 62
    7
370
   -1
100
AcDbLine
 10
23.9948952967
 20
6.76391672946
 11
23.7062310967
 21
6.08984912946
  0
LINE
  5
2A1
100
AcDbEntity
  8
0
  6
ByLayer
 62
    7
370
   -1
100
AcDbLine
 10
23.9787726967
 20
7.17753512946
 11
23.9948952967
 21
6.76391672946
  0
LINE
  5
2A2
100
AcDbEntity
  8
0
  6
ByLayer
 62
    7
370
   -1
100
AcDbLine
 10
22.9574382967
 20
4.90046492946
 11
21.9227730967
 21
4.66140872946
  0
LINE
  5
2A3
100
AcDbEntity
  8
0
  6
ByLayer
 62
    7
370
   -1
100
AcDbLine
 10
23.7260742967
 20
5.16277352946
 11
22.9574382967
 21
4.90046492946
  0
LINE
  5
2A4
100
AcDbEntity
  8
0
  6
ByLayer
 62
    7
370
   -1
100
AcDbLine
 10
24.7489566967
 20
5.69979452946
 11
23.7260742967
 21
5.16277352946
  0
LINE
  5
2A5
100
AcDbEntity
  8
0
  6
ByLayer
 62
    7
370
   -1
100
AcDbLine
 10
25.1920320967
 20
6.23061632946
 11
24.7489566967
 21
5.69979452946
  0
LINE
  5
2A6
100
AcDbEntity
  8
0
  6
ByLayer
 62
    7
370
   -1
100
AcDbLine
 10
25.7420742967
 20
6.99770072946
 11
25.1920320967
 21
6.23061632946
  0
LINE
  5
2A7
100
AcDbEntity
  8
0
  6
ByLayer
 62
    7
370
   -1
100
AcDbLine
 10
26.0536848967
 20
7.50712592946
 11
25.7420742967
 21
6.99770072946
  0
LINE
  5
2A8
100
AcDbEntity
  8
0
  6
ByLayer
 62
    7
370
   -1
100
AcDbLine
 10
26.0812788967
 20
8.071433129460001
 11
26.0536848967
 21
7.50712592946
  0
LINE
  5
2A9
100
AcDbEntity
  8
0
  6
ByLayer
 62
    7
370
   -1
100
AcDbLine
 10
25.7988156967
 20
8.938667729460001
 11
25.5938676967
 21
8.25126752946
  0
LINE
  5
2AA
100
AcDbEntity
  8
0
  6
ByLayer
 62
    7
370
   -1
100
AcDbLine
 10
25.7020782967
 20
9.29957492946
 11
25.7988156967
 21
8.938667729460001
  0
LINE
  5
2AB
100
AcDbEntity
  8
0
  6
ByLayer
 62
    7
370
   -1
100
AcDbLine
 10
25.2320280967
 20
9.87752432946
 11
25.7020782967
 21
9.29957492946
  0
LINE
  5
2AC
100
AcDbEntity
  8
0
  6
ByLayer
 62
    7
370
   -1
100
AcDbLine
 10
25.1300202967
 20
10.3708287295
 11
25.2320280967
 21
9.87752432946
  0
LINE
  5
2AD
100
AcDbEntity
  8
0
  6
ByLayer
 62
    7
370
   -1
100
AcDbLine
 10
25.1117268967
 20
10.8340551295
 11
25.1300202967
 21
10.3708287295
  0
LINE
  5
2AE
100
AcDbEntity
  8
0
  6
ByLayer
 62
    7
370
   -1
100
AcDbLine
 10
25.1101752967
 20
11.2979025295
 11
25.1117268967
 21
10.8340551295
  0
LINE
  5
2AF
100
AcDbEntity
  8
0
  6
ByLayer
 62
    7
370
   -1
100
AcDbLine
 10
24.9821214967
 20
11.6076519295
 11
25.1101752967
 21
11.2979025295
  0
LINE
  5
2B0
100
AcDbEntity
  8
0
  6
ByLayer
 62
    7
370
   -1
100
AcDbLine
 10
24.0683784967
 20
10.3956327295
 11
25.0590156967
 21
10.4840001295
  0
LINE
  5
2B1
100
AcDbEntity
  8
0
  6
ByLayer
 62
    7
370
   -1
100
AcDbLine
 10
22.9695306967
 20
10.5348483295
 11
24.0683784967
 21
10.3956327295
  0
LINE
  5
2B2
100
AcDbEntity
  8
0
  6
ByLayer
 62
    7
370
   -1
100
AcDbLine
 10
22.1602776967
 20
10.8845955295
 11
22.9695306967
 21
10.5348483295
  0
LINE
  5
2B3
100
AcDbEntity
  8
0
  6
ByLayer
 62
    7
370
   -1
100
AcDbLine
 10
21.2496360967
 20
11.2963527295
 11
22.1602776967
 21
10.8845955295
  0
LINE
  5
2B4
100
AcDbEntity
  8
0
  6
ByLayer
 62
    7
370
   -1
100
AcDbLine
 10
20.7985002967
 20
11.8088793295
 11
21.2496360967
 21
11.2963527295
  0
LINE
  5
2B5
100
AcDbEntity
  8
0
  6
ByLayer
 62
    7
370
   -1
100
AcDbLine
 10
24.8763912967
 20
10.9242819295
 11
25.0723482967
 21
10.9980765295
  0
LINE
  5
2B6
100
AcDbEntity
  8
0
  6
ByLayer
 62
    7
370
   -1
100
AcDbLine
 10
24.4175046967
 20
10.7903367295
 11
24.8763912967
 21
10.9242819295
  0
LINE
  5
2B7
100
AcDbEntity
  8
0
  6
ByLayer
 62
    7
370
   -1
100
AcDbLine
 10
23.2523052967
 20
10.9270737295
 11
24.4175046967
 21
10.7903367295
  0
LINE
  5
2B8
100
AcDbEntity
  8
0
  6
ByLayer
 62
    7
370
   -1
100
AcDbLine
 10
22.3937520967
 20
11.2746483295
 11
23.2523052967
 21
10.9270737295
  0
LINE
  5
2B9
100
AcDbEntity
  8
0
  6
ByLayer
 62
    7
370
   -1
100
AcDbLine
 10
21.5820186967
 20
11.6904375295
 11
22.3937520967
 21
11.2746483295
  0
LINE
  5
2BA
100
AcDbEntity
  8
0
  6
ByLayer
 62
    7
370
   -1
100
AcDbLine
 10
20.8831470967
 20
12.1933521295
 11
21.5820186967
 21
11.6904375295
  0
LINE
  5
2BB
100
AcDbEntity
  8
0
  6
ByLayer
 62
    7
370
   -1
100
AcDbLine
 10
26.2849884967
 20
15.5857041295
 11
26.3770746967
 21
15.7714281295
  0
LINE
  5
2BC
100
AcDbEntity
  8
0
  6
ByLayer
 62
    7
370
   -1
100
AcDbLine
 10
26.0927520967
 20
15.4123803295
 11
26.2849884967
 21
15.5857041295
  0
LINE
  5
2BD
100
AcDbEntity
  8
0
  6
ByLayer
 62
    7
370
   -1
100
AcDbLine
 10
25.7957160967
 20
15.3844749295
 11
26.0927520967
 21
15.4123803295
  0
LINE
  5
2BE
100
AcDbEntity
  8
0
  6
ByLayer
 62
    7
370
   -1
100
AcDbLine
 10
26.1507318967
 20
16.4752623295
 11
26.2744458967
 21
16.2811647295
  0
LINE
  5
2BF
100
AcDbEntity
  8
0
  6
ByLayer
 62
    7
370
   -1
100
AcDbLine
 10
25.9209780967
 20
16.4166597295
 11
26.1507318967
 21
16.4752623295
  0
LINE
  5
2C0
100
AcDbEntity
  8
0
  6
ByLayer
 62
    7
370
   -1
100
AcDbLine
 10
25.7191314967
 20
16.0771455295
 11
25.9209780967
 21
16.4166597295
  0
LINE
  5
2C1
100
AcDbEntity
  8
0
  6
ByLayer
 62
    7
370
   -1
100
AcDbLine
 10
26.2505706967
 20
15.6176397295
 11
26.3426586967
 21
15.8033637295
  0
LINE
  5
2C2
100
AcDbEntity
  8
0
  6
ByLayer
 62
    7
370
   -1
100
AcDbLine
 10
26.0859300967
 20
15.5943855295
 11
26.2505706967
 21
15.6176397295
  0
LINE
  5
2C3
100
AcDbEntity
  8
0
  6
ByLayer
 62
    7
370
   -1
100
AcDbLine
 10
25.9184976967
 20
15.6377925295
 11
26.0859300967
 21
15.5943855295
  0
LINE
  5
2C4
100
AcDbEntity
  8
0
  6
ByLayer
 62
    7
370
   -1
100
AcDbLine
 10
26.2124340967
 20
15.7484835295
 11
26.4446682967
 21
15.7410423295
  0
LINE
  5
2C5
100
AcDbEntity
  8
0
  6
ByLayer
 62
    7
370
   -1
100
AcDbLine
 10
26.1218976967
 20
15.9438213295
 11
26.2124340967
 21
15.7484835295
  0
LINE
  5
2C6
100
AcDbEntity
  8
0
  6
ByLayer
 62
    7
370
   -1
100
AcDbLine
 10
25.8933840967
 20
15.8520429295
 11
26.1218976967
 21
15.9438213295
  0
LINE
  5
2C7
100
AcDbEntity
  8
0
  6
ByLayer
 62
    7
370
   -1
100
AcDbLine
 10
25.7057988967
 20
15.5630691295
 11
25.8933840967
 21
15.8520429295
  0
LINE
  5
2C8
100
AcDbEntity
  8
0
  6
ByLayer
 62
    7
370
   -1
100
AcDbLine
 10
25.4751144967
 20
15.5376441295
 11
25.7057988967
 21
15.5630691295
  0
LINE
  5
2C9
100
AcDbEntity
  8
0
  6
ByLayer
 62
    7
370
   -1
100
AcDbLine
 10
24.7319034967
 20
14.1994305295
 11
25.0121976967
 21
13.8127887295
  0
LINE
  5
2CA
100
AcDbEntity
  8
0
  6
ByLayer
 62
    7
370
   -1
100
AcDbLine
 10
24.4072734967
 20
14.4518193295
 11
24.7319034967
 21
14.1994305295
  0
LINE
  5
2CB
100
AcDbEntity
  8
0
  6
ByLayer
 62
    7
370
   -1
100
AcDbLine
 10
23.9009478967
 20
14.6806425295
 11
24.4072734967
 21
14.4518193295
  0
LINE
  5
2CC
100
AcDbEntity
  8
0
  6
ByLayer
 62
    7
370
   -1
100
AcDbLine
 10
23.3338506967
 20
15.2052615295
 11
23.9009478967
 21
14.6806425295
  0
LINE
  5
2CD
100
AcDbEntity
  8
0
  6
ByLayer
 62
    7
370
   -1
100
AcDbLine
 10
23.0185212967
 20
15.6402729295
 11
23.3338506967
 21
15.2052615295
  0
LINE
  5
2CE
100
AcDbEntity
  8
0
  6
ByLayer
 62
    7
370
   -1
100
AcDbLine
 10
23.0792910967
 20
16.2061299295
 11
23.0185212967
 21
15.6402729295
  0
LINE
  5
2CF
100
AcDbEntity
  8
0
  6
ByLayer
 62
    7
370
   -1
100
AcDbLine
 10
23.4073338967
 20
16.7161761295
 11
23.0792910967
 21
16.2061299295
  0
LINE
  5
2D0
100
AcDbEntity
  8
0
  6
ByLayer
 62
    7
370
   -1
100
AcDbLine
 10
21.9612210967
 20
15.5661705295
 11
22.3069362967
 21
16.0436601295
  0
LINE
  5
2D1
100
AcDbEntity
  8
0
  6
ByLayer
 62
    7
370
   -1
100
AcDbLine
 10
21.8409180967
 20
15.2464995295
 11
21.9612210967
 21
15.5661705295
  0
LINE
  5
2D2
100
AcDbEntity
  8
0
  6
ByLayer
 62
    7
370
   -1
100
AcDbLine
 10
21.7289868967
 20
14.7119589295
 11
21.8409180967
 21
15.2464995295
  0
LINE
  5
2D3
100
AcDbEntity
  8
0
  6
ByLayer
 62
    7
370
   -1
100
AcDbLine
 10
21.7094532967
 20
13.9489047295
 11
21.7289868967
 21
14.7119589295
  0
LINE
  5
2D4
100
AcDbEntity
  8
0
  6
ByLayer
 62
    7
370
   -1
100
AcDbLine
 10
21.8961078967
 20
13.4094015295
 11
21.7094532967
 21
13.9489047295
  0
LINE
  5
2D5
100
AcDbEntity
  8
0
  6
ByLayer
 62
    7
370
   -1
100
AcDbLine
 10
22.2762408967
 20
13.0100463295
 11
21.8961078967
 21
13.4094015295
  0
LINE
  5
2D6
100
AcDbEntity
  8
0
  6
ByLayer
 62
    7
370
   -1
100
AcDbLine
 10
22.7038110967
 20
12.6621603295
 11
22.2762408967
 21
13.0100463295
  0
LINE
  5
2D7
100
AcDbEntity
  8
0
  6
ByLayer
 62
    7
370
   -1
100
AcDbLine
 10
23.2941624967
 20
12.4035723295
 11
22.7038110967
 21
12.6621603295
  0
LINE
  5
2D8
100
AcDbEntity
  8
0
  6
ByLayer
 62
    7
370
   -1
100
AcDbLine
 10
23.8919550967
 20
11.9462355295
 11
23.2941624967
 21
12.4035723295
  0
LINE
  5
2D9
100
AcDbEntity
  8
0
  6
ByLayer
 62
    7
370
   -1
100
AcDbLine
 10
24.3660354967
 20
11.6829963295
 11
23.8919550967
 21
11.9462355295
  0
LINE
  5
2DA
100
AcDbEntity
  8
0
  6
ByLayer
 62
    7
370
   -1
100
AcDbLine
 10
25.1092446967
 20
11.7453177295
 11
24.3660354967
 21
11.6829963295
  0
LINE
  5
2DB
100
AcDbEntity
  8
0
  6
ByLayer
 62
    7
370
   -1
100
AcDbLine
 10
25.5920064967
 20
12.1121163295
 11
25.1092446967
 21
11.7453177295
  0
LINE
  5
2DC
100
AcDbEntity
  8
0
  6
ByLayer
 62
    7
370
   -1
100
AcDbLine
 10
25.7814528967
 20
12.7821537295
 11
25.5920064967
 21
12.1121163295
  0
LINE
  5
2DD
100
AcDbEntity
  8
0
  6
ByLayer
 62
    7
370
   -1
100
AcDbLine
 10
25.5644124967
 20
13.6686105295
 11
25.7814528967
 21
12.7821537295
  0
LINE
  5
2DE
100
AcDbEntity
  8
0
  6
ByLayer
 62
    7
370
   -1
100
AcDbLine
 10
24.9678582967
 20
14.5234431295
 11
25.5644124967
 21
13.6686105295
  0
LINE
  5
2DF
100
AcDbEntity
  8
0
  6
ByLayer
 62
    7
370
   -1
100
AcDbLine
 10
24.3080538967
 20
15.2930079295
 11
24.9678582967
 21
14.5234431295
  0
LINE
  5
2E0
100
AcDbEntity
  8
0
  6
ByLayer
 62
    7
370
   -1
100
AcDbLine
 10
23.7911856967
 20
15.8030541295
 11
24.3080538967
 21
15.2930079295
  0
LINE
  5
2E1
100
AcDbEntity
  8
0
  6
ByLayer
 62
    7
370
   -1
100
AcDbLine
 10
23.8556778967
 20
16.2696933295
 11
23.7911856967
 21
15.8030541295
  0
LINE
  5
2E2
100
AcDbEntity
  8
0
  6
ByLayer
 62
    7
370
   -1
100
AcDbLine
 10
24.1232586967
 20
16.6281201295
 11
23.8556778967
 21
16.2696933295
  0
LINE
  5
2E3
100
AcDbEntity
  8
0
  6
ByLayer
 62
    7
370
   -1
100
AcDbLine
 10
26.3150628967
 20
13.1179473295
 11
25.9178784967
 21
13.1024439295
  0
LINE
  5
2E4
100
AcDbEntity
  8
0
  6
ByLayer
 62
    7
370
   -1
100
AcDbLine
 10
26.7655794967
 20
13.0360923295
 11
26.3150628967
 21
13.1179473295
  0
LINE
  5
2E5
100
AcDbEntity
  8
0
  6
ByLayer
 62
    7
370
   -1
100
AcDbLine
 10
27.1488102967
 20
12.9846213295
 11
26.7655794967
 21
13.0360923295
  0
LINE
  5
2E6
100
AcDbEntity
  8
0
  6
ByLayer
 62
    7
370
   -1
100
AcDbLine
 10
27.5928144967
 20
13.0683375295
 11
27.1488102967
 21
12.9846213295
  0
LINE
  5
2E7
100
AcDbEntity
  8
0
  6
ByLayer
 62
    7
370
   -1
100
AcDbLine
 10
27.7990044967
 20
13.3083225295
 11
27.5928144967
 21
13.0683375295
  0
LINE
  5
2E8
100
AcDbEntity
  8
0
  6
ByLayer
 62
    7
370
   -1
100
AcDbLine
 10
28.1279760967
 20
13.3709553295
 11
27.5807220967
 21
13.3827363295
  0
LINE
  5
2E9
100
AcDbEntity
  8
0
  6
ByLayer
 62
    7
370
   -1
100
AcDbLine
 10
28.7195676967
 20
13.4934273295
 11
28.1279760967
 21
13.3709553295
  0
LINE
  5
2EA
100
AcDbEntity
  8
0
  6
ByLayer
 62
    7
370
   -1
100
AcDbLine
 10
29.0600124967
 20
13.6890747295
 11
28.7195676967
 21
13.4934273295
  0
LINE
  5
2EB
100
AcDbEntity
  8
0
  6
ByLayer
 62
    7
370
   -1
100
AcDbLine
 10
29.3378244967
 20
14.2136937295
 11
29.0600124967
 21
13.6890747295
  0
LINE
  5
2EC
100
AcDbEntity
  8
0
  6
ByLayer
 62
    7
370
   -1
100
AcDbLine
 10
29.2848054967
 20
14.2943085295
 11
29.3378244967
 21
14.2136937295
  0
LINE
  5
2ED
100
AcDbEntity
  8
0
  6
ByLayer
 62
    7
370
   -1
100
AcDbLine
 10
29.6233890967
 20
14.5395657295
 11
29.2848054967
 21
14.2943085295
  0
LINE
  5
2EE
100
AcDbEntity
  8
0
  6
ByLayer
 62
    7
370
   -1
100
AcDbLine
 10
29.8711248967
 20
14.9801589295
 11
29.6233890967
 21
14.5395657295
  0
LINE
  5
2EF
100
AcDbEntity
  8
0
  6
ByLayer
 62
    7
370
   -1
100
AcDbLine
 10
29.6491236967
 20
15.1537923295
 11
29.8711248967
 21
14.9801589295
  0
LINE
  5
2F0
100
AcDbEntity
  8
0
  6
ByLayer
 62
    7
370
   -1
100
AcDbLine
 10
28.6724382967
 20
15.5463255295
 11
29.6491236967
 21
15.1537923295
  0
LINE
  5
2F1
100
AcDbEntity
  8
0
  6
ByLayer
 62
    7
370
   -1
100
AcDbLine
 10
27.5695602967
 20
15.7850703295
 11
28.6724382967
 21
15.5463255295
  0
LINE
  5
2F2
100
AcDbEntity
  8
0
  6
ByLayer
 62
    7
370
   -1
100
AcDbLine
 10
26.5048188967
 20
16.3233333295
 11
27.5695602967
 21
15.7850703295
  0
LINE
  5
2F3
100
AcDbEntity
  8
0
  6
ByLayer
 62
    7
370
   -1
100
AcDbLine
 10
26.4316452967
 20
16.5028563295
 11
26.5048188967
 21
16.3233333295
  0
LINE
  5
2F4
100
AcDbEntity
  8
0
  6
ByLayer
 62
    7
370
   -1
100
AcDbLine
 10
26.1783276967
 20
17.0398773295
 11
26.4316452967
 21
16.5028563295
  0
LINE
  5
2F5
100
AcDbEntity
  8
0
  6
ByLayer
 62
    7
370
   -1
100
AcDbLine
 10
26.0781792967
 20
17.0690229295
 11
26.1783276967
 21
17.0398773295
  0
LINE
  5
2F6
100
AcDbEntity
  8
0
  6
ByLayer
 62
    7
370
   -1
100
AcDbLine
 10
25.4568210967
 20
17.2767627295
 11
26.0781792967
 21
17.0690229295
  0
LINE
  5
2F7
100
AcDbEntity
  8
0
  6
ByLayer
 62
    7
370
   -1
100
AcDbLine
 10
24.7241526967
 20
17.3638899295
 11
25.4568210967
 21
17.2767627295
  0
LINE
  5
2F8
100
AcDbEntity
  8
0
  6
ByLayer
 62
    7
370
   -1
100
AcDbLine
 10
24.1266696967
 20
17.3905551295
 11
24.7241526967
 21
17.3638899295
  0
LINE
  5
2F9
100
AcDbEntity
  8
0
  6
ByLayer
 62
    7
370
   -1
100
AcDbLine
 10
23.4312090967
 20
17.3800125295
 11
24.1266696967
 21
17.3905551295
  0
LINE
  5
2FA
100
AcDbEntity
  8
0
  6
ByLayer
 62
    7
370
   -1
100
AcDbLine
 10
22.7137326967
 20
17.0866971295
 11
23.4312090967
 21
17.3800125295
  0
LINE
  5
2FB
100
AcDbEntity
  8
0
  6
ByLayer
 62
    7
370
   -1
100
AcDbLine
 10
22.1844624967
 20
16.6352517295
 11
22.7137326967
 21
17.0866971295
  0
LINE
  5
2FC
100
AcDbEntity
  8
0
  6
ByLayer
 62
    7
370
   -1
100
AcDbLine
 10
21.6725568967
 20
16.1676837295
 11
22.1844624967
 21
16.6352517295
  0
LINE
  5
2FD
100
AcDbEntity
  8
0
  6
ByLayer
 62
    7
370
   -1
100
AcDbLine
 10
21.5032632967
 20
15.8297193295
 11
21.6725568967
 21
16.1676837295
  0
LINE
  5
2FE
100
AcDbEntity
  8
0
  6
ByLayer
 62
    7
370
   -1
100
AcDbLine
 10
21.5454318967
 20
15.5993463295
 11
21.5032632967
 21
15.8297193295
  0
LINE
  5
2FF
100
AcDbEntity
  8
0
  6
ByLayer
 62
    7
370
   -1
100
AcDbLine
 10
21.6310074967
 20
15.1057323295
 11
21.5454318967
 21
15.5993463295
  0
LINE
  5
300
100
AcDbEntity
  8
0
  6
ByLayer
 62
    7
370
   -1
100
AcDbLine
 10
21.0325956967
 20
13.4583921295
 11
21.5054340967
 21
15.3494379295
  0
LINE
  5
301
100
AcDbEntity
  8
0
  6
ByLayer
 62
    7
370
   -1
100
AcDbLine
 10
20.9029902967
 20
12.9564063295
 11
21.0325956967
 21
13.4583921295
  0
LINE
  5
302
100
AcDbEntity
  8
0
  6
ByLayer
 62
    7
370
   -1
100
AcDbLine
 10
20.8871772967
 20
12.5083719295
 11
20.9029902967
 21
12.9564063295
  0
LINE
  5
303
100
AcDbEntity
  8
0
  6
ByLayer
 62
    7
370
   -1
100
AcDbLine
 10
20.6968020967
 20
11.8712007295
 11
20.8871772967
 21
12.5083719295
  0
LINE
  5
304
100
AcDbEntity
  8
0
  6
ByLayer
 62
    7
370
   -1
100
AcDbLine
 10
20.3597682967
 20
11.5927695295
 11
20.6968020967
 21
11.8712007295
  0
LINE
  5
305
100
AcDbEntity
  8
0
  6
ByLayer
 62
    7
370
   -1
100
AcDbLine
 10
19.8742164967
 20
11.2923225295
 11
20.3597682967
 21
11.5927695295
  0
LINE
  5
306
100
AcDbEntity
  8
0
  6
ByLayer
 62
    7
370
   -1
100
AcDbLine
 10
19.2367356967
 20
11.0684601295
 11
19.8742164967
 21
11.2923225295
  0
LINE
  5
307
100
AcDbEntity
  8
0
  6
ByLayer
 62
    7
370
   -1
100
AcDbLine
 10
18.8699370967
 20
10.7063109295
 11
19.2367356967
 21
11.0684601295
  0
LINE
  5
308
100
AcDbEntity
  8
0
  6
ByLayer
 62
    7
370
   -1
100
AcDbLine
 10
18.6786294967
 20
10.0855737295
 11
18.8699370967
 21
10.7063109295
  0
LINE
  5
309
100
AcDbEntity
  8
0
  6
ByLayer
 62
    7
370
   -1
100
AcDbLine
 10
19.1635620967
 20
11.2479831295
 11
19.3970364967
 21
11.2073661295
  0
LINE
  5
30A
100
AcDbEntity
  8
0
  6
ByLayer
 62
    7
370
   -1
100
AcDbLine
 10
18.6876222967
 20
11.1298509295
 11
19.1635620967
 21
11.2479831295
  0
LINE
  5
30B
100
AcDbEntity
  8
0
  6
ByLayer
 62
    7
370
   -1
100
AcDbLine
 10
18.2154030967
 20
10.9128105295
 11
18.6876222967
 21
11.1298509295
  0
LINE
  5
30C
100
AcDbEntity
  8
0
  6
ByLayer
 62
    7
370
   -1
100
AcDbLine
 10
17.6870634967
 20
10.4446215295
 11
18.2154030967
 21
10.9128105295
  0
LINE
  5
30D
100
AcDbEntity
  8
0
  6
ByLayer
 62
    7
370
   -1
100
AcDbLine
 10
17.1484908967
 20
9.81055172946
 11
17.6870634967
 21
10.4446215295
  0
LINE
  5
30E
100
AcDbEntity
  8
0
  6
ByLayer
 62
    7
370
   -1
100
AcDbLine
 10
16.8598266967
 20
9.136484129459999
 11
17.1484908967
 21
9.81055172946
  0
LINE
  5
30F
100
AcDbEntity
  8
0
  6
ByLayer
 62
    7
370
   -1
100
AcDbLine
 10
17.0815182967
 20
11.1003957295
 11
18.0290580967
 21
11.0213307295
  0
LINE
  5
310
100
AcDbEntity
  8
0
  6
ByLayer
 62
    7
370
   -1
100
AcDbLine
 10
15.6961770967
 20
11.3611545295
 11
17.0815182967
 21
11.1003957295
  0
LINE
  5
311
100
AcDbEntity
  8
0
  6
ByLayer
 62
    7
370
   -1
100
AcDbLine
 10
14.1933228967
 20
11.6504397295
 11
15.6961770967
 21
11.3611545295
  0
LINE
  5
312
100
AcDbEntity
  8
0
  6
ByLayer
 62
    7
370
   -1
100
AcDbLine
 10
12.2638272967
 20
11.8401957295
 11
14.1933228967
 21
11.6504397295
  0
LINE
  5
313
100
AcDbEntity
  8
0
  6
ByLayer
 62
    7
370
   -1
100
AcDbLine
 10
10.3947954967
 20
11.7505881295
 11
12.2638272967
 21
11.8401957295
  0
LINE
  5
314
100
AcDbEntity
  8
0
  6
ByLayer
 62
    7
370
   -1
100
AcDbLine
 10
8.84450229674
 20
11.1431835295
 11
10.3947954967
 21
11.7505881295
  0
LINE
  5
315
100
AcDbEntity
  8
0
  6
ByLayer
 62
    7
370
   -1
100
AcDbLine
 10
7.93851009674
 20
10.5776361295
 11
8.84450229674
 21
11.1431835295
  0
LINE
  5
316
100
AcDbEntity
  8
0
  6
ByLayer
 62
    7
370
   -1
100
AcDbLine
 10
6.81795969674
 20
9.572737529459999
 11
7.93851009674
 21
10.5776361295
  0
LINE
  5
317
100
AcDbEntity
  8
0
  6
ByLayer
 62
    7
370
   -1
100
AcDbLine
 10
6.37922589674
 20
8.92595432946
 11
6.81795969674
 21
9.572737529459999
  0
LINE
  5
318
100
AcDbEntity
  8
0
  6
ByLayer
 62
    7
370
   -1
100
AcDbLine
 10
6.40310109674
 20
8.313898529459999
 11
6.37922589674
 21
8.92595432946
  0
LINE
  5
319
100
AcDbEntity
  8
0
  6
ByLayer
 62
    7
370
   -1
100
AcDbLine
 10
6.67688289674
 20
6.81662612946
 11
6.40310109674
 21
8.313898529459999
  0
LINE
  5
31A
100
AcDbEntity
  8
0
  6
ByLayer
 62
    7
370
   -1
100
AcDbLine
 10
6.88834149674
 20
6.49354592946
 11
6.67688289674
 21
6.81662612946
  0
LINE
  5
31B
100
AcDbEntity
  8
0
  6
ByLayer
 62
    7
370
   -1
100
AcDbLine
 10
7.16491509674
 20
6.20612012946
 11
6.88834149674
 21
6.49354592946
  0
LINE
  5
31C
100
AcDbEntity
  8
0
  6
ByLayer
 62
    7
370
   -1
100
AcDbLine
 10
7.16615529674
 20
4.89705392946
 11
6.95903649674
 21
6.38037452946
  0
LINE
  5
31D
100
AcDbEntity
  8
0
  6
ByLayer
 62
    7
370
   -1
100
AcDbLine
 10
7.44520749674
 20
4.54358612946
 11
7.16615529674
 21
4.89705392946
  0
ENDBLK
  5
52
330
50
100
AcDbEntity
  8
0
100
AcDbBlockEnd
  0
ENDSEC
  0
SECTION
  2
ENTITIES
  0
LINE
  5
31E
100
AcDbEntity
  8
0
  6
ByLayer
 62
    7
370
   -1
100
AcDbLine
 10
19.38419934511
 20
25.56926519425
 11
19.46651964511
 21
25.55112659425
  0
LINE
  5
31F
100
AcDbEntity
  8
0
  6
ByLayer
 62
    7
370
   -1
100
AcDbLine
 10
20.99293764511
 20
25.17207899425
 11
20.97247434511
 21
25.09115459425
  0
LINE
  5
320
100
AcDbEntity
  8
0
  6
ByLayer
 62
    7
370
   -1
100
AcDbLine
 10
20.78178954511
 20
25.34741699425
 11
20.99293764511
 21
25.17207899425
  0
LINE
  5
321
100
AcDbEntity
  8
0
  6
ByLayer
 62
    7
370
   -1
100
AcDbLine
 10
20.42088054511
 20
25.47857219425
 11
20.78178954511
 21
25.34741699425
  0
LINE
  5
322
100
AcDbEntity
  8
0
  6
ByLayer
 62
    7
370
   -1
100
AcDbLine
 10
19.44093984511
 20
25.55345129425
 11
20.42088054511
 21
25.47857219425
  0
LINE
  5
323
100
AcDbEntity
  8
0
  6
ByLayer
 62
    7
370
   -1
100
AcDbLine
 10
22.81654734511
 20
26.50688069425
 11
23.01328014511
 21
26.56036769425
  0
LINE
  5
324
100
AcDbEntity
  8
0
  6
ByLayer
 62
    7
370
   -1
100
AcDbLine
 10
22.47377694511
 20
26.48269679425
 11
22.81654734511
 21
26.50688069425
  0
LINE
  5
325
100
AcDbEntity
  8
0
  6
ByLayer
 62
    7
370
   -1
100
AcDbLine
 10
22.04171214511
 20
26.43525779425
 11
22.47377694511
 21
26.48269679425
  0
LINE
  5
326
100
AcDbEntity
  8
0
  6
ByLayer
 62
    7
370
   -1
100
AcDbLine
 10
18.42053694511
 20
26.34921689425
 11
18.05962794511
 21
26.38735439425
  0
LINE
  5
327
100
AcDbEntity
  8
0
  6
ByLayer
 62
    7
370
   -1
100
AcDbLine
 10
21.13153404511
 20
26.41107389425
 11
22.01985294511
 21
26.43851399425
  0
LINE
  5
328
100
AcDbEntity
  8
0
  6
ByLayer
 62
    7
370
   -1
100
AcDbLine
 10
19.60232424511
 20
26.42037539425
 11
21.13153404511
 21
26.41107389425
  0
LINE
  5
329
100
AcDbEntity
  8
0
  6
ByLayer
 62
    7
370
   -1
100
AcDbLine
 10
18.38472414511
 20
26.34689219425
 11
19.60232424511
 21
26.42037539425
  0
CIRCLE
  5
32A
100
AcDbEntity
  8
0
  6
ByLayer
 62
    7
370
   -1
100
AcDbCircle
 10
48.01314984504999
 20
26.07248849425
 40
0.4148577
  0
LWPOLYLINE
  5
32B
100
AcDbEntity
  8
0
  6
ByLayer
 62
    7
370
   -1
100
AcDbPolyline
 90
  104
 70
    0
 43
0
 10
48.79542722245
 20
26.35107698905
 10
48.73834391755
 20
26.47192970725
 10
48.6780798595
 20
26.57480673265
 10
48.61530774249999
 20
26.66113113535
 10
48.5507002618
 20
26.73232597735
 10
48.484930111
 20
26.78981432335
 10
48.4186699852
 20
26.83501923805
 10
48.3525925786
 20
26.86936378885
 10
48.28737058554999
 20
26.89427103505
 10
48.2236767007
 20
26.91116404675
 10
48.1621836187
 20
26.92146588865
 10
48.10350853375
 20
26.92654460755
 10
48.04769568205
 20
26.92720032685
 10
47.99445128485
 20
26.92389810535
 10
47.94347719405
 20
26.91709868185
 10
47.89447526230001
 20
26.90726279245
 10
47.84714734164999
 20
26.89485116785
 10
47.8011952843
 20
26.88032454955
 10
47.75632094275
 20
26.86414366555
 10
47.7122261692
 20
26.84676925465
 10
47.66861281600001
 20
26.82866205295
 10
47.6251882354
 20
26.81027468305
 10
47.5818735988
 20
26.79174446965
 10
47.53886783545001
 20
26.77279914745
 10
47.49638843814999
 20
26.75313907855
 10
47.45465289894999
 20
26.73246462505
 10
47.41387871065
 20
26.71047615175
 10
47.37428336575
 20
26.68687402345
 10
47.33608435674999
 20
26.66135859685
 10
47.29949917585
 20
26.63363023675
 10
47.26474531585001
 20
26.60338930795
 10
47.2320402574
 20
26.57033628055
 10
47.20158576055
 20
26.53431810235
 10
47.17353687535
 20
26.49561693415
 10
47.14804001545
 20
26.45459540485
 10
47.12524159479999
 20
26.41161614605
 10
47.10528802675
 20
26.36704178665
 10
47.08832572555001
 20
26.32123495555
 10
47.07450110425
 20
26.27455828435
 10
47.06396057695
 20
26.22737439655
 10
47.0568505576
 20
26.18004592645
 10
47.0533174597
 20
26.13293550295
 10
47.05346414935001
 20
26.08636939945
 10
47.05707165175001
 20
26.04040519345
 10
47.06377674069999
 20
25.99498003705
 10
47.07321551035
 20
25.95003051265
 10
47.08502405425
 20
25.90549319995
 10
47.09883846610001
 20
25.86130468675
 10
47.1142948399
 20
25.81740155275
 10
47.1310292695
 20
25.77372038035
 10
47.14867784845001
 20
25.73019774925
 10
47.1668766703
 20
25.68677024725
 10
47.1852756178
 20
25.64338031305
 10
47.20384170505
 20
25.60010520175
 10
47.22285907854999
 20
25.55715696595
 10
47.24262567325
 20
25.51475352535
 10
47.2634394238
 20
25.47311279965
 10
47.28559826575
 20
25.43245270315
 10
47.3094001333
 20
25.39299115825
 10
47.33514296169999
 20
25.35494607925
 10
47.36312468605
 20
25.31853538585
 10
47.39364324099999
 20
25.28397699775
 10
47.42699568250001
 20
25.25148873745
 10
47.46329270785
 20
25.22126821255
 10
47.50222922335
 20
25.19346794065
 10
47.5434438772
 20
25.16823433735
 10
47.58657531670001
 20
25.14571381285
 10
47.63126218885
 20
25.12605278275
 10
47.67714314200001
 20
25.10939765995
 10
47.72385682285
 20
25.09589486005
 10
47.77104187945
 20
25.08569079595
 10
47.81833695925
 20
25.07893187785
 10
47.86538070939999
 20
25.07576452675
 10
47.9118628705
 20
25.07627288545
 10
47.95774952950001
 20
25.08020435005
 10
48.00309977814999
 20
25.08719296525
 10
48.04797277765
 20
25.09687269745
 10
48.0924276892
 20
25.10887751575
 10
48.13652367429999
 20
25.12284138385
 10
48.18031989445
 20
25.13839826545
 10
48.223875511
 20
25.15518212965
 10
48.2672496847
 20
25.17282694015
 10
48.31050157795
 20
25.19096666335
 10
48.35368413805001
 20
25.20926744965
 10
48.3967573453
 20
25.22787702685
 10
48.43960961245
 20
25.24731384085
 10
48.48212751145
 20
25.26810587665
 10
48.52419761439999
 20
25.29078111385
 10
48.56570649325
 20
25.31586754015
 10
48.6065407195
 20
25.34389313785
 10
48.6465868654
 20
25.37538588655
 10
48.6857315029
 20
25.41087377395
 10
48.72386120395
 20
25.45088478235
 10
48.7608565165
 20
25.49594686435
 10
48.7961319406
 20
25.54658590705
 10
48.82831199125
 20
25.60332427405
 10
48.85594466155
 20
25.66668398875
 10
48.87757794384999
 20
25.73718707455
 10
48.89175983155
 20
25.81535555755
 10
48.89703831760001
 20
25.90171146385
 10
48.89196139435001
 20
25.99677681415
 10
48.87507705565
 20
26.10107363725
 10
48.8449332937
 20
26.21512395385
 10
48.8000781013
 20
26.33944979275
  0
LINE
  5
32C
100
AcDbEntity
  8
0
  6
ByLayer
 62
    7
370
   -1
100
AcDbLine
 10
41.03636604505
 20
28.07748419425
 11
41.17356654505
 21
28.41606689425
  0
LINE
  5
32D
100
AcDbEntity
  8
0
  6
ByLayer
 62
    7
370
   -1
100
AcDbLine
 10
40.98148584505
 20
27.88493639425
 11
41.03636604505
 21
28.07748419425
  0
LINE
  5
32E
100
AcDbEntity
  8
0
  6
ByLayer
 62
    7
370
   -1
100
AcDbLine
 10
20.94829044511
 20
25.17487079425
 11
21.00317064511
 21
25.13859359425
  0
LINE
  5
32F
100
AcDbEntity
  8
0
  6
ByLayer
 62
    7
370
   -1
100
AcDbLine
 10
29.60962044505
 20
11.88079709419
 11
29.52730014505
 21
11.50500569419
  0
LINE
  5
330
100
AcDbEntity
  8
0
  6
ByLayer
 62
    7
370
   -1
100
AcDbLine
 10
29.53660164505
 20
12.52168799419
 11
29.60962044505
 21
11.88079709419
  0
LINE
  5
331
100
AcDbEntity
  8
0
  6
ByLayer
 62
    7
370
   -1
100
AcDbLine
 10
28.98686814505
 20
12.60400829419
 11
29.53660164505
 21
12.52168799419
  0
LINE
  5
332
100
AcDbEntity
  8
0
  6
ByLayer
 62
    7
370
   -1
100
AcDbLine
 10
45.77003034505
 20
11.3040878941945
 11
46.33743804505
 21
11.3864081941945
  0
LINE
  5
333
100
AcDbEntity
  8
0
  6
ByLayer
 62
    7
370
   -1
100
AcDbLine
 10
41.80515594505
 20
12.19194239419
 11
41.72330004505
 21
11.71569209419
  0
LINE
  5
334
100
AcDbEntity
  8
0
  6
ByLayer
 62
    7
370
   -1
100
AcDbLine
 10
25.60847154505
 20
13.98671609419
 11
26.00239884505
 21
13.51976729419
  0
LINE
  5
335
100
AcDbEntity
  8
0
  6
ByLayer
 62
    7
370
   -1
100
AcDbLine
 10
54.10161474505
 20
32.06933159425
 11
54.29416254505001
 21
32.07863309425
  0
LINE
  5
336
100
AcDbEntity
  8
0
  6
ByLayer
 62
    7
370
   -1
100
AcDbLine
 10
54.06487314505001
 20
32.05119299425
 11
54.10161474505
 21
32.06933159425
  0
LINE
  5
337
100
AcDbEntity
  8
0
  6
ByLayer
 62
    7
370
   -1
100
AcDbLine
 10
54.21137514505001
 20
32.11537739425
 11
54.06487314505001
 21
32.05119299425
  0
LINE
  5
338
100
AcDbEntity
  8
0
  6
ByLayer
 62
    7
370
   -1
100
AcDbLine
 10
54.30299694505
 20
32.21583629425
 11
54.21137514505001
 21
32.11537739425
  0
LINE
  5
339
100
AcDbEntity
  8
0
  6
ByLayer
 62
    7
370
   -1
100
AcDbLine
 10
49.06610934505
 20
22.28155889419
 11
49.16656824505
 21
22.05273389419
  0
LINE
  5
33A
100
AcDbEntity
  8
0
  6
ByLayer
 62
    7
370
   -1
100
AcDbLine
 10
48.94704474505
 20
22.69362479419
 11
49.06610934505
 21
22.28155889419
  0
LINE
  5
33B
100
AcDbEntity
  8
0
  6
ByLayer
 62
    7
370
   -1
100
AcDbLine
 10
48.62660064505
 20
23.04151169419
 11
48.94704474505
 21
22.69362479419
  0
LINE
  5
33C
100
AcDbEntity
  8
0
  6
ByLayer
 62
    7
370
   -1
100
AcDbLine
 10
54.19044744505
 20
31.70051699425
 11
54.34067004505
 21
31.68144959425
  0
LINE
  5
33D
100
AcDbEntity
  8
0
  6
ByLayer
 62
    7
370
   -1
100
AcDbLine
 10
53.63885364505001
 20
31.82795159425
 11
54.19044744505
 21
31.70051699425
  0
LINE
  5
33E
100
AcDbEntity
  8
0
  6
ByLayer
 62
    7
370
   -1
100
AcDbLine
 10
53.40770394505
 20
32.01770759425
 11
53.63885364505001
 21
31.82795159425
  0
LINE
  5
33F
100
AcDbEntity
  8
0
  6
ByLayer
 62
    7
370
   -1
100
AcDbLine
 10
53.84395644505
 20
32.30838689425001
 11
53.40770394505
 21
32.01770759425
  0
LINE
  5
340
100
AcDbEntity
  8
0
  6
ByLayer
 62
    7
370
   -1
100
AcDbLine
 10
53.96208954505
 20
32.46186569424999
 11
53.84395644505
 21
32.30838689425001
  0
LINE
  5
341
100
AcDbEntity
  8
0
  6
ByLayer
 62
    7
370
   -1
100
AcDbLine
 10
54.24811674505
 20
32.77161509425
 11
53.96208954505
 21
32.46186569424999
  0
LINE
  5
342
100
AcDbEntity
  8
0
  6
ByLayer
 62
    7
370
   -1
100
AcDbLine
 10
49.06843404505
 20
30.48152369425
 11
49.54096374504999
 21
30.47501129425
  0
LINE
  5
343
100
AcDbEntity
  8
0
  6
ByLayer
 62
    7
370
   -1
100
AcDbLine
 10
48.39126594504999
 20
30.62895449425
 11
49.06843404505
 21
30.48152369425
  0
LWPOLYLINE
  5
344
100
AcDbEntity
  8
0
  6
ByLayer
 62
    7
370
   -1
100
AcDbPolyline
 90
  104
 70
    0
 43
0
 10
48.818681617
 20
26.04737459545
 10
48.81647009154999
 20
26.17209319255
 10
48.8046245428
 20
26.28273258025
 10
48.7842690364
 20
26.38024593145
 10
48.75652763860001
 20
26.46558642985
 10
48.72252441505
 20
26.53970725105
 10
48.6833834314
 20
26.60356157605
 10
48.6402287539
 20
26.65810258585
 10
48.59418444805
 20
26.70428345335
 10
48.54637458009999
 20
26.74305736225
 10
48.4979232157
 20
26.77537749085
 10
48.4498855873
 20
26.80217147005
 10
48.40260631795
 20
26.82410318125
 10
48.35601080935
 20
26.84168091565
 10
48.31001904444999
 20
26.85541095025
 10
48.26455100665
 20
26.86579955665
 10
48.21952667905
 20
26.87335301455
 10
48.1748660449
 20
26.87857760095
 10
48.130489087
 20
26.88197959285
 10
48.08631578920001
 20
26.88406526455
 10
48.0422661346
 20
26.88534089575
 10
47.99826172195
 20
26.88630375355
 10
47.954286982
 20
26.88710104195
 10
47.9104079644
 20
26.88742521205
 10
47.86669617355
 20
26.88693831565
 10
47.82322311354999
 20
26.88530241265
 10
47.7800602888
 20
26.88217956025
 10
47.737279204
 20
26.87723181295
 10
47.69495136325001
 20
26.87012123065
 10
47.6531482708
 20
26.86050986515
 10
47.61194143165
 20
26.84805977635
 10
47.57140238155
 20
26.83243311865
 10
47.53164520555001
 20
26.81342251585
 10
47.49291041455
 20
26.79120826315
 10
47.4554618935
 20
26.76604232455
 10
47.41956352779999
 20
26.73817667215
 10
47.3854792027
 20
26.70786326995
 10
47.3534728033
 20
26.67535408735
 10
47.32380821515
 20
26.64090109105
 10
47.29674932304999
 20
26.60475625315
 10
47.27256001225
 20
26.56717153765
 10
47.251504168
 20
26.52839891125
 10
47.23379461014999
 20
26.48867617915
 10
47.21926675255
 20
26.44813645945
 10
47.20758685494999
 20
26.40686594965
 10
47.19842037879999
 20
26.36495062045
 10
47.19143278585
 20
26.32247645065
 10
47.18628953740001
 20
26.27952941905
 10
47.18265609565
 20
26.23619549365
 10
47.1801979219
 20
26.19256065595
 10
47.17858047805
 20
26.14871087935
 10
47.17746922555
 20
26.10473213995
 10
47.17654361829999
 20
26.06071011145
 10
47.17580493339999
 20
26.01672353125
 10
47.17557627039999
 20
25.97284421125
 10
47.17619472160001
 20
25.92914365015
 10
47.177997379
 20
25.88569335205
 10
47.18132133445
 20
25.84256482645
 10
47.1865036804
 20
25.79982957475
 10
47.1938815087
 20
25.75755910105
 10
47.20379191135
 20
25.71582491215
 10
47.21657198035
 20
25.67469850945
 10
47.2325580235
 20
25.63425165085
 10
47.25191995990001
 20
25.59461024005
 10
47.27445647815
 20
25.55602096525
 10
47.2999160359
 20
25.51874686045
 10
47.32804709065
 20
25.48305095965
 10
47.35859810065001
 20
25.44919629685
 10
47.39131752340001
 20
25.41744590605
 10
47.425953817
 20
25.38806281855
 10
47.46225543880001
 20
25.36131007375
 10
47.49997084704999
 20
25.33745070025
 10
47.5388484994
 20
25.31674773475
 10
47.57865588400001
 20
25.29939165955
 10
47.61926342020001
 20
25.28518052545
 10
47.66057616850001
 20
25.27378032355
 10
47.70249921475
 20
25.26485693965
 10
47.7449376463
 20
25.25807626225
 10
47.78779654885
 20
25.25310417445
 10
47.8309810093
 20
25.24960657015
 10
47.87439611395
 20
25.24724932975
 10
47.91794694924999
 20
25.24569834445
 10
47.9615386015
 20
25.24461950275
 10
48.0050836192
 20
25.24370803945
 10
48.04860620455
 20
25.24309835245
 10
48.09221651035
 20
25.24326291745
 10
48.1360269007
 20
25.24468289335
 10
48.18014974
 20
25.24783944445
 10
48.22469739145001
 20
25.25321374045
 10
48.2697822199
 20
25.26128694295
 10
48.31551658869999
 20
25.27254021895
 10
48.36201286240001
 20
25.28745473005
 10
48.40938340495
 20
25.30651164325
 10
48.4577355868
 20
25.33019448535
 10
48.5067904552
 20
25.35916949755
 10
48.55561421125
 20
25.39441263265
 10
48.60320962435
 20
25.43692985125
 10
48.64857946345
 20
25.48772710585
 10
48.69072649825
 20
25.54781035165
 10
48.72865349769999
 20
25.61818554925
 10
48.76136323135
 20
25.69985864845
 10
48.78785846829999
 20
25.79383560985
 10
48.80714197765
 20
25.90112238865
 10
48.81821652910001
 20
26.02272493735
  0
LINE
  5
345
100
AcDbEntity
  8
0
  6
ByLayer
 62
    7
370
   -1
100
AcDbLine
 10
17.82057264511
 20
25.50787259425
 11
19.38419934511
 21
25.56926519425
  0
LINE
  5
346
100
AcDbEntity
  8
0
  6
ByLayer
 62
    7
370
   -1
100
AcDbLine
 10
16.21229874511
 20
25.32090839425
 11
17.82057264511
 21
25.50787259425
  0
LINE
  5
347
100
AcDbEntity
  8
0
  6
ByLayer
 62
    7
370
   -1
100
AcDbLine
 10
14.95470084511
 20
25.07301599425
 11
16.21229874511
 21
25.32090839425
  0
LINE
  5
348
100
AcDbEntity
  8
0
  6
ByLayer
 62
    7
370
   -1
100
AcDbLine
 10
13.29108234511
 20
25.03301819425
 11
14.95470084511
 21
25.07301599425
  0
LINE
  5
349
100
AcDbEntity
  8
0
  6
ByLayer
 62
    7
370
   -1
100
AcDbLine
 10
12.11022384511
 20
25.35951029425
 11
13.29108234511
 21
25.03301819425
  0
LINE
  5
34A
100
AcDbEntity
  8
0
  6
ByLayer
 62
    7
370
   -1
100
AcDbLine
 10
10.5977594451145
 20
25.89715049425
 11
12.11022384511
 21
25.35951029425
  0
LINE
  5
34B
100
AcDbEntity
  8
0
  6
ByLayer
 62
    7
370
   -1
100
AcDbLine
 10
10.4954402451145
 20
25.96784459425
 11
10.5977594451145
 21
25.89715049425
  0
LINE
  5
34C
100
AcDbEntity
  8
0
  6
ByLayer
 62
    7
370
   -1
100
AcDbLine
 10
11.0414531451145
 20
25.98877229425
 11
10.4954402451145
 21
25.96784459425
  0
LINE
  5
34D
100
AcDbEntity
  8
0
  6
ByLayer
 62
    7
370
   -1
100
AcDbLine
 10
12.36648894511
 20
25.79204219425
 11
11.0414531451145
 21
25.98877229425
  0
LINE
  5
34E
100
AcDbEntity
  8
0
  6
ByLayer
 62
    7
370
   -1
100
AcDbLine
 10
13.28457264511
 20
25.82785229425
 11
12.36648894511
 21
25.79204219425
  0
LINE
  5
34F
100
AcDbEntity
  8
0
  6
ByLayer
 62
    7
370
   -1
100
AcDbLine
 10
14.52961284511
 20
25.77715979425
 11
13.28457264511
 21
25.82785229425
  0
LINE
  5
350
100
AcDbEntity
  8
0
  6
ByLayer
 62
    7
370
   -1
100
AcDbLine
 10
16.15695414511
 20
26.11434659425
 11
14.52961284511
 21
25.77715979425
  0
LINE
  5
351
100
AcDbEntity
  8
0
  6
ByLayer
 62
    7
370
   -1
100
AcDbLine
 10
18.05962794511
 20
26.38735439425
 11
16.15695414511
 21
26.11434659425
  0
LINE
  5
352
100
AcDbEntity
  8
0
  6
ByLayer
 62
    7
370
   -1
100
AcDbLine
 10
28.02134544505
 20
11.88823829419
 11
28.23621684505
 21
11.4738449941945
  0
LINE
  5
353
100
AcDbEntity
  8
0
  6
ByLayer
 62
    7
370
   -1
100
AcDbLine
 10
27.56462964505
 20
12.11892359419
 11
28.02134544505
 21
11.88823829419
  0
LINE
  5
354
100
AcDbEntity
  8
0
  6
ByLayer
 62
    7
370
   -1
100
AcDbLine
 10
29.03523864505
 20
11.3808272941945
 11
28.75851024505
 21
11.4696599941945
  0
LINE
  5
355
100
AcDbEntity
  8
0
  6
ByLayer
 62
    7
370
   -1
100
AcDbLine
 10
29.54776614505
 20
11.62453469419
 11
29.03523864505
 21
11.3808272941945
  0
LINE
  5
356
100
AcDbEntity
  8
0
  6
ByLayer
 62
    7
370
   -1
100
AcDbLine
 10
30.05424564505
 20
12.01706879419
 11
29.54776614505
 21
11.62453469419
  0
LINE
  5
357
100
AcDbEntity
  8
0
  6
ByLayer
 62
    7
370
   -1
100
AcDbLine
 10
29.85565254505
 20
12.65563499419
 11
30.05424564505
 21
12.01706879419
  0
LINE
  5
358
100
AcDbEntity
  8
0
  6
ByLayer
 62
    7
370
   -1
100
AcDbLine
 10
29.23987704505
 20
13.15374179419
 11
29.85565254505
 21
12.65563499419
  0
LINE
  5
359
100
AcDbEntity
  8
0
  6
ByLayer
 62
    7
370
   -1
100
AcDbLine
 10
28.82734404505
 20
12.88910669419
 11
29.23987704505
 21
13.15374179419
  0
LINE
  5
35A
100
AcDbEntity
  8
0
  6
ByLayer
 62
    7
370
   -1
100
AcDbLine
 10
28.14087444505
 20
13.28443259419
 11
28.82734404505
 21
12.88910669419
  0
LINE
  5
35B
100
AcDbEntity
  8
0
  6
ByLayer
 62
    7
370
   -1
100
AcDbLine
 10
27.90786444505
 20
13.52395229419
 11
28.14087444505
 21
13.28443259419
  0
LINE
  5
35C
100
AcDbEntity
  8
0
  6
ByLayer
 62
    7
370
   -1
100
AcDbLine
 10
27.08884644505
 20
14.75969099419
 11
27.90786444505
 21
13.52395229419
  0
LINE
  5
35D
100
AcDbEntity
  8
0
  6
ByLayer
 62
    7
370
   -1
100
AcDbLine
 10
27.11628654505
 20
15.33267959419
 11
27.08884644505
 21
14.75969099419
  0
LINE
  5
35E
100
AcDbEntity
  8
0
  6
ByLayer
 62
    7
370
   -1
100
AcDbLine
 10
27.54835134505
 20
15.72195749419
 11
27.11628654505
 21
15.33267959419
  0
LINE
  5
35F
100
AcDbEntity
  8
0
  6
ByLayer
 62
    7
370
   -1
100
AcDbLine
 10
28.49341074505
 20
16.35540719419
 11
27.54835134505
 21
15.72195749419
  0
LINE
  5
360
100
AcDbEntity
  8
0
  6
ByLayer
 62
    7
370
   -1
100
AcDbLine
 10
28.84780734505
 20
16.81677509419
 11
28.49341074505
 21
16.35540719419
  0
LINE
  5
361
100
AcDbEntity
  8
0
  6
ByLayer
 62
    7
370
   -1
100
AcDbLine
 10
29.15941704505
 20
17.74834529419
 11
28.84780734505
 21
16.81677509419
  0
LINE
  5
362
100
AcDbEntity
  8
0
  6
ByLayer
 62
    7
370
   -1
100
AcDbLine
 10
28.82315904505
 20
11.72034149419
 11
28.49806284505
 21
12.40402199419
  0
LINE
  5
363
100
AcDbEntity
  8
0
  6
ByLayer
 62
    7
370
   -1
100
AcDbLine
 10
28.73479074505
 20
11.4436157941945
 11
28.82315904505
 21
11.72034149419
  0
LINE
  5
364
100
AcDbEntity
  8
0
  6
ByLayer
 62
    7
370
   -1
100
AcDbLine
 10
28.25109924505
 20
11.1017741941945
 11
28.73479074505
 21
11.4436157941945
  0
LINE
  5
365
100
AcDbEntity
  8
0
  6
ByLayer
 62
    7
370
   -1
100
AcDbLine
 10
27.20279184505
 20
11.2096742941945
 11
28.25109924505
 21
11.1017741941945
  0
LINE
  5
366
100
AcDbEntity
  8
0
  6
ByLayer
 62
    7
370
   -1
100
AcDbLine
 10
26.78607384505
 20
11.69057669419
 11
27.20279184505
 21
11.2096742941945
  0
LINE
  5
367
100
AcDbEntity
  8
0
  6
ByLayer
 62
    7
370
   -1
100
AcDbLine
 10
26.34563364505
 20
12.79190399419
 11
26.78607384505
 21
11.69057669419
  0
LINE
  5
368
100
AcDbEntity
  8
0
  6
ByLayer
 62
    7
370
   -1
100
AcDbLine
 10
25.60381944505
 20
14.60202719419
 11
26.34563364505
 21
12.79190399419
  0
LINE
  5
369
100
AcDbEntity
  8
0
  6
ByLayer
 62
    7
370
   -1
100
AcDbLine
 10
24.84805164511
 20
15.49220369419
 11
25.57870404505
 21
13.97973929419
  0
LINE
  5
36A
100
AcDbEntity
  8
0
  6
ByLayer
 62
    7
370
   -1
100
AcDbLine
 10
25.45220094505
 20
17.20605299419
 11
24.84805164511
 21
15.49220369419
  0
LINE
  5
36B
100
AcDbEntity
  8
0
  6
ByLayer
 62
    7
370
   -1
100
AcDbLine
 10
25.39964544505
 20
17.27860739419
 11
25.45220094505
 21
17.20605299419
  0
LINE
  5
36C
100
AcDbEntity
  8
0
  6
ByLayer
 62
    7
370
   -1
100
AcDbLine
 10
25.12524444505
 20
17.31767369419
 11
25.39964544505
 21
17.27860739419
  0
LINE
  5
36D
100
AcDbEntity
  8
0
  6
ByLayer
 62
    7
370
   -1
100
AcDbLine
 10
30.32446164505
 20
19.11151859419
 11
30.83094114505
 21
18.85758089419
  0
LINE
  5
36E
100
AcDbEntity
  8
0
  6
ByLayer
 62
    7
370
   -1
100
AcDbLine
 10
29.77333224505
 20
19.21430219419
 11
30.32446164505
 21
19.11151859419
  0
LINE
  5
36F
100
AcDbEntity
  8
0
  6
ByLayer
 62
    7
370
   -1
100
AcDbLine
 10
29.09337504505
 20
19.43615039419
 11
29.77333224505
 21
19.21430219419
  0
LINE
  5
370
100
AcDbEntity
  8
0
  6
ByLayer
 62
    7
370
   -1
100
AcDbLine
 10
28.22133444505
 20
19.50172799419
 11
29.09337504505
 21
19.43615039419
  0
LINE
  5
371
100
AcDbEntity
  8
0
  6
ByLayer
 62
    7
370
   -1
100
AcDbLine
 10
27.35441034505
 20
19.41801179419
 11
28.22133444505
 21
19.50172799419
  0
LINE
  5
372
100
AcDbEntity
  8
0
  6
ByLayer
 62
    7
370
   -1
100
AcDbLine
 10
26.89723014505
 20
19.02733799419
 11
27.35441034505
 21
19.41801179419
  0
LINE
  5
373
100
AcDbEntity
  8
0
  6
ByLayer
 62
    7
370
   -1
100
AcDbLine
 10
30.18772554505
 20
18.78316619419
 11
29.42312064505
 21
19.27523039419
  0
LINE
  5
374
100
AcDbEntity
  8
0
  6
ByLayer
 62
    7
370
   -1
100
AcDbLine
 10
30.26772114505
 20
18.01577219419
 11
30.18772554505
 21
18.78316619419
  0
LINE
  5
375
100
AcDbEntity
  8
0
  6
ByLayer
 62
    7
370
   -1
100
AcDbLine
 10
30.28399944505
 20
17.59347329419
 11
30.26772114505
 21
18.01577219419
  0
LINE
  5
376
100
AcDbEntity
  8
0
  6
ByLayer
 62
    7
370
   -1
100
AcDbLine
 10
29.83751394505
 20
17.57626349419
 11
30.28399944505
 21
17.59347329419
  0
LINE
  5
377
100
AcDbEntity
  8
0
  6
ByLayer
 62
    7
370
   -1
100
AcDbLine
 10
29.33521944505
 20
17.70555839419
 11
29.83751394505
 21
17.57626349419
  0
LINE
  5
378
100
AcDbEntity
  8
0
  6
ByLayer
 62
    7
370
   -1
100
AcDbLine
 10
28.72502484505
 20
18.05483849419
 11
29.33521944505
 21
17.70555839419
  0
LINE
  5
379
100
AcDbEntity
  8
0
  6
ByLayer
 62
    7
370
   -1
100
AcDbLine
 10
27.67020504505
 20
18.33668339419
 11
28.72502484505
 21
18.05483849419
  0
LINE
  5
37A
100
AcDbEntity
  8
0
  6
ByLayer
 62
    7
370
   -1
100
AcDbLine
 10
26.51771814505
 20
18.56504129419
 11
27.67020504505
 21
18.33668339419
  0
LINE
  5
37B
100
AcDbEntity
  8
0
  6
ByLayer
 62
    7
370
   -1
100
AcDbLine
 10
38.74952814505
 20
15.93590009419
 11
39.26996124505
 21
15.98101169419
  0
LINE
  5
37C
100
AcDbEntity
  8
0
  6
ByLayer
 62
    7
370
   -1
100
AcDbLine
 10
38.15514744505
 20
15.88752959419
 11
38.74952814505
 21
15.93590009419
  0
LINE
  5
37D
100
AcDbEntity
  8
0
  6
ByLayer
 62
    7
370
   -1
100
AcDbLine
 10
36.98405484505
 20
15.96612929419
 11
38.15514744505
 21
15.88752959419
  0
LINE
  5
37E
100
AcDbEntity
  8
0
  6
ByLayer
 62
    7
370
   -1
100
AcDbLine
 10
35.28090294505
 20
16.29727079419
 11
36.98405484505
 21
15.96612929419
  0
LINE
  5
37F
100
AcDbEntity
  8
0
  6
ByLayer
 62
    7
370
   -1
100
AcDbLine
 10
34.13864634505001
 20
16.89909539419
 11
35.28090294505
 21
16.29727079419
  0
LINE
  5
380
100
AcDbEntity
  8
0
  6
ByLayer
 62
    7
370
   -1
100
AcDbLine
 10
32.14249044505
 20
17.74090409419
 11
34.13864634505001
 21
16.89909539419
  0
LINE
  5
381
100
AcDbEntity
  8
0
  6
ByLayer
 62
    7
370
   -1
100
AcDbLine
 10
31.01465184505
 20
18.61620089419
 11
32.14249044505
 21
17.74090409419
  0
LINE
  5
382
100
AcDbEntity
  8
0
  6
ByLayer
 62
    7
370
   -1
100
AcDbLine
 10
29.79984354505
 20
19.81194179419
 11
31.01465184505
 21
18.61620089419
  0
LINE
  5
383
100
AcDbEntity
  8
0
  6
ByLayer
 62
    7
370
   -1
100
AcDbLine
 10
29.02640154505
 20
20.52724739419
 11
29.79984354505
 21
19.81194179419
  0
LINE
  5
384
100
AcDbEntity
  8
0
  6
ByLayer
 62
    7
370
   -1
100
AcDbLine
 10
28.35388554505
 20
21.19697429419
 11
29.02640154505
 21
20.52724739419
  0
LINE
  5
385
100
AcDbEntity
  8
0
  6
ByLayer
 62
    7
370
   -1
100
AcDbLine
 10
28.13575794505
 20
21.68531519419
 11
28.35388554505
 21
21.19697429419
  0
LINE
  5
386
100
AcDbEntity
  8
0
  6
ByLayer
 62
    7
370
   -1
100
AcDbLine
 10
27.93809634505
 20
22.29923039419
 11
28.13575794505
 21
21.68531519419
  0
LINE
  5
387
100
AcDbEntity
  8
0
  6
ByLayer
 62
    7
370
   -1
100
AcDbLine
 10
26.24378154505
 20
18.57945929419
 11
25.75450914505
 21
17.73997529419
  0
LINE
  5
388
100
AcDbEntity
  8
0
  6
ByLayer
 62
    7
370
   -1
100
AcDbLine
 10
26.34005274505
 20
19.30359929419
 11
26.24378154505
 21
18.57945929419
  0
LINE
  5
389
100
AcDbEntity
  8
0
  6
ByLayer
 62
    7
370
   -1
100
AcDbLine
 10
26.40981804505
 20
20.05239299419
 11
26.34005274505
 21
19.30359929419
  0
LINE
  5
38A
100
AcDbEntity
  8
0
  6
ByLayer
 62
    7
370
   -1
100
AcDbLine
 10
26.60515494505
 20
20.78071799419
 11
26.40981804505
 21
20.05239299419
  0
LINE
  5
38B
100
AcDbEntity
  8
0
  6
ByLayer
 62
    7
370
   -1
100
AcDbLine
 10
27.30743574505
 20
21.25557509419
 11
26.60515494505
 21
20.78071799419
  0
LINE
  5
38C
100
AcDbEntity
  8
0
  6
ByLayer
 62
    7
370
   -1
100
AcDbLine
 10
27.79252314505
 20
21.57276299419
 11
27.30743574505
 21
21.25557509419
  0
LINE
  5
38D
100
AcDbEntity
  8
0
  6
ByLayer
 62
    7
370
   -1
100
AcDbLine
 10
27.95576784505
 20
22.47363959419
 11
27.79252314505
 21
21.57276299419
  0
LINE
  5
38E
100
AcDbEntity
  8
0
  6
ByLayer
 62
    7
370
   -1
100
AcDbLine
 10
26.29540554505
 20
22.35922709419
 11
25.61916624505
 21
21.21418139419
  0
LINE
  5
38F
100
AcDbEntity
  8
0
  6
ByLayer
 62
    7
370
   -1
100
AcDbLine
 10
26.65352274505
 20
23.36753939419
 11
26.29540554505
 21
22.35922709419
  0
LINE
  5
390
100
AcDbEntity
  8
0
  6
ByLayer
 62
    7
370
   -1
100
AcDbLine
 10
26.31819354505
 20
24.32375789419
 11
26.65352274505
 21
23.36753939419
  0
LINE
  5
391
100
AcDbEntity
  8
0
  6
ByLayer
 62
    7
370
   -1
100
AcDbLine
 10
26.59538634505
 20
18.49341839419
 11
27.01861674505
 21
19.10640209419
  0
LINE
  5
392
100
AcDbEntity
  8
0
  6
ByLayer
 62
    7
370
   -1
100
AcDbLine
 10
25.98100674505
 20
17.67439769419
 11
26.59538634505
 21
18.49341839419
  0
LINE
  5
393
100
AcDbEntity
  8
0
  6
ByLayer
 62
    7
370
   -1
100
AcDbLine
 10
25.46847924505
 20
17.43069029419
 11
25.98100674505
 21
17.67439769419
  0
LINE
  5
394
100
AcDbEntity
  8
0
  6
ByLayer
 62
    7
370
   -1
100
AcDbLine
 10
24.53876934511
 20
17.04606449419
 11
25.46847924505
 21
17.43069029419
  0
LINE
  5
395
100
AcDbEntity
  8
0
  6
ByLayer
 62
    7
370
   -1
100
AcDbLine
 10
23.72439804511
 20
16.26890189419
 11
24.53876934511
 21
17.04606449419
  0
LINE
  5
396
100
AcDbEntity
  8
0
  6
ByLayer
 62
    7
370
   -1
100
AcDbLine
 10
23.25512454511
 20
15.55452779419
 11
23.72439804511
 21
16.26890189419
  0
LINE
  5
397
100
AcDbEntity
  8
0
  6
ByLayer
 62
    7
370
   -1
100
AcDbLine
 10
22.54121484511
 20
15.37732949419
 11
23.25512454511
 21
15.55452779419
  0
LINE
  5
398
100
AcDbEntity
  8
0
  6
ByLayer
 62
    7
370
   -1
100
AcDbLine
 10
21.42826134511
 20
15.23454539419
 11
22.54121484511
 21
15.37732949419
  0
LINE
  5
399
100
AcDbEntity
  8
0
  6
ByLayer
 62
    7
370
   -1
100
AcDbLine
 10
20.87434014511
 20
15.41174369419
 11
21.42826134511
 21
15.23454539419
  0
LINE
  5
39A
100
AcDbEntity
  8
0
  6
ByLayer
 62
    7
370
   -1
100
AcDbLine
 10
22.33518054511
 20
10.4729765941945
 11
22.18030854511
 21
10.6162223941945
  0
LINE
  5
39B
100
AcDbEntity
  8
0
  6
ByLayer
 62
    7
370
   -1
100
AcDbLine
 10
22.70353074511
 20
10.5869219941945
 11
22.33518054511
 21
10.4729765941945
  0
LINE
  5
39C
100
AcDbEntity
  8
0
  6
ByLayer
 62
    7
370
   -1
100
AcDbLine
 10
22.91700624511
 20
10.8436514941945
 11
22.70353074511
 21
10.5869219941945
  0
LINE
  5
39D
100
AcDbEntity
  8
0
  6
ByLayer
 62
    7
370
   -1
100
AcDbLine
 10
22.77748104511
 20
11.2357211941945
 11
22.91700624511
 21
10.8436514941945
  0
LINE
  5
39E
100
AcDbEntity
  8
0
  6
ByLayer
 62
    7
370
   -1
100
AcDbLine
 10
22.73701884511
 20
11.63197589419
 11
22.77748104511
 21
11.2357211941945
  0
LINE
  5
39F
100
AcDbEntity
  8
0
  6
ByLayer
 62
    7
370
   -1
100
AcDbLine
 10
22.62446664511
 20
11.97567509419
 11
22.73701884511
 21
11.63197589419
  0
LINE
  5
3A0
100
AcDbEntity
  8
0
  6
ByLayer
 62
    7
370
   -1
100
AcDbLine
 10
22.33983264511
 20
12.26263379419
 11
22.62446664511
 21
11.97567509419
  0
LINE
  5
3A1
100
AcDbEntity
  8
0
  6
ByLayer
 62
    7
370
   -1
100
AcDbLine
 10
21.68870874511
 20
12.38634779419
 11
22.33983264511
 21
12.26263379419
  0
LINE
  5
3A2
100
AcDbEntity
  8
0
  6
ByLayer
 62
    7
370
   -1
100
AcDbLine
 10
21.57848394511
 20
12.65563499419
 11
21.68870874511
 21
12.38634779419
  0
LINE
  5
3A3
100
AcDbEntity
  8
0
  6
ByLayer
 62
    7
370
   -1
100
AcDbLine
 10
21.43477104511
 20
13.79323949419
 11
21.57848394511
 21
12.65563499419
  0
LINE
  5
3A4
100
AcDbEntity
  8
0
  6
ByLayer
 62
    7
370
   -1
100
AcDbLine
 10
21.30547614511
 20
14.55877319419
 11
21.43477104511
 21
13.79323949419
  0
LINE
  5
3A5
100
AcDbEntity
  8
0
  6
ByLayer
 62
    7
370
   -1
100
AcDbLine
 10
21.49058274511
 20
14.91410129419
 11
21.03153954511
 21
14.57272679419
  0
LINE
  5
3A6
100
AcDbEntity
  8
0
  6
ByLayer
 62
    7
370
   -1
100
AcDbLine
 10
21.75010134511
 20
15.27221849419
 11
21.49058274511
 21
14.91410129419
  0
LINE
  5
3A7
100
AcDbEntity
  8
0
  6
ByLayer
 62
    7
370
   -1
100
AcDbLine
 10
21.56546184511
 20
10.4427446941945
 11
21.18967044511
 21
10.5273923941945
  0
LINE
  5
3A8
100
AcDbEntity
  8
0
  6
ByLayer
 62
    7
370
   -1
100
AcDbLine
 10
21.95613564511
 20
10.6320362941945
 11
21.56546184511
 21
10.4427446941945
  0
LINE
  5
3A9
100
AcDbEntity
  8
0
  6
ByLayer
 62
    7
370
   -1
100
AcDbLine
 10
21.97287834511
 20
10.8315581941945
 11
21.95613564511
 21
10.6320362941945
  0
LINE
  5
3AA
100
AcDbEntity
  8
0
  6
ByLayer
 62
    7
370
   -1
100
AcDbLine
 10
21.91009254511
 20
11.1771203941945
 11
21.97287834511
 21
10.8315581941945
  0
LINE
  5
3AB
100
AcDbEntity
  8
0
  6
ByLayer
 62
    7
370
   -1
100
AcDbLine
 10
21.54871914511
 20
11.51105369419
 11
21.91009254511
 21
11.1771203941945
  0
LINE
  5
3AC
100
AcDbEntity
  8
0
  6
ByLayer
 62
    7
370
   -1
100
AcDbLine
 10
20.84364384511
 20
11.1106112941945
 11
20.91480234511
 21
10.5664586941945
  0
LINE
  5
3AD
100
AcDbEntity
  8
0
  6
ByLayer
 62
    7
370
   -1
100
AcDbLine
 10
20.63621634511
 20
11.3264114941945
 11
20.84364384511
 21
11.1106112941945
  0
LINE
  5
3AE
100
AcDbEntity
  8
0
  6
ByLayer
 62
    7
370
   -1
100
AcDbLine
 10
20.12276004511
 20
10.4859986941945
 11
20.77062504511
 21
10.4366993941945
  0
LINE
  5
3AF
100
AcDbEntity
  8
0
  6
ByLayer
 62
    7
370
   -1
100
AcDbLine
 10
19.81207914511
 20
10.7971439941945
 11
20.12276004511
 21
10.4859986941945
  0
LINE
  5
3B0
100
AcDbEntity
  8
0
  6
ByLayer
 62
    7
370
   -1
100
AcDbLine
 10
19.77068814511
 20
11.2180469941945
 11
19.81207914511
 21
10.7971439941945
  0
LINE
  5
3B1
100
AcDbEntity
  8
0
  6
ByLayer
 62
    7
370
   -1
100
AcDbLine
 10
19.82696154511
 20
11.69243699419
 11
19.77068814511
 21
11.2180469941945
  0
LINE
  5
3B2
100
AcDbEntity
  8
0
  6
ByLayer
 62
    7
370
   -1
100
AcDbLine
 10
19.73301504511
 20
12.18589439419
 11
19.82696154511
 21
11.69243699419
  0
LINE
  5
3B3
100
AcDbEntity
  8
0
  6
ByLayer
 62
    7
370
   -1
100
AcDbLine
 10
19.66790184511
 20
13.84858409419
 11
19.73301504511
 21
12.18589439419
  0
LINE
  5
3B4
100
AcDbEntity
  8
0
  6
ByLayer
 62
    7
370
   -1
100
AcDbLine
 10
19.69487754511
 20
13.79974919419
 11
19.87626084511
 21
13.60813289419
  0
LINE
  5
3B5
100
AcDbEntity
  8
0
  6
ByLayer
 62
    7
370
   -1
100
AcDbLine
 10
19.45024134511
 20
14.33692769419
 11
19.69487754511
 21
13.79974919419
  0
LINE
  5
3B6
100
AcDbEntity
  8
0
  6
ByLayer
 62
    7
370
   -1
100
AcDbLine
 10
19.35536334511
 20
14.85550049419
 11
19.45024134511
 21
14.33692769419
  0
LINE
  5
3B7
100
AcDbEntity
  8
0
  6
ByLayer
 62
    7
370
   -1
100
AcDbLine
 10
19.42652184511
 20
15.57917609419
 11
19.35536334511
 21
14.85550049419
  0
LINE
  5
3B8
100
AcDbEntity
  8
0
  6
ByLayer
 62
    7
370
   -1
100
AcDbLine
 10
19.53302604511
 20
16.03031099419
 11
19.42652184511
 21
15.57917609419
  0
LINE
  5
3B9
100
AcDbEntity
  8
0
  6
ByLayer
 62
    7
370
   -1
100
AcDbLine
 10
19.26699774511
 20
15.84613589419
 11
19.34931804511
 21
15.65033459419
  0
LINE
  5
3BA
100
AcDbEntity
  8
0
  6
ByLayer
 62
    7
370
   -1
100
AcDbLine
 10
19.24839474511
 20
16.31773679419
 11
19.26699774511
 21
15.84613589419
  0
LINE
  5
3BB
100
AcDbEntity
  8
0
  6
ByLayer
 62
    7
370
   -1
100
AcDbLine
 10
19.30420374511
 20
16.79212679419
 11
19.24839474511
 21
16.31773679419
  0
LINE
  5
3BC
100
AcDbEntity
  8
0
  6
ByLayer
 62
    7
370
   -1
100
AcDbLine
 10
19.54605084511
 20
16.97537039419
 11
19.30420374511
 21
16.79212679419
  0
LINE
  5
3BD
100
AcDbEntity
  8
0
  6
ByLayer
 62
    7
370
   -1
100
AcDbLine
 10
20.16043044511
 20
17.14838369419
 11
19.54605084511
 21
16.97537039419
  0
LINE
  5
3BE
100
AcDbEntity
  8
0
  6
ByLayer
 62
    7
370
   -1
100
AcDbLine
 10
20.44971654511
 20
17.38371839419
 11
20.16043044511
 21
17.14838369419
  0
LINE
  5
3BF
100
AcDbEntity
  8
0
  6
ByLayer
 62
    7
370
   -1
100
AcDbLine
 10
45.43423674505001
 20
11.52407579419
 11
45.76538094505
 21
11.3133893941945
  0
LINE
  5
3C0
100
AcDbEntity
  8
0
  6
ByLayer
 62
    7
370
   -1
100
AcDbLine
 10
45.45656034504999
 20
12.22077569419
 11
45.43423674505001
 21
11.52407579419
  0
LINE
  5
3C1
100
AcDbEntity
  8
0
  6
ByLayer
 62
    7
370
   -1
100
AcDbLine
 10
44.71614204505001
 20
15.27407879419
 11
44.76916194505
 21
14.55505259419
  0
LINE
  5
3C2
100
AcDbEntity
  8
0
  6
ByLayer
 62
    7
370
   -1
100
AcDbLine
 10
48.98006844504999
 20
11.73708419419
 11
49.28888634505
 21
12.09706439419
  0
LINE
  5
3C3
100
AcDbEntity
  8
0
  6
ByLayer
 62
    7
370
   -1
100
AcDbLine
 10
48.35778054505001
 20
11.76266399419
 11
48.98006844504999
 21
11.73708419419
  0
LINE
  5
3C4
100
AcDbEntity
  8
0
  6
ByLayer
 62
    7
370
   -1
100
AcDbLine
 10
48.06430944505001
 20
12.27286679419
 11
48.35778054505001
 21
11.76266399419
  0
LINE
  5
3C5
100
AcDbEntity
  8
0
  6
ByLayer
 62
    7
370
   -1
100
AcDbLine
 10
47.58712764505
 20
12.40355489419
 11
48.06430944505001
 21
12.27286679419
  0
LINE
  5
3C6
100
AcDbEntity
  8
0
  6
ByLayer
 62
    7
370
   -1
100
AcDbLine
 10
47.68014534505001
 20
12.55610489419
 11
47.58712764505
 21
12.40355489419
  0
LINE
  5
3C7
100
AcDbEntity
  8
0
  6
ByLayer
 62
    7
370
   -1
100
AcDbLine
 10
48.76194084505001
 20
12.87189959419
 11
49.30702494505
 21
12.27193529419
  0
LINE
  5
3C8
100
AcDbEntity
  8
0
  6
ByLayer
 62
    7
370
   -1
100
AcDbLine
 10
47.85687924505
 20
13.13467439419
 11
48.76194084505001
 21
12.87189959419
  0
LINE
  5
3C9
100
AcDbEntity
  8
0
  6
ByLayer
 62
    7
370
   -1
100
AcDbLine
 10
47.10064704505
 20
13.40349449419
 11
47.85687924505
 21
13.13467439419
  0
LINE
  5
3CA
100
AcDbEntity
  8
0
  6
ByLayer
 62
    7
370
   -1
100
AcDbLine
 10
46.71090204505
 20
13.83602639419
 11
47.10064704505
 21
13.40349449419
  0
LINE
  5
3CB
100
AcDbEntity
  8
0
  6
ByLayer
 62
    7
370
   -1
100
AcDbLine
 10
46.74625044504999
 20
14.20995749419
 11
46.71090204505
 21
13.83602639419
  0
LINE
  5
3CC
100
AcDbEntity
  8
0
  6
ByLayer
 62
    7
370
   -1
100
AcDbLine
 10
46.87368504505
 20
14.76155129419
 11
46.74625044504999
 21
14.20995749419
  0
LINE
  5
3CD
100
AcDbEntity
  8
0
  6
ByLayer
 62
    7
370
   -1
100
AcDbLine
 10
46.67741664505
 20
15.32570279419
 11
46.87368504505
 21
14.76155129419
  0
LINE
  5
3CE
100
AcDbEntity
  8
0
  6
ByLayer
 62
    7
370
   -1
100
AcDbLine
 10
46.70764854505001
 20
15.82427669419
 11
46.67741664505
 21
15.32570279419
  0
LINE
  5
3CF
100
AcDbEntity
  8
0
  6
ByLayer
 62
    7
370
   -1
100
AcDbLine
 10
47.13878454505
 20
16.88467739419
 11
46.70764854505001
 21
15.82427669419
  0
LINE
  5
3D0
100
AcDbEntity
  8
0
  6
ByLayer
 62
    7
370
   -1
100
AcDbLine
 10
47.61829104505001
 20
17.97205379419
 11
47.13878454505
 21
16.88467739419
  0
LINE
  5
3D1
100
AcDbEntity
  8
0
  6
ByLayer
 62
    7
370
   -1
100
AcDbLine
 10
47.85501894505001
 20
18.90129929419
 11
47.61829104505001
 21
17.97205379419
  0
LINE
  5
3D2
100
AcDbEntity
  8
0
  6
ByLayer
 62
    7
370
   -1
100
AcDbLine
 10
48.07314654505
 20
19.68032219419
 11
47.85501894505001
 21
18.90129929419
  0
LINE
  5
3D3
100
AcDbEntity
  8
0
  6
ByLayer
 62
    7
370
   -1
100
AcDbLine
 10
48.39498654505
 20
11.4408239941945
 11
49.17865884504999
 21
11.74499249419
  0
LINE
  5
3D4
100
AcDbEntity
  8
0
  6
ByLayer
 62
    7
370
   -1
100
AcDbLine
 10
47.75363124505
 20
11.3161811941945
 11
48.39498654505
 21
11.4408239941945
  0
LINE
  5
3D5
100
AcDbEntity
  8
0
  6
ByLayer
 62
    7
370
   -1
100
AcDbLine
 10
47.10948414505
 20
11.2664174941945
 11
47.75363124505
 21
11.3161811941945
  0
LINE
  5
3D6
100
AcDbEntity
  8
0
  6
ByLayer
 62
    7
370
   -1
100
AcDbLine
 10
45.90769524504999
 20
11.4929150941945
 11
47.10948414505
 21
11.2664174941945
  0
LINE
  5
3D7
100
AcDbEntity
  8
0
  6
ByLayer
 62
    7
370
   -1
100
AcDbLine
 10
45.82258584504999
 20
11.76313109419
 11
45.90769524504999
 21
11.4929150941945
  0
LINE
  5
3D8
100
AcDbEntity
  8
0
  6
ByLayer
 62
    7
370
   -1
100
AcDbLine
 10
45.47097834505
 20
12.49471229419
 11
45.82258584504999
 21
11.76313109419
  0
LINE
  5
3D9
100
AcDbEntity
  8
0
  6
ByLayer
 62
    7
370
   -1
100
AcDbLine
 10
44.96542764505
 20
13.34489369419
 11
45.47097834505
 21
12.49471229419
  0
LINE
  5
3DA
100
AcDbEntity
  8
0
  6
ByLayer
 62
    7
370
   -1
100
AcDbLine
 10
44.44871514505
 20
13.84672379419
 11
44.96542764505
 21
13.34489369419
  0
LINE
  5
3DB
100
AcDbEntity
  8
0
  6
ByLayer
 62
    7
370
   -1
100
AcDbLine
 10
44.54964114505
 20
14.44715249419
 11
44.44871514505
 21
13.84672379419
  0
LINE
  5
3DC
100
AcDbEntity
  8
0
  6
ByLayer
 62
    7
370
   -1
100
AcDbLine
 10
44.87473734505001
 20
15.03176729419
 11
44.54964114505
 21
14.44715249419
  0
LINE
  5
3DD
100
AcDbEntity
  8
0
  6
ByLayer
 62
    7
370
   -1
100
AcDbLine
 10
45.44214234505
 20
15.77451299419
 11
44.87473734505001
 21
15.03176729419
  0
LINE
  5
3DE
100
AcDbEntity
  8
0
  6
ByLayer
 62
    7
370
   -1
100
AcDbLine
 10
45.61469124505
 20
16.45261259419
 11
45.44214234505
 21
15.77451299419
  0
LINE
  5
3DF
100
AcDbEntity
  8
0
  6
ByLayer
 62
    7
370
   -1
100
AcDbLine
 10
45.87653454504999
 20
17.38232249419
 11
45.61469124505
 21
16.45261259419
  0
LINE
  5
3E0
100
AcDbEntity
  8
0
  6
ByLayer
 62
    7
370
   -1
100
AcDbLine
 10
44.41801884505001
 20
17.17628819419
 11
44.73800124505001
 21
15.34942229419
  0
LINE
  5
3E1
100
AcDbEntity
  8
0
  6
ByLayer
 62
    7
370
   -1
100
AcDbLine
 10
43.74643434505001
 20
11.4580337941945
 11
43.77480324505
 21
10.7385404941945
  0
LINE
  5
3E2
100
AcDbEntity
  8
0
  6
ByLayer
 62
    7
370
   -1
100
AcDbLine
 10
43.41808194505
 20
11.59430279419
 11
43.74643434505001
 21
11.4580337941945
  0
LINE
  5
3E3
100
AcDbEntity
  8
0
  6
ByLayer
 62
    7
370
   -1
100
AcDbLine
 10
42.50092704505001
 20
10.8873698941945
 11
42.56743614505
 21
10.4678600941945
  0
LINE
  5
3E4
100
AcDbEntity
  8
0
  6
ByLayer
 62
    7
370
   -1
100
AcDbLine
 10
42.39581874505
 20
11.67895049419
 11
42.50092704505001
 21
10.8873698941945
  0
LINE
  5
3E5
100
AcDbEntity
  8
0
  6
ByLayer
 62
    7
370
   -1
100
AcDbLine
 10
42.02979324505
 20
12.13659509419
 11
42.39581874505
 21
11.67895049419
  0
LINE
  5
3E6
100
AcDbEntity
  8
0
  6
ByLayer
 62
    7
370
   -1
100
AcDbLine
 10
41.64423594505
 20
12.46959959419
 11
42.02979324505
 21
12.13659509419
  0
LINE
  5
3E7
100
AcDbEntity
  8
0
  6
ByLayer
 62
    7
370
   -1
100
AcDbLine
 10
41.71399854505
 20
13.21792619419
 11
41.64423594505
 21
12.46959959419
  0
LINE
  5
3E8
100
AcDbEntity
  8
0
  6
ByLayer
 62
    7
370
   -1
100
AcDbLine
 10
41.51726574505
 20
13.80672599419
 11
41.89352424505
 21
13.07607359419
  0
LINE
  5
3E9
100
AcDbEntity
  8
0
  6
ByLayer
 62
    7
370
   -1
100
AcDbLine
 10
41.44238664505
 20
14.45040869419
 11
41.51726574505
 21
13.80672599419
  0
LINE
  5
3EA
100
AcDbEntity
  8
0
  6
ByLayer
 62
    7
370
   -1
100
AcDbLine
 10
40.77498714505
 20
14.99595719419
 11
41.90654634505
 21
14.02113299419
  0
LINE
  5
3EB
100
AcDbEntity
  8
0
  6
ByLayer
 62
    7
370
   -1
100
AcDbLine
 10
39.75411984505
 20
15.67684589419
 11
40.77498714505
 21
14.99595719419
  0
LINE
  5
3EC
100
AcDbEntity
  8
0
  6
ByLayer
 62
    7
370
   -1
100
AcDbLine
 10
38.82580314505
 20
16.53539729419
 11
39.75411984505
 21
15.67684589419
  0
LINE
  5
3ED
100
AcDbEntity
  8
0
  6
ByLayer
 62
    7
370
   -1
100
AcDbLine
 10
38.02352784505
 20
17.34930149419
 11
38.82580314505
 21
16.53539729419
  0
LINE
  5
3EE
100
AcDbEntity
  8
0
  6
ByLayer
 62
    7
370
   -1
100
AcDbLine
 10
38.03189784505
 20
17.77206479419
 11
38.02352784505
 21
17.34930149419
  0
LINE
  5
3EF
100
AcDbEntity
  8
0
  6
ByLayer
 62
    7
370
   -1
100
AcDbLine
 10
37.95795024505
 20
19.03663949419
 11
38.03189784505
 21
17.77206479419
  0
LINE
  5
3F0
100
AcDbEntity
  8
0
  6
ByLayer
 62
    7
370
   -1
100
AcDbLine
 10
37.61750454505
 20
19.47056729419
 11
37.95795024505
 21
19.03663949419
  0
LINE
  5
3F1
100
AcDbEntity
  8
0
  6
ByLayer
 62
    7
370
   -1
100
AcDbLine
 10
37.23520344505
 20
20.35051349419
 11
37.61750454505
 21
19.47056729419
  0
LINE
  5
3F2
100
AcDbEntity
  8
0
  6
ByLayer
 62
    7
370
   -1
100
AcDbLine
 10
37.04172684505
 20
21.48625769419
 11
37.23520344505
 21
20.35051349419
  0
LINE
  5
3F3
100
AcDbEntity
  8
0
  6
ByLayer
 62
    7
370
   -1
100
AcDbLine
 10
36.89336184505
 20
22.74804059419
 11
37.04172684505
 21
21.48625769419
  0
LINE
  5
3F4
100
AcDbEntity
  8
0
  6
ByLayer
 62
    7
370
   -1
100
AcDbLine
 10
41.50749984505
 20
10.8738833941945
 11
41.67493224505
 21
11.67569429419
  0
LINE
  5
3F5
100
AcDbEntity
  8
0
  6
ByLayer
 62
    7
370
   -1
100
AcDbLine
 10
41.78004054505
 20
10.2627572941945
 11
41.50749984505
 21
10.8738833941945
  0
LINE
  5
3F6
100
AcDbEntity
  8
0
  6
ByLayer
 62
    7
370
   -1
100
AcDbLine
 10
42.64882494505
 20
10.2967070941945
 11
41.78004054505
 21
10.2627572941945
  0
LINE
  5
3F7
100
AcDbEntity
  8
0
  6
ByLayer
 62
    7
370
   -1
100
AcDbLine
 10
43.99246374505
 20
10.2501995941945
 11
42.64882494505
 21
10.2967070941945
  0
LINE
  5
3F8
100
AcDbEntity
  8
0
  6
ByLayer
 62
    7
370
   -1
100
AcDbLine
 10
44.58963624505
 20
10.8696956941945
 11
43.99246374505
 21
10.2501995941945
  0
LINE
  5
3F9
100
AcDbEntity
  8
0
  6
ByLayer
 62
    7
370
   -1
100
AcDbLine
 10
44.52452574505
 20
11.2650215941945
 11
44.58963624505
 21
10.8696956941945
  0
LINE
  5
3FA
100
AcDbEntity
  8
0
  6
ByLayer
 62
    7
370
   -1
100
AcDbLine
 10
44.33569854505001
 20
11.65523099419
 11
44.52452574505
 21
11.2650215941945
  0
LINE
  5
3FB
100
AcDbEntity
  8
0
  6
ByLayer
 62
    7
370
   -1
100
AcDbLine
 10
44.04687954505
 20
12.04171709419
 11
44.33569854505001
 21
11.65523099419
  0
LINE
  5
3FC
100
AcDbEntity
  8
0
  6
ByLayer
 62
    7
370
   -1
100
AcDbLine
 10
43.74689874505
 20
12.72586199419
 11
44.04687954505
 21
12.04171709419
  0
LINE
  5
3FD
100
AcDbEntity
  8
0
  6
ByLayer
 62
    7
370
   -1
100
AcDbLine
 10
43.67108814505
 20
13.39419299419
 11
43.74689874505
 21
12.72586199419
  0
LINE
  5
3FE
100
AcDbEntity
  8
0
  6
ByLayer
 62
    7
370
   -1
100
AcDbLine
 10
43.65760164505001
 20
13.74114839419
 11
43.49714604504999
 21
13.38721619419
  0
LINE
  5
3FF
100
AcDbEntity
  8
0
  6
ByLayer
 62
    7
370
   -1
100
AcDbLine
 10
43.86224004505
 20
14.22158369419
 11
43.65760164505001
 21
13.74114839419
  0
LINE
  5
400
100
AcDbEntity
  8
0
  6
ByLayer
 62
    7
370
   -1
100
AcDbLine
 10
43.71899424505001
 20
14.71318349419
 11
43.86224004505
 21
14.22158369419
  0
LINE
  5
401
100
AcDbEntity
  8
0
  6
ByLayer
 62
    7
370
   -1
100
AcDbLine
 10
43.24692894504999
 20
15.34105229419
 11
43.71899424505001
 21
14.71318349419
  0
LINE
  5
402
100
AcDbEntity
  8
0
  6
ByLayer
 62
    7
370
   -1
100
AcDbLine
 10
42.90229824505
 20
15.89915579419
 11
43.24692894504999
 21
15.34105229419
  0
LINE
  5
403
100
AcDbEntity
  8
0
  6
ByLayer
 62
    7
370
   -1
100
AcDbLine
 10
42.82137384505
 20
16.69120079419
 11
42.90229824505
 21
15.89915579419
  0
LINE
  5
404
100
AcDbEntity
  8
0
  6
ByLayer
 62
    7
370
   -1
100
AcDbLine
 10
42.52139034505
 20
17.37534569419
 11
42.82137384505
 21
16.69120079419
  0
LINE
  5
405
100
AcDbEntity
  8
0
  6
ByLayer
 62
    7
370
   -1
100
AcDbLine
 10
41.87677884505
 20
17.97205379419
 11
42.52139034505
 21
17.37534569419
  0
LINE
  5
406
100
AcDbEntity
  8
0
  6
ByLayer
 62
    7
370
   -1
100
AcDbLine
 10
43.35715374505
 20
17.60695979419
 11
42.53906454505
 21
17.55021929419
  0
LINE
  5
407
100
AcDbEntity
  8
0
  6
ByLayer
 62
    7
370
   -1
100
AcDbLine
 10
43.94409594504999
 20
17.85392069419
 11
43.35715374505
 21
17.60695979419
  0
LINE
  5
408
100
AcDbEntity
  8
0
  6
ByLayer
 62
    7
370
   -1
100
AcDbLine
 10
44.84496984505
 20
18.33621629419
 11
43.94409594504999
 21
17.85392069419
  0
LINE
  5
409
100
AcDbEntity
  8
0
  6
ByLayer
 62
    7
370
   -1
100
AcDbLine
 10
45.55934664505
 20
19.13477369419
 11
44.84496984505
 21
18.33621629419
  0
LINE
  5
40A
100
AcDbEntity
  8
0
  6
ByLayer
 62
    7
370
   -1
100
AcDbLine
 10
45.99234294505
 20
20.14587509419
 11
45.55934664505
 21
19.13477369419
  0
LINE
  5
40B
100
AcDbEntity
  8
0
  6
ByLayer
 62
    7
370
   -1
100
AcDbLine
 10
45.96815904505
 20
20.76630269419
 11
45.99234294505
 21
20.14587509419
  0
LINE
  5
40C
100
AcDbEntity
  8
0
  6
ByLayer
 62
    7
370
   -1
100
AcDbLine
 10
44.43615744505001
 20
17.35069739419
 11
42.88415964505
 21
16.99211309419
  0
LINE
  5
40D
100
AcDbEntity
  8
0
  6
ByLayer
 62
    7
370
   -1
100
AcDbLine
 10
45.58911144504999
 20
17.74416029419
 11
44.43615744505001
 21
17.35069739419
  0
LINE
  5
40E
100
AcDbEntity
  8
0
  6
ByLayer
 62
    7
370
   -1
100
AcDbLine
 10
47.12343504505
 20
18.54969179419
 11
45.58911144504999
 21
17.74416029419
  0
LINE
  5
40F
100
AcDbEntity
  8
0
  6
ByLayer
 62
    7
370
   -1
100
AcDbLine
 10
47.78804814505001
 20
19.34592449419
 11
47.12343504505
 21
18.54969179419
  0
LINE
  5
410
100
AcDbEntity
  8
0
  6
ByLayer
 62
    7
370
   -1
100
AcDbLine
 10
48.61311144505
 20
20.49655109419
 11
47.78804814505001
 21
19.34592449419
  0
LINE
  5
411
100
AcDbEntity
  8
0
  6
ByLayer
 62
    7
370
   -1
100
AcDbLine
 10
49.08052734505
 20
21.26068889419
 11
48.61311144505
 21
20.49655109419
  0
LINE
  5
412
100
AcDbEntity
  8
0
  6
ByLayer
 62
    7
370
   -1
100
AcDbLine
 10
49.12191834505
 20
22.10714969419
 11
49.08052734505
 21
21.26068889419
  0
LINE
  5
413
100
AcDbEntity
  8
0
  6
ByLayer
 62
    7
370
   -1
100
AcDbLine
 10
48.69822354505001
 20
23.40800159419
 11
48.39080154505
 21
22.37690129419
  0
LINE
  5
414
100
AcDbEntity
  8
0
  6
ByLayer
 62
    7
370
   -1
100
AcDbLine
 10
48.55311744505001
 20
23.94936239419
 11
48.69822354505001
 21
23.40800159419
  0
LINE
  5
415
100
AcDbEntity
  8
0
  6
ByLayer
 62
    7
370
   -1
100
AcDbLine
 10
47.84804214505
 20
24.81628649419
 11
48.55311744505001
 21
23.94936239419
  0
LINE
  5
416
100
AcDbEntity
  8
0
  6
ByLayer
 62
    7
370
   -1
100
AcDbLine
 10
47.69503044504999
 20
25.55624309425
 11
47.84804214505
 21
24.81628649419
  0
LINE
  5
417
100
AcDbEntity
  8
0
  6
ByLayer
 62
    7
370
   -1
100
AcDbLine
 10
47.66759034505
 20
26.25108269425
 11
47.69503044504999
 21
25.55624309425
  0
LINE
  5
418
100
AcDbEntity
  8
0
  6
ByLayer
 62
    7
370
   -1
100
AcDbLine
 10
47.66526294505
 20
26.94685379425
 11
47.66759034505
 21
26.25108269425
  0
LINE
  5
419
100
AcDbEntity
  8
0
  6
ByLayer
 62
    7
370
   -1
100
AcDbLine
 10
47.47318224505
 20
27.41147789425
 11
47.66526294505
 21
26.94685379425
  0
LINE
  5
41A
100
AcDbEntity
  8
0
  6
ByLayer
 62
    7
370
   -1
100
AcDbLine
 10
46.10256774505
 20
25.59344909425
 11
47.58852354505
 21
25.72600019425
  0
LINE
  5
41B
100
AcDbEntity
  8
0
  6
ByLayer
 62
    7
370
   -1
100
AcDbLine
 10
44.45429604505001
 20
25.80227249425
 11
46.10256774505
 21
25.59344909425
  0
LINE
  5
41C
100
AcDbEntity
  8
0
  6
ByLayer
 62
    7
370
   -1
100
AcDbLine
 10
43.24041654505
 20
26.32689329425
 11
44.45429604505001
 21
25.80227249425
  0
LINE
  5
41D
100
AcDbEntity
  8
0
  6
ByLayer
 62
    7
370
   -1
100
AcDbLine
 10
41.87445414505
 20
26.94452909425
 11
43.24041654505
 21
26.32689329425
  0
LINE
  5
41E
100
AcDbEntity
  8
0
  6
ByLayer
 62
    7
370
   -1
100
AcDbLine
 10
41.19775044505
 20
27.71331899425
 11
41.87445414505
 21
26.94452909425
  0
LINE
  5
41F
100
AcDbEntity
  8
0
  6
ByLayer
 62
    7
370
   -1
100
AcDbLine
 10
47.31458694505
 20
26.38642289425
 11
47.60852244505
 21
26.49711479425
  0
LINE
  5
420
100
AcDbEntity
  8
0
  6
ByLayer
 62
    7
370
   -1
100
AcDbLine
 10
46.62625704505
 20
26.18550509425
 11
47.31458694505
 21
26.38642289425
  0
LINE
  5
421
100
AcDbEntity
  8
0
  6
ByLayer
 62
    7
370
   -1
100
AcDbLine
 10
44.87845794505
 20
26.39061059425
 11
46.62625704505
 21
26.18550509425
  0
LINE
  5
422
100
AcDbEntity
  8
0
  6
ByLayer
 62
    7
370
   -1
100
AcDbLine
 10
43.59062814505
 20
26.91197249425
 11
44.87845794505
 21
26.39061059425
  0
LINE
  5
423
100
AcDbEntity
  8
0
  6
ByLayer
 62
    7
370
   -1
100
AcDbLine
 10
42.37302804505
 20
27.53565629425
 11
43.59062814505
 21
26.91197249425
  0
LINE
  5
424
100
AcDbEntity
  8
0
  6
ByLayer
 62
    7
370
   -1
100
AcDbLine
 10
41.32472064505
 20
28.29002819425
 11
42.37302804505
 21
27.53565629425
  0
LINE
  5
425
100
AcDbEntity
  8
0
  6
ByLayer
 62
    7
370
   -1
100
AcDbLine
 10
49.42748274504999
 20
33.37855619425
 11
49.56561204505
 21
33.65714219425
  0
LINE
  5
426
100
AcDbEntity
  8
0
  6
ByLayer
 62
    7
370
   -1
100
AcDbLine
 10
49.13912814504999
 20
33.11857049425
 11
49.42748274504999
 21
33.37855619425
  0
LINE
  5
427
100
AcDbEntity
  8
0
  6
ByLayer
 62
    7
370
   -1
100
AcDbLine
 10
48.69357414505001
 20
33.07671239425
 11
49.13912814504999
 21
33.11857049425
  0
LINE
  5
428
100
AcDbEntity
  8
0
  6
ByLayer
 62
    7
370
   -1
100
AcDbLine
 10
49.22609784505001
 20
34.71289349425
 11
49.41166884505
 21
34.42174709424999
  0
LINE
  5
429
100
AcDbEntity
  8
0
  6
ByLayer
 62
    7
370
   -1
100
AcDbLine
 10
48.88146714505
 20
34.62498959425
 11
49.22609784505001
 21
34.71289349425
  0
LINE
  5
42A
100
AcDbEntity
  8
0
  6
ByLayer
 62
    7
370
   -1
100
AcDbLine
 10
48.57869724505
 20
34.11571829425
 11
48.88146714505
 21
34.62498959425
  0
LINE
  5
42B
100
AcDbEntity
  8
0
  6
ByLayer
 62
    7
370
   -1
100
AcDbLine
 10
49.37585604504999
 20
33.42645959425
 11
49.51398804505
 21
33.70504559425
  0
LINE
  5
42C
100
AcDbEntity
  8
0
  6
ByLayer
 62
    7
370
   -1
100
AcDbLine
 10
49.12889514505
 20
33.39157829425
 11
49.37585604504999
 21
33.42645959425
  0
LINE
  5
42D
100
AcDbEntity
  8
0
  6
ByLayer
 62
    7
370
   -1
100
AcDbLine
 10
48.87774654505
 20
33.45668879425
 11
49.12889514505
 21
33.39157829425
  0
LINE
  5
42E
100
AcDbEntity
  8
0
  6
ByLayer
 62
    7
370
   -1
100
AcDbLine
 10
49.31865114505
 20
33.62272529425
 11
49.66700244505
 21
33.61156349425
  0
LINE
  5
42F
100
AcDbEntity
  8
0
  6
ByLayer
 62
    7
370
   -1
100
AcDbLine
 10
49.18284654505
 20
33.91573199425
 11
49.31865114505
 21
33.62272529425
  0
LINE
  5
430
100
AcDbEntity
  8
0
  6
ByLayer
 62
    7
370
   -1
100
AcDbLine
 10
48.84007614505001
 20
33.77806439425
 11
49.18284654505
 21
33.91573199425
  0
LINE
  5
431
100
AcDbEntity
  8
0
  6
ByLayer
 62
    7
370
   -1
100
AcDbLine
 10
48.55869834505
 20
33.34460369425
 11
48.84007614505001
 21
33.77806439425
  0
LINE
  5
432
100
AcDbEntity
  8
0
  6
ByLayer
 62
    7
370
   -1
100
AcDbLine
 10
48.21267174505
 20
33.30646619425001
 11
48.55869834505
 21
33.34460369425
  0
LINE
  5
433
100
AcDbEntity
  8
0
  6
ByLayer
 62
    7
370
   -1
100
AcDbLine
 10
47.09785524505
 20
31.29914579425
 11
47.51829654505
 21
30.71918309425
  0
LINE
  5
434
100
AcDbEntity
  8
0
  6
ByLayer
 62
    7
370
   -1
100
AcDbLine
 10
46.61091024505
 20
31.67772899425
 11
47.09785524505
 21
31.29914579425
  0
LINE
  5
435
100
AcDbEntity
  8
0
  6
ByLayer
 62
    7
370
   -1
100
AcDbLine
 10
45.85142184505001
 20
32.02096379424999
 11
46.61091024505
 21
31.67772899425
  0
LINE
  5
436
100
AcDbEntity
  8
0
  6
ByLayer
 62
    7
370
   -1
100
AcDbLine
 10
45.00077604505
 20
32.80789229425
 11
45.85142184505001
 21
32.02096379424999
  0
LINE
  5
437
100
AcDbEntity
  8
0
  6
ByLayer
 62
    7
370
   -1
100
AcDbLine
 10
44.52778194505
 20
33.46040939425
 11
45.00077604505
 21
32.80789229425
  0
LINE
  5
438
100
AcDbEntity
  8
0
  6
ByLayer
 62
    7
370
   -1
100
AcDbLine
 10
44.61893664505001
 20
34.30919489425
 11
44.52778194505
 21
33.46040939425
  0
LINE
  5
439
100
AcDbEntity
  8
0
  6
ByLayer
 62
    7
370
   -1
100
AcDbLine
 10
45.11100084504999
 20
35.07426419425
 11
44.61893664505001
 21
34.30919489425
  0
LINE
  5
43A
100
AcDbEntity
  8
0
  6
ByLayer
 62
    7
370
   -1
100
AcDbLine
 10
42.94183164505
 20
33.34925579425
 11
43.46040444505
 21
34.06549019425
  0
LINE
  5
43B
100
AcDbEntity
  8
0
  6
ByLayer
 62
    7
370
   -1
100
AcDbLine
 10
42.76137714505001
 20
32.86974929425
 11
42.94183164505
 21
33.34925579425
  0
LINE
  5
43C
100
AcDbEntity
  8
0
  6
ByLayer
 62
    7
370
   -1
100
AcDbLine
 10
42.59348034505
 20
32.06793839425
 11
42.76137714505001
 21
32.86974929425
  0
LINE
  5
43D
100
AcDbEntity
  8
0
  6
ByLayer
 62
    7
370
   -1
100
AcDbLine
 10
42.56417994505
 20
30.92335709425
 11
42.59348034505
 21
32.06793839425
  0
LINE
  5
43E
100
AcDbEntity
  8
0
  6
ByLayer
 62
    7
370
   -1
100
AcDbLine
 10
42.84416184505
 20
30.11410229425
 11
42.56417994505
 21
30.92335709425
  0
LINE
  5
43F
100
AcDbEntity
  8
0
  6
ByLayer
 62
    7
370
   -1
100
AcDbLine
 10
43.41436134505
 20
29.51506949425
 11
42.84416184505
 21
30.11410229425
  0
LINE
  5
440
100
AcDbEntity
  8
0
  6
ByLayer
 62
    7
370
   -1
100
AcDbLine
 10
44.05571664505
 20
28.99324049425
 11
43.41436134505
 21
29.51506949425
  0
LINE
  5
441
100
AcDbEntity
  8
0
  6
ByLayer
 62
    7
370
   -1
100
AcDbLine
 10
44.94124374505
 20
28.60535849425
 11
44.05571664505
 21
28.99324049425
  0
LINE
  5
442
100
AcDbEntity
  8
0
  6
ByLayer
 62
    7
370
   -1
100
AcDbLine
 10
45.83793264505
 20
27.91935329425
 11
44.94124374505
 21
28.60535849425
  0
LINE
  5
443
100
AcDbEntity
  8
0
  6
ByLayer
 62
    7
370
   -1
100
AcDbLine
 10
46.54905324505
 20
27.52449449425
 11
45.83793264505
 21
27.91935329425
  0
LINE
  5
444
100
AcDbEntity
  8
0
  6
ByLayer
 62
    7
370
   -1
100
AcDbLine
 10
47.66386704505
 20
27.61797659425
 11
46.54905324505
 21
27.52449449425
  0
LINE
  5
445
100
AcDbEntity
  8
0
  6
ByLayer
 62
    7
370
   -1
100
AcDbLine
 10
48.38800974505
 20
28.16817449425
 11
47.66386704505
 21
27.61797659425
  0
LINE
  5
446
100
AcDbEntity
  8
0
  6
ByLayer
 62
    7
370
   -1
100
AcDbLine
 10
48.67217934505
 20
29.17323059425
 11
48.38800974505
 21
28.16817449425
  0
LINE
  5
447
100
AcDbEntity
  8
0
  6
ByLayer
 62
    7
370
   -1
100
AcDbLine
 10
48.34661874505
 20
30.50291579425
 11
48.67217934505
 21
29.17323059425
  0
LINE
  5
448
100
AcDbEntity
  8
0
  6
ByLayer
 62
    7
370
   -1
100
AcDbLine
 10
47.45178744505
 20
31.78516469425
 11
48.34661874505
 21
30.50291579425
  0
LINE
  5
449
100
AcDbEntity
  8
0
  6
ByLayer
 62
    7
370
   -1
100
AcDbLine
 10
46.46208084505
 20
32.93951189425
 11
47.45178744505
 21
31.78516469425
  0
LINE
  5
44A
100
AcDbEntity
  8
0
  6
ByLayer
 62
    7
370
   -1
100
AcDbLine
 10
45.68677854505
 20
33.70458119425
 11
46.46208084505
 21
32.93951189425
  0
LINE
  5
44B
100
AcDbEntity
  8
0
  6
ByLayer
 62
    7
370
   -1
100
AcDbLine
 10
45.78351684505
 20
34.40453999425
 11
45.68677854505
 21
33.70458119425
  0
LINE
  5
44C
100
AcDbEntity
  8
0
  6
ByLayer
 62
    7
370
   -1
100
AcDbLine
 10
46.18488804505
 20
34.94218019425
 11
45.78351684505
 21
34.40453999425
  0
LINE
  5
44D
100
AcDbEntity
  8
0
  6
ByLayer
 62
    7
370
   -1
100
AcDbLine
 10
49.47259434505
 20
29.67692099425
 11
48.87681774505
 21
29.65366589425
  0
LINE
  5
44E
100
AcDbEntity
  8
0
  6
ByLayer
 62
    7
370
   -1
100
AcDbLine
 10
50.14836924505
 20
29.55413849425
 11
49.47259434505
 21
29.67692099425
  0
LINE
  5
44F
100
AcDbEntity
  8
0
  6
ByLayer
 62
    7
370
   -1
100
AcDbLine
 10
50.72321544505
 20
29.47693199425
 11
50.14836924505
 21
29.55413849425
  0
LINE
  5
450
100
AcDbEntity
  8
0
  6
ByLayer
 62
    7
370
   -1
100
AcDbLine
 10
51.38922174505
 20
29.60250629425
 11
50.72321544505
 21
29.47693199425
  0
LINE
  5
451
100
AcDbEntity
  8
0
  6
ByLayer
 62
    7
370
   -1
100
AcDbLine
 10
51.69850674505
 20
29.96248379425
 11
51.38922174505
 21
29.60250629425
  0
LINE
  5
452
100
AcDbEntity
  8
0
  6
ByLayer
 62
    7
370
   -1
100
AcDbLine
 10
52.19196414504999
 20
30.05643299425
 11
51.37108314505
 21
30.07410449425
  0
LINE
  5
453
100
AcDbEntity
  8
0
  6
ByLayer
 62
    7
370
   -1
100
AcDbLine
 10
53.07935154505
 20
30.24014099425
 11
52.19196414504999
 21
30.05643299425
  0
LINE
  5
454
100
AcDbEntity
  8
0
  6
ByLayer
 62
    7
370
   -1
100
AcDbLine
 10
53.59001874505
 20
30.53361209425
 11
53.07935154505
 21
30.24014099425
  0
LINE
  5
455
100
AcDbEntity
  8
0
  6
ByLayer
 62
    7
370
   -1
100
AcDbLine
 10
54.00673674505001
 20
31.32054059425
 11
53.59001874505
 21
30.53361209425
  0
LINE
  5
456
100
AcDbEntity
  8
0
  6
ByLayer
 62
    7
370
   -1
100
AcDbLine
 10
53.92720824505
 20
31.44146279425
 11
54.00673674505001
 21
31.32054059425
  0
LINE
  5
457
100
AcDbEntity
  8
0
  6
ByLayer
 62
    7
370
   -1
100
AcDbLine
 10
54.43508364504999
 20
31.80934859425
 11
53.92720824505
 21
31.44146279425
  0
LINE
  5
458
100
AcDbEntity
  8
0
  6
ByLayer
 62
    7
370
   -1
100
AcDbLine
 10
54.80668734504999
 20
32.47023839425
 11
54.43508364504999
 21
31.80934859425
  0
LINE
  5
459
100
AcDbEntity
  8
0
  6
ByLayer
 62
    7
370
   -1
100
AcDbLine
 10
54.47368554505
 20
32.73068849425
 11
54.80668734504999
 21
32.47023839425
  0
LINE
  5
45A
100
AcDbEntity
  8
0
  6
ByLayer
 62
    7
370
   -1
100
AcDbLine
 10
53.00865744505001
 20
33.31948829425001
 11
54.47368554505
 21
32.73068849425
  0
LINE
  5
45B
100
AcDbEntity
  8
0
  6
ByLayer
 62
    7
370
   -1
100
AcDbLine
 10
51.35434044505001
 20
33.67760549425
 11
53.00865744505001
 21
33.31948829425001
  0
LINE
  5
45C
100
AcDbEntity
  8
0
  6
ByLayer
 62
    7
370
   -1
100
AcDbLine
 10
49.75722834505
 20
34.48499999425
 11
51.35434044505001
 21
33.67760549425
  0
LINE
  5
45D
100
AcDbEntity
  8
0
  6
ByLayer
 62
    7
370
   -1
100
AcDbLine
 10
49.64746794505
 20
34.75428449425
 11
49.75722834505
 21
34.48499999425
  0
LINE
  5
45E
100
AcDbEntity
  8
0
  6
ByLayer
 62
    7
370
   -1
100
AcDbLine
 10
49.26749154504999
 20
35.55981599425
 11
49.64746794505
 21
34.75428449425
  0
LINE
  5
45F
100
AcDbEntity
  8
0
  6
ByLayer
 62
    7
370
   -1
100
AcDbLine
 10
49.11726894505
 20
35.60353439425
 11
49.26749154504999
 21
35.55981599425
  0
LINE
  5
460
100
AcDbEntity
  8
0
  6
ByLayer
 62
    7
370
   -1
100
AcDbLine
 10
48.18523164505
 20
35.91514409425
 11
49.11726894505
 21
35.60353439425
  0
LINE
  5
461
100
AcDbEntity
  8
0
  6
ByLayer
 62
    7
370
   -1
100
AcDbLine
 10
47.08622904505
 20
36.04583489425
 11
48.18523164505
 21
35.91514409425
  0
LINE
  5
462
100
AcDbEntity
  8
0
  6
ByLayer
 62
    7
370
   -1
100
AcDbLine
 10
46.19000454505
 20
36.08583269425
 11
47.08622904505
 21
36.04583489425
  0
LINE
  5
463
100
AcDbEntity
  8
0
  6
ByLayer
 62
    7
370
   -1
100
AcDbLine
 10
45.14681364505
 20
36.07001879425
 11
46.19000454505
 21
36.08583269425
  0
LINE
  5
464
100
AcDbEntity
  8
0
  6
ByLayer
 62
    7
370
   -1
100
AcDbLine
 10
44.07059904505
 20
35.63004569425
 11
45.14681364505
 21
36.07001879425
  0
LINE
  5
465
100
AcDbEntity
  8
0
  6
ByLayer
 62
    7
370
   -1
100
AcDbLine
 10
43.27669374505
 20
34.95287759425
 11
44.07059904505
 21
35.63004569425
  0
LINE
  5
466
100
AcDbEntity
  8
0
  6
ByLayer
 62
    7
370
   -1
100
AcDbLine
 10
42.50883534505
 20
34.25152559425
 11
43.27669374505
 21
34.95287759425
  0
LINE
  5
467
100
AcDbEntity
  8
0
  6
ByLayer
 62
    7
370
   -1
100
AcDbLine
 10
42.25489494505
 20
33.74457899425001
 11
42.50883534505
 21
34.25152559425
  0
LINE
  5
468
100
AcDbEntity
  8
0
  6
ByLayer
 62
    7
370
   -1
100
AcDbLine
 10
42.31814784505
 20
33.39901949425
 11
42.25489494505
 21
33.74457899425001
  0
LINE
  5
469
100
AcDbEntity
  8
0
  6
ByLayer
 62
    7
370
   -1
100
AcDbLine
 10
42.44651124505
 20
32.65859849425
 11
42.31814784505
 21
33.39901949425
  0
LINE
  5
46A
100
AcDbEntity
  8
0
  6
ByLayer
 62
    7
370
   -1
100
AcDbLine
 10
41.54889354505
 20
30.18758819425
 11
42.25815114505
 21
33.02415689425
  0
LINE
  5
46B
100
AcDbEntity
  8
0
  6
ByLayer
 62
    7
370
   -1
100
AcDbLine
 10
41.35448544505
 20
29.43460949425
 11
41.54889354505
 21
30.18758819425
  0
LINE
  5
46C
100
AcDbEntity
  8
0
  6
ByLayer
 62
    7
370
   -1
100
AcDbLine
 10
41.33076594505
 20
28.76255789425
 11
41.35448544505
 21
29.43460949425
  0
LINE
  5
46D
100
AcDbEntity
  8
0
  6
ByLayer
 62
    7
370
   -1
100
AcDbLine
 10
41.04520314505
 20
27.80680109425
 11
41.33076594505
 21
28.76255789425
  0
LINE
  5
46E
100
AcDbEntity
  8
0
  6
ByLayer
 62
    7
370
   -1
100
AcDbLine
 10
40.53965244505
 20
27.38915429425
 11
41.04520314505
 21
27.80680109425
  0
LINE
  5
46F
100
AcDbEntity
  8
0
  6
ByLayer
 62
    7
370
   -1
100
AcDbLine
 10
39.81132474505
 20
26.93848379425
 11
40.53965244505
 21
27.38915429425
  0
LINE
  5
470
100
AcDbEntity
  8
0
  6
ByLayer
 62
    7
370
   -1
100
AcDbLine
 10
38.85510354505
 20
26.60269019425
 11
39.81132474505
 21
26.93848379425
  0
LINE
  5
471
100
AcDbEntity
  8
0
  6
ByLayer
 62
    7
370
   -1
100
AcDbLine
 10
38.30490564505
 20
26.05946639425
 11
38.85510354505
 21
26.60269019425
  0
LINE
  5
472
100
AcDbEntity
  8
0
  6
ByLayer
 62
    7
370
   -1
100
AcDbLine
 10
38.01794424505
 20
25.12836059425
 11
38.30490564505
 21
26.05946639425
  0
LINE
  5
473
100
AcDbEntity
  8
0
  6
ByLayer
 62
    7
370
   -1
100
AcDbLine
 10
38.74534314505
 20
26.87197469425
 11
39.09555474505
 21
26.81104919425
  0
LINE
  5
474
100
AcDbEntity
  8
0
  6
ByLayer
 62
    7
370
   -1
100
AcDbLine
 10
38.03143344505
 20
26.69477639425
 11
38.74534314505
 21
26.87197469425
  0
LINE
  5
475
100
AcDbEntity
  8
0
  6
ByLayer
 62
    7
370
   -1
100
AcDbLine
 10
37.32310464505
 20
26.36921579425
 11
38.03143344505
 21
26.69477639425
  0
LINE
  5
476
100
AcDbEntity
  8
0
  6
ByLayer
 62
    7
370
   -1
100
AcDbLine
 10
36.53059524504999
 20
25.66693229425
 11
37.32310464505
 21
26.36921579425
  0
LINE
  5
477
100
AcDbEntity
  8
0
  6
ByLayer
 62
    7
370
   -1
100
AcDbLine
 10
35.72273634505
 20
24.71582759419
 11
36.53059524504999
 21
25.66693229425
  0
LINE
  5
478
100
AcDbEntity
  8
0
  6
ByLayer
 62
    7
370
   -1
100
AcDbLine
 10
35.28974004505
 20
23.70472619419
 11
35.72273634505
 21
24.71582759419
  0
LINE
  5
479
100
AcDbEntity
  8
0
  6
ByLayer
 62
    7
370
   -1
100
AcDbLine
 10
35.62227744505
 20
26.65059359425
 11
37.04358714505
 21
26.53199609425
  0
LINE
  5
47A
100
AcDbEntity
  8
0
  6
ByLayer
 62
    7
370
   -1
100
AcDbLine
 10
33.54426564505
 20
27.04173179425
 11
35.62227744505
 21
26.65059359425
  0
LINE
  5
47B
100
AcDbEntity
  8
0
  6
ByLayer
 62
    7
370
   -1
100
AcDbLine
 10
31.28998434505
 20
27.47565959425
 11
33.54426564505
 21
27.04173179425
  0
LINE
  5
47C
100
AcDbEntity
  8
0
  6
ByLayer
 62
    7
370
   -1
100
AcDbLine
 10
28.39574094505
 20
27.76029359425
 11
31.28998434505
 21
27.47565959425
  0
LINE
  5
47D
100
AcDbEntity
  8
0
  6
ByLayer
 62
    7
370
   -1
100
AcDbLine
 10
25.59219324505
 20
27.62588219425
 11
28.39574094505
 21
27.76029359425
  0
LINE
  5
47E
100
AcDbEntity
  8
0
  6
ByLayer
 62
    7
370
   -1
100
AcDbLine
 10
23.26675344511
 20
26.71477529425
 11
25.59219324505
 21
27.62588219425
  0
LINE
  5
47F
100
AcDbEntity
  8
0
  6
ByLayer
 62
    7
370
   -1
100
AcDbLine
 10
21.90776514511
 20
25.86645419425
 11
23.26675344511
 21
26.71477529425
  0
LINE
  5
480
100
AcDbEntity
  8
0
  6
ByLayer
 62
    7
370
   -1
100
AcDbLine
 10
20.22693954511
 20
24.35910629419
 11
21.90776514511
 21
25.86645419425
  0
LINE
  5
481
100
AcDbEntity
  8
0
  6
ByLayer
 62
    7
370
   -1
100
AcDbLine
 10
19.56883884511
 20
23.38893149419
 11
20.22693954511
 21
24.35910629419
  0
LINE
  5
482
100
AcDbEntity
  8
0
  6
ByLayer
 62
    7
370
   -1
100
AcDbLine
 10
19.60465164511
 20
22.47084779419
 11
19.56883884511
 21
23.38893149419
  0
LINE
  5
483
100
AcDbEntity
  8
0
  6
ByLayer
 62
    7
370
   -1
100
AcDbLine
 10
20.01532434511
 20
20.22493919419
 11
19.60465164511
 21
22.47084779419
  0
LINE
  5
484
100
AcDbEntity
  8
0
  6
ByLayer
 62
    7
370
   -1
100
AcDbLine
 10
20.33251224511
 20
19.74031889419
 11
20.01532434511
 21
20.22493919419
  0
LINE
  5
485
100
AcDbEntity
  8
0
  6
ByLayer
 62
    7
370
   -1
100
AcDbLine
 10
20.74737264511
 20
19.30918019419
 11
20.33251224511
 21
19.74031889419
  0
LINE
  5
486
100
AcDbEntity
  8
0
  6
ByLayer
 62
    7
370
   -1
100
AcDbLine
 10
20.74923294511
 20
17.34558089419
 11
20.43855474511
 21
19.57056179419
  0
LINE
  5
487
100
AcDbEntity
  8
0
  6
ByLayer
 62
    7
370
   -1
100
AcDbLine
 10
21.16781124511
 20
16.81537919419
 11
20.74923294511
 21
17.34558089419
  0
ENDSEC
  0
SECTION
  2
OBJECTS
  0
DICTIONARY
  5
C
330
0
100
AcDbDictionary
281
    1
  3
ACAD_GROUP
350
D
  0
DICTIONARY
  5
D
330
C
100
AcDbDictionary
281
    1
  0
ENDSEC
  0
EOF
