999
dxfrw 0.6.3
  0
SECTION
  2
HEADER
  9
$ACADVER
  1
AC1021
  9
$DWGCODEPAGE
  3
ANSI_1252
  9
$INSBASE
 10
0
 20
0
 30
0
  9
$EXTMIN
 10
0
 20
0
 30
0
  9
$EXTMAX
 10
142152.092
 20
374167.83
 30
0
  9
$LIMMIN
 10
0
 20
0
  9
$LIMMAX
 10
12
 20
9
  9
$ORTHOMODE
 70
    0
  9
$REGENMODE
 70
    1
  9
$FILLMODE
 70
    1
  9
$QTEXTMODE
 70
    0
  9
$MIRRTEXT
 70
    1
  9
$LTSCALE
 40
1
  9
$ATTMODE
 70
    1
  9
$TEXTSIZE
 40
0.2
  9
$TRACEWID
 40
0.05
  9
$TEXTSTYLE
  7
STANDARD
  9
$CLAYER
  8
PERCELEN
  9
$CELTYPE
  6
BYLAYER
  9
$CECOLOR
 62
  256
  9
$CELTSCALE
 40
1
  9
$DISPSILH
 70
    0
  9
$DIMSCALE
 40
1
  9
$DIMASZ
 40
0.18
  9
$DIMEXO
 40
0.0625
  9
$DIMDLI
 40
0.38
  9
$DIMRND
 40
0
  9
$DIMDLE
 40
0
  9
$DIMEXE
 40
0.18
  9
$DIMTP
 40
0
  9
$DIMTM
 40
0
  9
$DIMTXT
 40
0.18
  9
$DIMCEN
 40
0.09
  9
$DIMTSZ
 40
0
  9
$DIMTOL
 70
    0
  9
$DIMLIM
 70
    0
  9
$DIMTIH
 70
    1
  9
$DIMTOH
 70
    1
  9
$DIMSE1
 70
    0
  9
$DIMSE2
 70
    0
  9
$DIMTAD
 70
    0
  9
$DIMZIN
 70
    0
  9
$DIMBLK
  1

  9
$DIMASO
 70
    1
  9
$DIMSHO
 70
    1
  9
$DIMPOST
  1

  9
$DIMAPOST
  1

  9
$DIMALT
 70
    0
  9
$DIMALTD
 70
    2
  9
$DIMALTF
 40
25.4
  9
$DIMLFAC
 40
1
  9
$DIMTOFL
 70
    0
  9
$DIMTVP
 40
0
  9
$DIMTIX
 70
    0
  9
$DIMSOXD
 70
    0
  9
$DIMSAH
 70
    0
  9
$DIMBLK1
  1

  9
$DIMBLK2
  1

  9
$DIMSTYLE
  2
STANDARD
  9
$DIMCLRD
 70
    0
  9
$DIMCLRE
 70
    0
  9
$DIMCLRT
 70
    0
  9
$DIMTFAC
 40
1
  9
$DIMGAP
 40
0.09
  9
$DIMJUST
 70
    0
  9
$DIMSD1
 70
    0
  9
$DIMSD2
 70
    0
  9
$DIMTOLJ
 70
    0
  9
$DIMTZIN
 70
    8
  9
$DIMALTZ
 70
    0
  9
$DIMALTTZ
 70
    0
  9
$DIMUPT
 70
    0
  9
$DIMDEC
 70
    4
  9
$DIMTDEC
 70
    2
  9
$DIMALTU
 70
    2
  9
$DIMALTTD
 70
    3
  9
$DIMTXSTY
  7
STANDARD
  9
$DIMAUNIT
 70
    0
  9
$DIMADEC
 70
    0
  9
$DIMALTRND
 40
0
  9
$DIMAZIN
 70
    0
  9
$DIMDSEP
 70
   44
  9
$DIMATFIT
 70
    3
  9
$DIMFRAC
 70
    0
  9
$DIMLDRBLK
  1
STANDARD
  9
$DIMLUNIT
 70
    2
  9
$DIMLWD
 70
   -2
  9
$DIMLWE
 70
   -2
  9
$DIMTMOVE
 70
    0
  9
$DIMFXL
 40
1
  9
$DIMFXLON
 70
    0
  9
$DIMJOGANG
 40
0.7854
  9
$DIMTFILL
 70
    0
  9
$DIMTFILLCLR
 70
    0
  9
$DIMARCSYM
 70
    0
  9
$DIMLTYPE
  6

  9
$DIMLTEX1
  6

  9
$DIMLTEX2
  6

  9
$LUNITS
 70
    2
  9
$LUPREC
 70
    4
  9
$SKETCHINC
 40
0.1
  9
$FILLETRAD
 40
0.5
  9
$AUNITS
 70
    0
  9
$AUPREC
 70
    0
  9
$MENU
  1
.
  9
$ELEVATION
 40
0
  9
$PELEVATION
 40
0
  9
$THICKNESS
 40
0
  9
$LIMCHECK
 70
    0
  9
$CHAMFERA
 40
0
  9
$CHAMFERB
 40
0
  9
$CHAMFERC
 40
0
  9
$CHAMFERD
 40
0
  9
$SKPOLY
 70
    0
  9
$USRTIMER
 70
    1
  9
$ANGBASE
 50
0
  9
$ANGDIR
 70
    0
  9
$PDMODE
 70
    0
  9
$PDSIZE
 40
0
  9
$PLINEWID
 40
0
  9
$SPLFRAME
 70
    0
  9
$SPLINETYPE
 70
    6
  9
$SPLINESEGS
 70
    8
  9
$HANDSEED
  5
20000
  9
$SURFTAB1
 70
    6
  9
$SURFTAB2
 70
    6
  9
$SURFTYPE
 70
    6
  9
$SURFU
 70
    6
  9
$SURFV
 70
    6
  9
$UCSBASE
  2

  9
$UCSNAME
  2

  9
$UCSORG
 10
0
 20
0
 30
0
  9
$UCSXDIR
 10
1
 20
0
 30
0
  9
$UCSYDIR
 10
0
 20
1
 30
0
  9
$UCSORTHOREF
  2

  9
$UCSORTHOVIEW
 70
    0
  9
$UCSORGTOP
 10
0
 20
0
 30
0
  9
$UCSORGBOTTOM
 10
0
 20
0
 30
0
  9
$UCSORGLEFT
 10
0
 20
0
 30
0
  9
$UCSORGRIGHT
 10
0
 20
0
 30
0
  9
$UCSORGFRONT
 10
0
 20
0
 30
0
  9
$UCSORGBACK
 10
0
 20
0
 30
0
  9
$PUCSBASE
  2

  9
$PUCSNAME
  2

  9
$PUCSORG
 10
0
 20
0
 30
0
  9
$PUCSXDIR
 10
1
 20
0
 30
0
  9
$PUCSYDIR
 10
0
 20
1
 30
0
  9
$PUCSORTHOREF
  2

  9
$PUCSORTHOVIEW
 70
    0
  9
$PUCSORGTOP
 10
0
 20
0
 30
0
  9
$PUCSORGBOTTOM
 10
0
 20
0
 30
0
  9
$PUCSORGLEFT
 10
0
 20
0
 30
0
  9
$PUCSORGRIGHT
 10
0
 20
0
 30
0
  9
$PUCSORGFRONT
 10
0
 20
0
 30
0
  9
$PUCSORGBACK
 10
0
 20
0
 30
0
  9
$USERI1
 70
    0
  9
$USERI2
 70
    0
  9
$USERI3
 70
    0
  9
$USERI4
 70
    0
  9
$USERI5
 70
    0
  9
$USERR1
 40
0
  9
$USERR2
 40
0
  9
$USERR3
 40
0
  9
$USERR4
 40
0
  9
$USERR5
 40
0
  9
$WORLDVIEW
 70
    1
  9
$SHADEDGE
 70
    3
  9
$SHADEDIF
 70
   70
  9
$TILEMODE
 70
    1
  9
$MAXACTVP
 70
   64
  9
$PINSBASE
 10
0
 20
0
 30
0
  9
$PLIMCHECK
 70
    0
  9
$PEXTMIN
 10
1e+20
 20
1e+20
 30
1e+20
  9
$PEXTMAX
 10
-1e+20
 20
-1e+20
 30
-1e+20
  9
$GRIDMODE
 70
    0
  9
$SNAPSTYLE
 70
    0
  9
$PLIMMIN
 10
0
 20
0
  9
$PLIMMAX
 10
12
 20
9
  9
$UNITMODE
 70
    0
  9
$VISRETAIN
 70
    1
  9
$PLINEGEN
 70
    0
  9
$PSLTSCALE
 70
    1
  9
$TREEDEPTH
 70
 3020
  9
$CMLSTYLE
  2
Standard
  9
$CMLJUST
 70
    0
  9
$CMLSCALE
 40
20
  9
$PROXYGRAPHICS
 70
    1
  9
$MEASUREMENT
 70
    1
  9
$CELWEIGHT
370
   -1
  9
$ENDCAPS
280
    0
  9
$JOINSTYLE
280
    0
  9
$LWDISPLAY
290
    0
  9
$INSUNITS
 70
    7
  9
$HYPERLINKBASE
  1

  9
$STYLESHEET
  1

  9
$XEDIT
290
    1
  9
$CEPSNTYPE
380
    0
  9
$PSTYLEMODE
290
    1
  9
$EXTNAMES
290
    1
  9
$PSVPSCALE
 40
1
  9
$OLESTARTUP
290
    0
  9
$SORTENTS
280
  127
  9
$INDEXCTL
280
    0
  9
$HIDETEXT
280
    1
  9
$XCLIPFRAME
290
    0
  9
$HALOGAP
280
    0
  9
$OBSCOLOR
 70
  257
  9
$OBSLTYPE
280
    0
  9
$INTERSECTIONDISPLAY
280
    0
  9
$INTERSECTIONCOLOR
 70
  257
  9
$DIMASSOC
280
    1
  9
$PROJECTNAME
  1

  9
$CAMERADISPLAY
290
    0
  9
$LENSLENGTH
 40
50
  9
$CAMERAHEIGHT
 40
0
  9
$STEPSPERSEC
 40
2
  9
$STEPSIZE
 40
50
  9
$3DDWFPREC
 40
2
  9
$PSOLWIDTH
 40
5
  9
$PSOLHEIGHT
 40
80
  9
$LOFTANG1
 40
1.570796326794897
  9
$LOFTANG2
 40
1.570796326794897
  9
$LOFTMAG1
 40
0
  9
$LOFTMAG2
 40
0
  9
$LOFTPARAM
 70
    7
  9
$LOFTNORMALS
280
    1
  9
$LATITUDE
 40
1
  9
$LONGITUDE
 40
1
  9
$NORTHDIRECTION
 40
0
  9
$TIMEZONE
 70
-8000
  9
$LIGHTGLYPHDISPLAY
280
    1
  9
$TILEMODELIGHTSYNCH
280
    1
  9
$SOLIDHIST
280
    1
  9
$SHOWHIST
280
    1
  9
$DWFFRAME
280
    2
  9
$DGNFRAME
280
    0
  9
$REALWORLDSCALE
290
    1
  9
$INTERFERECOLOR
 62
    1
  9
$CSHADOW
280
    0
  9
$SHADOWPLANELOCATION
 40
0
  0
ENDSEC
  0
SECTION
  2
CLASSES
  0
ENDSEC
  0
SECTION
  2
TABLES
  0
TABLE
  2
VPORT
  5
8
330
0
100
AcDbSymbolTable
 70
    1
  0
VPORT
  5
31
330
2
100
AcDbSymbolTableRecord
100
AcDbViewportTableRecord
  2
*ACTIVE
 70
    0
 10
0
 20
0
 11
1
 21
1
 12
-128885.2663790932
 22
12016.72501889169
 13
0
 23
0
 14
10
 24
10
 15
10
 25
10
 16
0
 26
0
 36
1
 17
0
 27
0
 37
0
 40
28745.89122166247
 41
1.295081967213115
 42
50
 43
0
 44
0
 50
0
 51
0
 71
    0
 72
  100
 73
    1
 74
    3
 75
    0
 76
    0
 77
    0
 78
    0
281
    0
 65
    1
110
0
120
0
130
0
111
1
121
0
131
0
112
0
122
1
132
0
 79
    0
146
0
348
10020
 60
    7
 61
    5
292
1
282
    1
141
0
142
0
 63
  250
421
3358443
  0
ENDTAB
  0
TABLE
  2
LTYPE
  5
5
330
0
100
AcDbSymbolTable
 70
    4
  0
LTYPE
  5
14
330
5
100
AcDbSymbolTableRecord
100
AcDbLinetypeTableRecord
  2
ByBlock
 70
    0
  3

 72
   65
 73
    0
 40
0
  0
LTYPE
  5
15
330
5
100
AcDbSymbolTableRecord
100
AcDbLinetypeTableRecord
  2
ByLayer
 70
    0
  3

 72
   65
 73
    0
 40
0
  0
LTYPE
  5
16
330
5
100
AcDbSymbolTableRecord
100
AcDbLinetypeTableRecord
  2
Continuous
 70
    0
  3
Solid line
 72
   65
 73
    0
 40
0
  0
LTYPE
  5
32
330
5
100
AcDbSymbolTableRecord
100
AcDbLinetypeTableRecord
  2
DOT
 70
    0
  3
Dot . . . . . . . . . . . . . . . . . . . . . .
 72
   65
 73
    2
 40
6.35
 49
0
 74
    0
 49
-6.35
 74
    0
  0
LTYPE
  5
33
330
5
100
AcDbSymbolTableRecord
100
AcDbLinetypeTableRecord
  2
DOTTINY
 70
    0
  3
Dot (.15x) .....................................
 72
   65
 73
    2
 40
0.9525
 49
0
 74
    0
 49
-0.9525
 74
    0
  0
LTYPE
  5
34
330
5
100
AcDbSymbolTableRecord
100
AcDbLinetypeTableRecord
  2
DOT2
 70
    0
  3
Dot (.5x) .....................................
 72
   65
 73
    2
 40
3.175
 49
0
 74
    0
 49
-3.175
 74
    0
  0
LTYPE
  5
35
330
5
100
AcDbSymbolTableRecord
100
AcDbLinetypeTableRecord
  2
DOTX2
 70
    0
  3
Dot (2x) .  .  .  .  .  .  .  .  .  .  .  .  .
 72
   65
 73
    2
 40
12.7
 49
0
 74
    0
 49
-12.7
 74
    0
  0
LTYPE
  5
36
330
5
100
AcDbSymbolTableRecord
100
AcDbLinetypeTableRecord
  2
DASHED
 70
    0
  3
Dashed _ _ _ _ _ _ _ _ _ _ _ _ _ _ _ _ _
 72
   65
 73
    2
 40
19.05
 49
12.7
 74
    0
 49
-6.35
 74
    0
  0
LTYPE
  5
37
330
5
100
AcDbSymbolTableRecord
100
AcDbLinetypeTableRecord
  2
DASHEDTINY
 70
    0
  3
Dashed (.15x) _ _ _ _ _ _ _ _ _ _ _ _ _ _ _ _ _
 72
   65
 73
    2
 40
2.8575
 49
1.905
 74
    0
 49
-0.9525
 74
    0
  0
LTYPE
  5
38
330
5
100
AcDbSymbolTableRecord
100
AcDbLinetypeTableRecord
  2
DASHED2
 70
    0
  3
Dashed (.5x) _ _ _ _ _ _ _ _ _ _ _ _ _ _ _ _ _
 72
   65
 73
    2
 40
9.524999999999999
 49
6.35
 74
    0
 49
-3.175
 74
    0
  0
LTYPE
  5
39
330
5
100
AcDbSymbolTableRecord
100
AcDbLinetypeTableRecord
  2
DASHEDX2
 70
    0
  3
Dashed (2x) ____  ____  ____  ____  ____  ___
 72
   65
 73
    2
 40
38.09999999999999
 49
25.4
 74
    0
 49
-12.7
 74
    0
  0
LTYPE
  5
3A
330
5
100
AcDbSymbolTableRecord
100
AcDbLinetypeTableRecord
  2
DASHDOT
 70
    0
  3
Dash dot __ . __ . __ . __ . __ . __ . __ . __
 72
   65
 73
    4
 40
25.4
 49
12.7
 74
    0
 49
-6.35
 74
    0
 49
0
 74
    0
 49
-6.35
 74
    0
  0
LTYPE
  5
3B
330
5
100
AcDbSymbolTableRecord
100
AcDbLinetypeTableRecord
  2
DASHDOTTINY
 70
    0
  3
Dash dot (.15x) _._._._._._._._._._._._._._._.
 72
   65
 73
    4
 40
3.81
 49
1.905
 74
    0
 49
-0.9525
 74
    0
 49
0
 74
    0
 49
-0.9525
 74
    0
  0
LTYPE
  5
3C
330
5
100
AcDbSymbolTableRecord
100
AcDbLinetypeTableRecord
  2
DASHDOT2
 70
    0
  3
Dash dot (.5x) _._._._._._._._._._._._._._._.
 72
   65
 73
    4
 40
12.7
 49
6.35
 74
    0
 49
-3.175
 74
    0
 49
0
 74
    0
 49
-3.175
 74
    0
  0
LTYPE
  5
3D
330
5
100
AcDbSymbolTableRecord
100
AcDbLinetypeTableRecord
  2
DASHDOTX2
 70
    0
  3
Dash dot (2x) ____  .  ____  .  ____  .  ___
 72
   65
 73
    4
 40
50.8
 49
25.4
 74
    0
 49
-12.7
 74
    0
 49
0
 74
    0
 49
-12.7
 74
    0
  0
LTYPE
  5
3E
330
5
100
AcDbSymbolTableRecord
100
AcDbLinetypeTableRecord
  2
DIVIDE
 70
    0
  3
Divide ____ . . ____ . . ____ . . ____ . . ____
 72
   65
 73
    6
 40
31.75
 49
12.7
 74
    0
 49
-6.35
 74
    0
 49
0
 74
    0
 49
-6.35
 74
    0
 49
0
 74
    0
 49
-6.35
 74
    0
  0
LTYPE
  5
3F
330
5
100
AcDbSymbolTableRecord
100
AcDbLinetypeTableRecord
  2
DIVIDETINY
 70
    0
  3
Divide (.15x) __..__..__..__..__..__..__..__.._
 72
   65
 73
    6
 40
4.7625
 49
1.905
 74
    0
 49
-0.9525
 74
    0
 49
0
 74
    0
 49
-0.9525
 74
    0
 49
0
 74
    0
 49
-0.9525
 74
    0
  0
LTYPE
  5
40
330
5
100
AcDbSymbolTableRecord
100
AcDbLinetypeTableRecord
  2
DIVIDE2
 70
    0
  3
Divide (.5x) __..__..__..__..__..__..__..__.._
 72
   65
 73
    6
 40
15.875
 49
6.35
 74
    0
 49
-3.175
 74
    0
 49
0
 74
    0
 49
-3.175
 74
    0
 49
0
 74
    0
 49
-3.175
 74
    0
  0
LTYPE
  5
41
330
5
100
AcDbSymbolTableRecord
100
AcDbLinetypeTableRecord
  2
DIVIDEX2
 70
    0
  3
Divide (2x) ________  .  .  ________  .  .  _
 72
   65
 73
    6
 40
63.5
 49
25.4
 74
    0
 49
-12.7
 74
    0
 49
0
 74
    0
 49
-12.7
 74
    0
 49
0
 74
    0
 49
-12.7
 74
    0
  0
LTYPE
  5
42
330
5
100
AcDbSymbolTableRecord
100
AcDbLinetypeTableRecord
  2
BORDER
 70
    0
  3
Border __ __ . __ __ . __ __ . __ __ . __ __ .
 72
   65
 73
    6
 40
44.45
 49
12.7
 74
    0
 49
-6.35
 74
    0
 49
12.7
 74
    0
 49
-6.35
 74
    0
 49
0
 74
    0
 49
-6.35
 74
    0
  0
LTYPE
  5
43
330
5
100
AcDbSymbolTableRecord
100
AcDbLinetypeTableRecord
  2
BORDERTINY
 70
    0
  3
Border (.15x) __.__.__.__.__.__.__.__.__.__.__.
 72
   65
 73
    6
 40
6.6675
 49
1.905
 74
    0
 49
-0.9525
 74
    0
 49
1.905
 74
    0
 49
-0.9525
 74
    0
 49
0
 74
    0
 49
-0.9525
 74
    0
  0
LTYPE
  5
44
330
5
100
AcDbSymbolTableRecord
100
AcDbLinetypeTableRecord
  2
BORDER2
 70
    0
  3
Border (.5x) __.__.__.__.__.__.__.__.__.__.__.
 72
   65
 73
    6
 40
22.225
 49
6.35
 74
    0
 49
-3.175
 74
    0
 49
6.35
 74
    0
 49
-3.175
 74
    0
 49
0
 74
    0
 49
-3.175
 74
    0
  0
LTYPE
  5
45
330
5
100
AcDbSymbolTableRecord
100
AcDbLinetypeTableRecord
  2
BORDERX2
 70
    0
  3
Border (2x) ____  ____  .  ____  ____  .  ___
 72
   65
 73
    6
 40
88.89999999999999
 49
25.4
 74
    0
 49
-12.7
 74
    0
 49
25.4
 74
    0
 49
-12.7
 74
    0
 49
0
 74
    0
 49
-12.7
 74
    0
  0
LTYPE
  5
46
330
5
100
AcDbSymbolTableRecord
100
AcDbLinetypeTableRecord
  2
CENTER
 70
    0
  3
Center ____ _ ____ _ ____ _ ____ _ ____ _ ____
 72
   65
 73
    4
 40
50.8
 49
31.75
 74
    0
 49
-6.35
 74
    0
 49
6.35
 74
    0
 49
-6.35
 74
    0
  0
LTYPE
  5
47
330
5
100
AcDbSymbolTableRecord
100
AcDbLinetypeTableRecord
  2
CENTERTINY
 70
    0
  3
Center (.15x) ___ _ ___ _ ___ _ ___ _ ___ _ ___
 72
   65
 73
    4
 40
7.619999999999999
 49
4.7625
 74
    0
 49
-0.9525
 74
    0
 49
0.9525
 74
    0
 49
-0.9525
 74
    0
  0
LTYPE
  5
48
330
5
100
AcDbSymbolTableRecord
100
AcDbLinetypeTableRecord
  2
CENTER2
 70
    0
  3
Center (.5x) ___ _ ___ _ ___ _ ___ _ ___ _ ___
 72
   65
 73
    4
 40
28.575
 49
19.05
 74
    0
 49
-3.175
 74
    0
 49
3.175
 74
    0
 49
-3.175
 74
    0
  0
LTYPE
  5
49
330
5
100
AcDbSymbolTableRecord
100
AcDbLinetypeTableRecord
  2
CENTERX2
 70
    0
  3
Center (2x) ________  __  ________  __  _____
 72
   65
 73
    4
 40
101.6
 49
63.5
 74
    0
 49
-12.7
 74
    0
 49
12.7
 74
    0
 49
-12.7
 74
    0
  0
ENDTAB
  0
TABLE
  2
LAYER
  5
2
330
0
100
AcDbSymbolTable
 70
    1
  0
LAYER
  5
10
330
2
100
AcDbSymbolTableRecord
100
AcDbLayerTableRecord
  2
0
 70
    0
 62
    7
  6
CONTINUOUS
370
   -3
390
F
  0
LAYER
  5
4A
330
2
100
AcDbSymbolTableRecord
100
AcDbLayerTableRecord
  2
ANNOTATIE
 70
    0
 62
    1
  6
CONTINUOUS
370
   -3
390
F
  0
LAYER
  5
4B
330
2
100
AcDbSymbolTableRecord
100
AcDbLayerTableRecord
  2
GEBOUWCONTOUREN
 70
    0
 62
   20
  6
CONTINUOUS
370
   -3
390
F
  0
LAYER
  5
4C
330
2
100
AcDbSymbolTableRecord
100
AcDbLayerTableRecord
  2
PERCELEN
 70
    0
 62
    5
  6
CONTINUOUS
370
   -3
390
F
  0
ENDTAB
  0
TABLE
  2
STYLE
  5
3
330
0
100
AcDbSymbolTable
 70
    3
  0
STYLE
  5
4D
330
2
100
AcDbSymbolTableRecord
100
AcDbTextStyleTableRecord
  2
standard
 70
    0
 40
0
 41
1
 50
0
 71
    0
 42
1
  3
standard
  4

  0
ENDTAB
  0
TABLE
  2
VIEW
  5
6
330
0
100
AcDbSymbolTable
 70
    0
  0
ENDTAB
  0
TABLE
  2
UCS
  5
7
330
0
100
AcDbSymbolTable
 70
    0
  0
ENDTAB
  0
TABLE
  2
APPID
  5
9
330
0
100
AcDbSymbolTable
 70
    1
  0
APPID
  5
12
330
9
100
AcDbSymbolTableRecord
100
AcDbRegAppTableRecord
  2
ACAD
 70
    0
  0
APPID
  5
4E
330
9
100
AcDbSymbolTableRecord
100
AcDbRegAppTableRecord
  2
LibreCad
 70
    0
  0
ENDTAB
  0
TABLE
  2
DIMSTYLE
  5
A
330
0
100
AcDbSymbolTable
 70
    1
100
AcDbDimStyleTable
 71
    1
  0
DIMSTYLE
105
4F
330
A
100
AcDbSymbolTableRecord
100
AcDbDimStyleTableRecord
  2
Standard
 70
    0
 40
1
 41
0.18
 42
0.0625
 43
0.38
 44
0.18
 45
0
 46
0
 47
0
 48
0
 49
1
140
0.18
141
0.09
142
0
143
25.4
144
1
145
0
146
1
147
0.09
148
0
 71
    0
 72
    0
 73
    1
 74
    1
 75
    0
 76
    0
 77
    0
 78
    0
 79
    0
170
    0
171
    2
172
    0
173
    0
174
    0
175
    0
176
    0
177
    0
178
    0
179
    0
271
    4
272
    4
273
    2
274
    2
275
    0
276
    0
277
    2
278
    0
279
    0
280
    0
281
    0
282
    0
283
    1
284
    0
285
    0
286
    0
288
    0
289
    3
340
standard
341

371
   -2
372
   -2
  0
ENDTAB
  0
TABLE
  2
BLOCK_RECORD
  5
1
330
0
100
AcDbSymbolTable
 70
    2
  0
BLOCK_RECORD
  5
1F
330
1
100
AcDbSymbolTableRecord
100
AcDbBlockTableRecord
  2
*Model_Space
 70
    0
280
    1
281
    0
  0
BLOCK_RECORD
  5
1E
330
1
100
AcDbSymbolTableRecord
100
AcDbBlockTableRecord
  2
*Paper_Space
 70
    0
280
    1
281
    0
  0
BLOCK_RECORD
  5
50
330
1
100
AcDbSymbolTableRecord
100
AcDbBlockTableRecord
  2
KK_2DXF12_ACAD_1_FMEBLOCK1
 70
    0
280
    1
281
    0
  0
BLOCK_RECORD
  5
53
330
1
100
AcDbSymbolTableRecord
100
AcDbBlockTableRecord
  2
KK_2DXF12_ACAD_1_FMEBLOCK2
 70
    0
280
    1
281
    0
  0
BLOCK_RECORD
  5
56
330
1
100
AcDbSymbolTableRecord
100
AcDbBlockTableRecord
  2
KK_2DXF12_ACAD_1_FMEBLOCK3
 70
    0
280
    1
281
    0
  0
BLOCK_RECORD
  5
59
330
1
100
AcDbSymbolTableRecord
100
AcDbBlockTableRecord
  2
KK_2DXF12_ACAD_1_FMEBLOCK4
 70
    0
280
    1
281
    0
  0
BLOCK_RECORD
  5
5C
330
1
100
AcDbSymbolTableRecord
100
AcDbBlockTableRecord
  2
KK_2DXF12_ACAD_1_FMEBLOCK5
 70
    0
280
    1
281
    0
  0
BLOCK_RECORD
  5
5F
330
1
100
AcDbSymbolTableRecord
100
AcDbBlockTableRecord
  2
KK_2DXF12_ACAD_1_FMEBLOCK6
 70
    0
280
    1
281
    0
  0
BLOCK_RECORD
  5
62
330
1
100
AcDbSymbolTableRecord
100
AcDbBlockTableRecord
  2
KK_2DXF12_ACAD_1_FMEBLOCK7
 70
    0
280
    1
281
    0
  0
BLOCK_RECORD
  5
65
330
1
100
AcDbSymbolTableRecord
100
AcDbBlockTableRecord
  2
KK_2DXF12_ACAD_1_FMEBLOCK8
 70
    0
280
    1
281
    0
  0
BLOCK_RECORD
  5
68
330
1
100
AcDbSymbolTableRecord
100
AcDbBlockTableRecord
  2
KK_2DXF12_ACAD_1_FMEBLOCK9
 70
    0
280
    1
281
    0
  0
BLOCK_RECORD
  5
6B
330
1
100
AcDbSymbolTableRecord
100
AcDbBlockTableRecord
  2
KK_2DXF12_ACAD_1_FMEBLOCK0
 70
    0
280
    1
281
    0
  0
BLOCK_RECORD
  5
6E
330
1
100
AcDbSymbolTableRecord
100
AcDbBlockTableRecord
  2
KK_2DXF12_ACAD_1_FMEBLOCKA
 70
    0
280
    1
281
    0
  0
BLOCK_RECORD
  5
71
330
1
100
AcDbSymbolTableRecord
100
AcDbBlockTableRecord
  2
KK_2DXF12_ACAD_1_FMEBLOCKB
 70
    0
280
    1
281
    0
  0
BLOCK_RECORD
  5
74
330
1
100
AcDbSymbolTableRecord
100
AcDbBlockTableRecord
  2
KK_2DXF12_ACAD_1_FMEBLOCKC
 70
    0
280
    1
281
    0
  0
BLOCK_RECORD
  5
77
330
1
100
AcDbSymbolTableRecord
100
AcDbBlockTableRecord
  2
KK_2DXF12_ACAD_1_FMEBLOCKD
 70
    0
280
    1
281
    0
  0
BLOCK_RECORD
  5
7A
330
1
100
AcDbSymbolTableRecord
100
AcDbBlockTableRecord
  2
KK_2DXF12_ACAD_1_FMEBLOCKE
 70
    0
280
    1
281
    0
  0
BLOCK_RECORD
  5
7D
330
1
100
AcDbSymbolTableRecord
100
AcDbBlockTableRecord
  2
KK_2DXF12_ACAD_1_FMEBLOCKF
 70
    0
280
    1
281
    0
  0
BLOCK_RECORD
  5
80
330
1
100
AcDbSymbolTableRecord
100
AcDbBlockTableRecord
  2
KK_2DXF12_ACAD_1_FMEBLOCKG
 70
    0
280
    1
281
    0
  0
BLOCK_RECORD
  5
83
330
1
100
AcDbSymbolTableRecord
100
AcDbBlockTableRecord
  2
KK_2DXF12_ACAD_1_FMEBLOCKH
 70
    0
280
    1
281
    0
  0
BLOCK_RECORD
  5
86
330
1
100
AcDbSymbolTableRecord
100
AcDbBlockTableRecord
  2
KK_2DXF12_ACAD_1_FMEBLOCKI
 70
    0
280
    1
281
    0
  0
BLOCK_RECORD
  5
89
330
1
100
AcDbSymbolTableRecord
100
AcDbBlockTableRecord
  2
KK_2DXF12_ACAD_1_FMEBLOCKJ
 70
    0
280
    1
281
    0
  0
BLOCK_RECORD
  5
8C
330
1
100
AcDbSymbolTableRecord
100
AcDbBlockTableRecord
  2
KK_2DXF12_ACAD_1_FMEBLOCKK
 70
    0
280
    1
281
    0
  0
BLOCK_RECORD
  5
8F
330
1
100
AcDbSymbolTableRecord
100
AcDbBlockTableRecord
  2
KK_2DXF12_ACAD_1_FMEBLOCKL
 70
    0
280
    1
281
    0
  0
BLOCK_RECORD
  5
92
330
1
100
AcDbSymbolTableRecord
100
AcDbBlockTableRecord
  2
KK_2DXF12_ACAD_1_FMEBLOCKM
 70
    0
280
    1
281
    0
  0
BLOCK_RECORD
  5
95
330
1
100
AcDbSymbolTableRecord
100
AcDbBlockTableRecord
  2
KK_2DXF12_ACAD_1_FMEBLOCKN
 70
    0
280
    1
281
    0
  0
ENDTAB
  0
ENDSEC
  0
SECTION
  2
BLOCKS
  0
BLOCK
  5
20
330
1F
100
AcDbEntity
  8
0
100
AcDbBlockBegin
  2
*Model_Space
 70
    0
 10
0
 20
0
 30
0
  3
*Model_Space
  1

  0
ENDBLK
  5
21
330
1F
100
AcDbEntity
  8
0
100
AcDbBlockEnd
  0
BLOCK
  5
1C
330
1B
100
AcDbEntity
  8
0
100
AcDbBlockBegin
  2
*Paper_Space
 70
    0
 10
0
 20
0
 30
0
  3
*Paper_Space
  1

  0
ENDBLK
  5
1D
330
1F
100
AcDbEntity
  8
0
100
AcDbBlockEnd
  0
BLOCK
  5
51
330
50
100
AcDbEntity
  8
0
100
AcDbBlockBegin
  2
KK_2DXF12_ACAD_1_FMEBLOCK1
 70
    0
 10
0
 20
0
  3
KK_2DXF12_ACAD_1_FMEBLOCK1
  1

  0
LWPOLYLINE
  5
98
100
AcDbEntity
  8
GEBOUWCONTOUREN
  6
CONTINUOUS
 62
    7
370
   -1
100
AcDbPolyline
 90
   20
 70
    0
 43
0
 10
-44.04749999998603
 20
39.7214999999851
 10
-40.86449999999604
 20
9.649499999999534
 10
-34.39650000000256
 20
-48.17449999996461
 10
-14.47049999999581
 20
-46.01850000000559
 10
-14.4375
 20
-46.33649999997579
 10
-3.962499999994179
 20
-45.22950000001583
 10
-4.217499999998836
 20
-42.84049999999115
 10
19.08850000001257
 20
-40.21450000000186
 10
19.35349999999744
 20
-42.74150000000373
 10
29.81950000001234
 20
-41.65149999997811
 10
29.24050000001444
 20
-36.26449999999022
 10
44.04750000001513
 20
-34.70049999997718
 10
43.97550000000047
 20
-34.01250000001164
 10
39.59350000001723
 20
7.602500000037253
 10
39.04150000002119
 20
12.8464999999851
 10
38.50849999999627
 20
17.91250000003492
 10
39.01050000000396
 20
17.96549999999115
 10
37.85650000002352
 20
28.87450000003446
 10
35.81549999999697
 20
48.17450000002282
 10
-44.04749999998603
 20
39.7214999999851
  0
ENDBLK
  5
52
330
50
100
AcDbEntity
  8
0
100
AcDbBlockEnd
  0
BLOCK
  5
54
330
53
100
AcDbEntity
  8
0
100
AcDbBlockBegin
  2
KK_2DXF12_ACAD_1_FMEBLOCK2
 70
    0
 10
0
 20
0
  3
KK_2DXF12_ACAD_1_FMEBLOCK2
  1

  0
LWPOLYLINE
  5
99
100
AcDbEntity
  8
GEBOUWCONTOUREN
  6
CONTINUOUS
 62
    7
370
   -1
100
AcDbPolyline
 90
    2
 70
    0
 43
0
 10
-1.106499999994412
 20
10.08250000001863
 10
1.106499999994412
 20
-10.08250000001863
  0
ENDBLK
  5
55
330
53
100
AcDbEntity
  8
0
100
AcDbBlockEnd
  0
BLOCK
  5
57
330
56
100
AcDbEntity
  8
0
100
AcDbBlockBegin
  2
KK_2DXF12_ACAD_1_FMEBLOCK3
 70
    0
 10
0
 20
0
  3
KK_2DXF12_ACAD_1_FMEBLOCK3
  1

  0
LWPOLYLINE
  5
9A
100
AcDbEntity
  8
GEBOUWCONTOUREN
  6
CONTINUOUS
 62
    7
370
   -1
100
AcDbPolyline
 90
    3
 70
    0
 43
0
 10
12.70100000000093
 20
-1.969500000006519
 10
12.23600000000442
 20
1.969500000006519
 10
-12.70100000000093
 20
-0.6444999999948777
  0
ENDBLK
  5
58
330
56
100
AcDbEntity
  8
0
100
AcDbBlockEnd
  0
BLOCK
  5
5A
330
59
100
AcDbEntity
  8
0
100
AcDbBlockBegin
  2
KK_2DXF12_ACAD_1_FMEBLOCK4
 70
    0
 10
0
 20
0
  3
KK_2DXF12_ACAD_1_FMEBLOCK4
  1

  0
LWPOLYLINE
  5
9B
100
AcDbEntity
  8
GEBOUWCONTOUREN
  6
CONTINUOUS
 62
    7
370
   -1
100
AcDbPolyline
 90
    2
 70
    0
 43
0
 10
-1.106499999994412
 20
10.08250000001863
 10
1.106499999994412
 20
-10.08250000001863
  0
ENDBLK
  5
5B
330
59
100
AcDbEntity
  8
0
100
AcDbBlockEnd
  0
BLOCK
  5
5D
330
5C
100
AcDbEntity
  8
0
100
AcDbBlockBegin
  2
KK_2DXF12_ACAD_1_FMEBLOCK5
 70
    0
 10
0
 20
0
  3
KK_2DXF12_ACAD_1_FMEBLOCK5
  1

  0
LWPOLYLINE
  5
9C
100
AcDbEntity
  8
GEBOUWCONTOUREN
  6
CONTINUOUS
 62
    7
370
   -1
100
AcDbPolyline
 90
    3
 70
    0
 43
0
 10
12.70100000000093
 20
-1.969500000006519
 10
12.23600000000442
 20
1.969500000006519
 10
-12.70100000000093
 20
-0.6444999999948777
  0
ENDBLK
  5
5E
330
5C
100
AcDbEntity
  8
0
100
AcDbBlockEnd
  0
BLOCK
  5
60
330
5F
100
AcDbEntity
  8
0
100
AcDbBlockBegin
  2
KK_2DXF12_ACAD_1_FMEBLOCK6
 70
    0
 10
0
 20
0
  3
KK_2DXF12_ACAD_1_FMEBLOCK6
  1

  0
LWPOLYLINE
  5
9D
100
AcDbEntity
  8
GEBOUWCONTOUREN
  6
CONTINUOUS
 62
    7
370
   -1
100
AcDbPolyline
 90
    6
 70
    0
 43
0
 10
-20.52049999998417
 20
2.776999999943655
 10
4.214500000030966
 20
5.479999999981374
 10
5.383500000025379
 20
-5.480000000039581
 10
12.153500000044
 20
-4.680000000051223
 10
12.35350000002654
 20
-5.320000000006985
 10
20.52050000001327
 20
-3.0120000000461
  0
ENDBLK
  5
61
330
5F
100
AcDbEntity
  8
0
100
AcDbBlockEnd
  0
BLOCK
  5
63
330
62
100
AcDbEntity
  8
0
100
AcDbBlockBegin
  2
KK_2DXF12_ACAD_1_FMEBLOCK7
 70
    0
 10
0
 20
0
  3
KK_2DXF12_ACAD_1_FMEBLOCK7
  1

  0
LWPOLYLINE
  5
9E
100
AcDbEntity
  8
GEBOUWCONTOUREN
  6
CONTINUOUS
 62
    7
370
   -1
100
AcDbPolyline
 90
    6
 70
    0
 43
0
 10
6.519000000000233
 20
-13.08650000003399
 10
11.33300000001327
 20
-11.7335000000312
 10
8.958000000013271
 20
-3.265500000037719
 10
5.438000000023749
 20
-4.243500000040513
 10
3.594000000011874
 20
13.08649999997579
 10
-11.33299999998417
 20
11.54249999998137
  0
ENDBLK
  5
64
330
62
100
AcDbEntity
  8
0
100
AcDbBlockEnd
  0
BLOCK
  5
66
330
65
100
AcDbEntity
  8
0
100
AcDbBlockBegin
  2
KK_2DXF12_ACAD_1_FMEBLOCK8
 70
    0
 10
0
 20
0
  3
KK_2DXF12_ACAD_1_FMEBLOCK8
  1

  0
LWPOLYLINE
  5
9F
100
AcDbEntity
  8
GEBOUWCONTOUREN
  6
CONTINUOUS
 62
    7
370
   -1
100
AcDbPolyline
 90
   13
 70
    0
 43
0
 10
-36.03450000000885
 20
29.0515000000014
 10
-33.79349999999977
 20
8.013500000000931
 10
-33.46649999998044
 20
4.946500000020023
 10
-29.11049999998068
 20
-35.94549999997253
 10
36.03450000000885
 20
-28.95250000001397
 10
29.06849999999395
 20
35.94550000003073
 10
28.38649999999325
 20
35.87349999998696
 10
24.49150000000373
 20
35.4604999999865
 10
18.09750000000349
 20
34.78350000001956
 10
14.92550000001211
 20
34.44750000000931
 10
-26.7104999999865
 20
30.03850000002421
 10
-30.12049999998999
 20
29.67749999999069
 10
-36.03450000000885
 20
29.0515000000014
  0
ENDBLK
  5
67
330
65
100
AcDbEntity
  8
0
100
AcDbBlockEnd
  0
BLOCK
  5
69
330
68
100
AcDbEntity
  8
0
100
AcDbBlockBegin
  2
KK_2DXF12_ACAD_1_FMEBLOCK9
 70
    0
 10
0
 20
0
  3
KK_2DXF12_ACAD_1_FMEBLOCK9
  1

  0
LWPOLYLINE
  5
A0
100
AcDbEntity
  8
GEBOUWCONTOUREN
  6
CONTINUOUS
 62
    7
370
   -1
100
AcDbPolyline
 90
   13
 70
    0
 43
0
 10
-36.03450000000885
 20
29.0515000000014
 10
-33.79349999999977
 20
8.013500000000931
 10
-33.46649999998044
 20
4.946500000020023
 10
-29.11049999998068
 20
-35.94549999997253
 10
36.03450000000885
 20
-28.95250000001397
 10
29.06849999999395
 20
35.94550000003073
 10
28.38649999999325
 20
35.87349999998696
 10
24.49150000000373
 20
35.4604999999865
 10
18.09750000000349
 20
34.78350000001956
 10
14.92550000001211
 20
34.44750000000931
 10
-26.7104999999865
 20
30.03850000002421
 10
-30.12049999998999
 20
29.67749999999069
 10
-36.03450000000885
 20
29.0515000000014
  0
ENDBLK
  5
6A
330
68
100
AcDbEntity
  8
0
100
AcDbBlockEnd
  0
BLOCK
  5
6C
330
6B
100
AcDbEntity
  8
0
100
AcDbBlockBegin
  2
KK_2DXF12_ACAD_1_FMEBLOCK0
 70
    0
 10
0
 20
0
  3
KK_2DXF12_ACAD_1_FMEBLOCK0
  1

  0
TEXT
  5
A1
100
AcDbEntity
  8
ANNOTATIE
  6
ByLayer
 62
    1
370
   -1
100
AcDbText
 10
-1.905421020113863
 20
-1.004674442810938
 30
0
 40
1.6
  1
34-36
 50
6
 41
1
 51
0
  7
standard
 71
    0
 72
    1
 11
-1.905421020113863
 21
-1.004674442810938
 31
0
210
0
220
0
230
1
100
AcDbText
 73
    2
  0
ENDBLK
  5
6D
330
6B
100
AcDbEntity
  8
0
100
AcDbBlockEnd
  0
BLOCK
  5
6F
330
6E
100
AcDbEntity
  8
0
100
AcDbBlockBegin
  2
KK_2DXF12_ACAD_1_FMEBLOCKA
 70
    0
 10
0
 20
0
  3
KK_2DXF12_ACAD_1_FMEBLOCKA
  1

  0
TEXT
  5
A2
100
AcDbEntity
  8
ANNOTATIE
  6
ByLayer
 62
    1
370
   -1
100
AcDbText
 10
-0.7119947456812952
 20
-0.8792402868857607
 30
0
 40
1.6
  1
30
 50
6
 41
1
 51
0
  7
standard
 71
    0
 72
    1
 11
-0.7119947456812952
 21
-0.8792402868857607
 31
0
210
0
220
0
230
1
100
AcDbText
 73
    2
  0
ENDBLK
  5
70
330
6E
100
AcDbEntity
  8
0
100
AcDbBlockEnd
  0
BLOCK
  5
72
330
71
100
AcDbEntity
  8
0
100
AcDbBlockBegin
  2
KK_2DXF12_ACAD_1_FMEBLOCKB
 70
    0
 10
0
 20
0
  3
KK_2DXF12_ACAD_1_FMEBLOCKB
  1

  0
TEXT
  5
A3
100
AcDbEntity
  8
ANNOTATIE
  6
ByLayer
 62
    1
370
   -1
100
AcDbText
 10
-0.3999999999941792
 20
-0.7999999999883585
 30
0
 40
1.6
  1
 
 50
0
 41
1
 51
0
  7
standard
 71
    0
 72
    1
 11
-0.3999999999941792
 21
-0.7999999999883585
 31
0
210
0
220
0
230
1
100
AcDbText
 73
    2
  0
ENDBLK
  5
73
330
71
100
AcDbEntity
  8
0
100
AcDbBlockEnd
  0
BLOCK
  5
75
330
74
100
AcDbEntity
  8
0
100
AcDbBlockBegin
  2
KK_2DXF12_ACAD_1_FMEBLOCKC
 70
    0
 10
0
 20
0
  3
KK_2DXF12_ACAD_1_FMEBLOCKC
  1

  0
TEXT
  5
A4
100
AcDbEntity
  8
ANNOTATIE
  6
ByLayer
 62
    1
370
   -1
100
AcDbText
 10
-0.7119947456812952
 20
-0.8792402868857607
 30
0
 40
1.6
  1
28
 50
6
 41
1
 51
0
  7
standard
 71
    0
 72
    1
 11
-0.7119947456812952
 21
-0.8792402868857607
 31
0
210
0
220
0
230
1
100
AcDbText
 73
    2
  0
ENDBLK
  5
76
330
74
100
AcDbEntity
  8
0
100
AcDbBlockEnd
  0
BLOCK
  5
78
330
77
100
AcDbEntity
  8
0
100
AcDbBlockBegin
  2
KK_2DXF12_ACAD_1_FMEBLOCKD
 70
    0
 10
0
 20
0
  3
KK_2DXF12_ACAD_1_FMEBLOCKD
  1

  0
TEXT
  5
A5
100
AcDbEntity
  8
ANNOTATIE
  6
ByLayer
 62
    1
370
   -1
100
AcDbText
 10
-0.3999999999941792
 20
-0.7999999999883585
 30
0
 40
1.6
  1
 
 50
0
 41
1
 51
0
  7
standard
 71
    0
 72
    1
 11
-0.3999999999941792
 21
-0.7999999999883585
 31
0
210
0
220
0
230
1
100
AcDbText
 73
    2
  0
ENDBLK
  5
79
330
77
100
AcDbEntity
  8
0
100
AcDbBlockEnd
  0
BLOCK
  5
7B
330
7A
100
AcDbEntity
  8
0
100
AcDbBlockBegin
  2
KK_2DXF12_ACAD_1_FMEBLOCKE
 70
    0
 10
0
 20
0
  3
KK_2DXF12_ACAD_1_FMEBLOCKE
  1

  0
TEXT
  5
A6
100
AcDbEntity
  8
PERCELEN
  6
ByLayer
 62
    7
370
   -1
100
AcDbText
 10
-4.25
 20
-0.5
 30
0
 40
1
  1
BDL01H 01408G0000
 50
0
 41
1
 51
0
  7
standard
 71
    0
210
0
220
0
230
1
100
AcDbText
  0
ENDBLK
  5
7C
330
7A
100
AcDbEntity
  8
0
100
AcDbBlockEnd
  0
BLOCK
  5
7E
330
7D
100
AcDbEntity
  8
0
100
AcDbBlockBegin
  2
KK_2DXF12_ACAD_1_FMEBLOCKF
 70
    0
 10
0
 20
0
  3
KK_2DXF12_ACAD_1_FMEBLOCKF
  1

  0
LWPOLYLINE
  5
A7
100
AcDbEntity
  8
PERCELEN
  6
ByLayer
 62
    7
370
   -1
100
AcDbPolyline
 90
    9
 70
    1
 43
0
 10
-31.53800000000047
 20
-95.73999999999069
 10
15.30199999999604
 20
-90.82000000000698
 10
10.60499999998137
 20
-46.20000000001164
 10
20.46400000000722
 20
-33.97100000001956
 10
45.12200000000303
 20
-31.35899999999674
 10
51.34599999999045
 20
-23.65600000001723
 10
38.73600000000442
 20
95.73999999999069
 10
0.8889999999955762
 20
91.90299999999115
 10
-51.34600000001956
 20
91.55999999999767
  0
ENDBLK
  5
7F
330
7D
100
AcDbEntity
  8
0
100
AcDbBlockEnd
  0
BLOCK
  5
81
330
80
100
AcDbEntity
  8
0
100
AcDbBlockBegin
  2
KK_2DXF12_ACAD_1_FMEBLOCKG
 70
    0
 10
0
 20
0
  3
KK_2DXF12_ACAD_1_FMEBLOCKG
  1

  0
TEXT
  5
A8
100
AcDbEntity
  8
PERCELEN
  6
ByLayer
 62
    7
370
   -1
100
AcDbText
 10
-4.25
 20
-0.5
 30
0
 40
1
  1
BDL01H 01331G0000
 50
0
 41
1
 51
0
  7
standard
 71
    0
210
0
220
0
230
1
100
AcDbText
  0
ENDBLK
  5
82
330
80
100
AcDbEntity
  8
0
100
AcDbBlockEnd
  0
BLOCK
  5
84
330
83
100
AcDbEntity
  8
0
100
AcDbBlockBegin
  2
KK_2DXF12_ACAD_1_FMEBLOCKH
 70
    0
 10
0
 20
0
  3
KK_2DXF12_ACAD_1_FMEBLOCKH
  1

  0
LWPOLYLINE
  5
A9
100
AcDbEntity
  8
PERCELEN
  6
ByLayer
 62
    7
370
   -1
100
AcDbPolyline
 90
    7
 70
    1
 43
0
 10
-31.28999999997905
 20
15.4550000000163
 10
-29.21399999997811
 20
-4.222000000008848
 10
-27.50999999998021
 20
-20.375
 10
31.29000000000815
 20
-14.13500000000931
 10
27.69000000003143
 20
19.61499999999069
 10
15.76000000000931
 20
18.36499999999069
 10
15.55000000001746
 20
20.375
  0
ENDBLK
  5
85
330
83
100
AcDbEntity
  8
0
100
AcDbBlockEnd
  0
BLOCK
  5
87
330
86
100
AcDbEntity
  8
0
100
AcDbBlockBegin
  2
KK_2DXF12_ACAD_1_FMEBLOCKI
 70
    0
 10
0
 20
0
  3
KK_2DXF12_ACAD_1_FMEBLOCKI
  1

  0
TEXT
  5
AA
100
AcDbEntity
  8
PERCELEN
  6
ByLayer
 62
    7
370
   -1
100
AcDbText
 10
-4.25
 20
-0.5
 30
0
 40
1
  1
BDL01H 02476G0000
 50
0
 41
1
 51
0
  7
standard
 71
    0
210
0
220
0
230
1
100
AcDbText
  0
ENDBLK
  5
88
330
86
100
AcDbEntity
  8
0
100
AcDbBlockEnd
  0
BLOCK
  5
8A
330
89
100
AcDbEntity
  8
0
100
AcDbBlockBegin
  2
KK_2DXF12_ACAD_1_FMEBLOCKJ
 70
    0
 10
0
 20
0
  3
KK_2DXF12_ACAD_1_FMEBLOCKJ
  1

  0
LWPOLYLINE
  5
AB
100
AcDbEntity
  8
PERCELEN
  6
ByLayer
 62
    7
370
   -1
100
AcDbPolyline
 90
    8
 70
    1
 43
0
 10
17.91049999999814
 20
-38.27950000000419
 10
9.42149999999674
 20
41.24849999998696
 10
9.001500000013039
 20
41.20449999999255
 10
-11.67050000000745
 20
39.02150000003166
 10
-17.91049999999814
 20
31.33150000002934
 10
-13.800499999983
 20
-7.498499999986961
 10
-10.20050000000629
 20
-41.24849999998696
 10
17.48449999999139
 20
-38.32449999998789
  0
ENDBLK
  5
8B
330
89
100
AcDbEntity
  8
0
100
AcDbBlockEnd
  0
BLOCK
  5
8D
330
8C
100
AcDbEntity
  8
0
100
AcDbBlockBegin
  2
KK_2DXF12_ACAD_1_FMEBLOCKK
 70
    0
 10
0
 20
0
  3
KK_2DXF12_ACAD_1_FMEBLOCKK
  1

  0
TEXT
  5
AC
100
AcDbEntity
  8
PERCELEN
  6
ByLayer
 62
    7
370
   -1
100
AcDbText
 10
-4.25
 20
-0.5
 30
0
 40
1
  1
BDL01H 02477G0000
 50
0
 41
1
 51
0
  7
standard
 71
    0
210
0
220
0
230
1
100
AcDbText
  0
ENDBLK
  5
8E
330
8C
100
AcDbEntity
  8
0
100
AcDbBlockEnd
  0
BLOCK
  5
90
330
8F
100
AcDbEntity
  8
0
100
AcDbBlockBegin
  2
KK_2DXF12_ACAD_1_FMEBLOCKL
 70
    0
 10
0
 20
0
  3
KK_2DXF12_ACAD_1_FMEBLOCKL
  1

  0
LWPOLYLINE
  5
AD
100
AcDbEntity
  8
PERCELEN
  6
ByLayer
 62
    7
370
   -1
100
AcDbPolyline
 90
    7
 70
    1
 43
0
 10
-17.51600000000326
 20
-42.06750000000466
 10
-12.80999999999767
 20
-41.57049999997253
 10
4.027000000001863
 20
-39.79149999999208
 10
26.00500000000466
 20
-37.47049999999581
 10
17.60999999998603
 20
42.06750000000466
 10
-21.29300000000512
 20
37.95850000000792
 10
-26.00500000000466
 20
37.4604999999865
  0
ENDBLK
  5
91
330
8F
100
AcDbEntity
  8
0
100
AcDbBlockEnd
  0
BLOCK
  5
93
330
92
100
AcDbEntity
  8
0
100
AcDbBlockBegin
  2
KK_2DXF12_ACAD_1_FMEBLOCKM
 70
    0
 10
0
 20
0
  3
KK_2DXF12_ACAD_1_FMEBLOCKM
  1

  0
TEXT
  5
AE
100
AcDbEntity
  8
PERCELEN
  6
ByLayer
 62
    7
370
   -1
100
AcDbText
 10
-4.25
 20
-0.5
 30
0
 40
1
  1
BDL01H 02426G0000
 50
0
 41
1
 51
0
  7
standard
 71
    0
210
0
220
0
230
1
100
AcDbText
  0
ENDBLK
  5
94
330
92
100
AcDbEntity
  8
0
100
AcDbBlockEnd
  0
BLOCK
  5
96
330
95
100
AcDbEntity
  8
0
100
AcDbBlockBegin
  2
KK_2DXF12_ACAD_1_FMEBLOCKN
 70
    0
 10
0
 20
0
  3
KK_2DXF12_ACAD_1_FMEBLOCKN
  1

  0
LWPOLYLINE
  5
AF
100
AcDbEntity
  8
PERCELEN
  6
ByLayer
 62
    7
370
   -1
100
AcDbPolyline
 90
   13
 70
    1
 43
0
 10
-54.45549999998184
 20
24.40499999996973
 10
-55.70249999998487
 20
24.54099999996834
 10
-55.25249999997322
 20
9.068999999959487
 10
-54.60349999999744
 20
-6.40300000004936
 10
-7.146499999973457
 20
-14.9210000000312
 10
46.11750000002212
 20
-24.54100000002654
 10
54.42750000001979
 20
13.84299999993527
 10
55.70250000001397
 20
19.73699999996461
 10
38.86550000001444
 20
17.95799999998417
 10
34.15950000000885
 20
17.46099999995204
 10
33.7335000000021
 20
17.41599999996834
 10
6.048500000004424
 20
14.49199999996927
 10
-52.75149999998393
 20
8.25199999997858
  0
ENDBLK
  5
97
330
95
100
AcDbEntity
  8
0
100
AcDbBlockEnd
  0
ENDSEC
  0
SECTION
  2
ENTITIES
  0
INSERT
  5
B0
100
AcDbEntity
  8
GEBOUWCONTOUREN
  6
CONTINUOUS
 62
    7
370
   -1
100
AcDbBlockReference
  2
KK_2DXF12_ACAD_1_FMEBLOCK1
 10
142047.5525
 20
374109.0745
 30
0
 41
1
 42
1
 43
0
 50
0
 70
    1
 71
    1
 44
0
 45
0
  0
INSERT
  5
B1
100
AcDbEntity
  8
GEBOUWCONTOUREN
  6
CONTINUOUS
 62
    7
370
   -1
100
AcDbBlockReference
  2
KK_2DXF12_ACAD_1_FMEBLOCK2
 10
142019.0195
 20
373966.2795
 30
0
 41
1
 42
1
 43
0
 50
0
 70
    1
 71
    1
 44
0
 45
0
  0
INSERT
  5
B2
100
AcDbEntity
  8
GEBOUWCONTOUREN
  6
CONTINUOUS
 62
    7
370
   -1
100
AcDbBlockReference
  2
KK_2DXF12_ACAD_1_FMEBLOCK3
 10
142030.614
 20
373977.0065
 30
0
 41
1
 42
1
 43
0
 50
0
 70
    1
 71
    1
 44
0
 45
0
  0
INSERT
  5
B3
100
AcDbEntity
  8
GEBOUWCONTOUREN
  6
CONTINUOUS
 62
    7
370
   -1
100
AcDbBlockReference
  2
KK_2DXF12_ACAD_1_FMEBLOCK4
 10
142019.0195
 20
373966.2795
 30
0
 41
1
 42
1
 43
0
 50
0
 70
    1
 71
    1
 44
0
 45
0
  0
INSERT
  5
B4
100
AcDbEntity
  8
GEBOUWCONTOUREN
  6
CONTINUOUS
 62
    7
370
   -1
100
AcDbBlockReference
  2
KK_2DXF12_ACAD_1_FMEBLOCK5
 10
142030.614
 20
373977.0065
 30
0
 41
1
 42
1
 43
0
 50
0
 70
    1
 71
    1
 44
0
 45
0
  0
INSERT
  5
B5
100
AcDbEntity
  8
GEBOUWCONTOUREN
  6
CONTINUOUS
 62
    7
370
   -1
100
AcDbBlockReference
  2
KK_2DXF12_ACAD_1_FMEBLOCK6
 10
142040.6465
 20
373953.42
 30
0
 41
1
 42
1
 43
0
 50
0
 70
    1
 71
    1
 44
0
 45
0
  0
INSERT
  5
B6
100
AcDbEntity
  8
GEBOUWCONTOUREN
  6
CONTINUOUS
 62
    7
370
   -1
100
AcDbBlockReference
  2
KK_2DXF12_ACAD_1_FMEBLOCK7
 10
142054.648
 20
373963.4945
 30
0
 41
1
 42
1
 43
0
 50
0
 70
    1
 71
    1
 44
0
 45
0
  0
INSERT
  5
B7
100
AcDbEntity
  8
GEBOUWCONTOUREN
  6
CONTINUOUS
 62
    7
370
   -1
100
AcDbBlockReference
  2
KK_2DXF12_ACAD_1_FMEBLOCK8
 10
142112.2505
 20
373985.9715
 30
0
 41
1
 42
1
 43
0
 50
0
 70
    1
 71
    1
 44
0
 45
0
  0
INSERT
  5
B8
100
AcDbEntity
  8
GEBOUWCONTOUREN
  6
CONTINUOUS
 62
    7
370
   -1
100
AcDbBlockReference
  2
KK_2DXF12_ACAD_1_FMEBLOCK9
 10
142112.2505
 20
373985.9715
 30
0
 41
1
 42
1
 43
0
 50
0
 70
    1
 71
    1
 44
0
 45
0
  0
INSERT
  5
B9
100
AcDbEntity
  8
ANNOTATIE
  6
ByLayer
 62
    1
370
   -1
100
AcDbBlockReference
  2
KK_2DXF12_ACAD_1_FMEBLOCK0
 10
142086.7514210201
 20
374099.2736744428
 30
0
 41
1
 42
1
 43
0
 50
0
 70
    1
 71
    1
 44
0
 45
0
  0
INSERT
  5
BA
100
AcDbEntity
  8
ANNOTATIE
  6
ByLayer
 62
    1
370
   -1
100
AcDbBlockReference
  2
KK_2DXF12_ACAD_1_FMEBLOCKA
 10
142052.4739947457
 20
373973.6472402869
 30
0
 41
1
 42
1
 43
0
 50
0
 70
    1
 71
    1
 44
0
 45
0
  0
INSERT
  5
BB
100
AcDbEntity
  8
ANNOTATIE
  6
ByLayer
 62
    1
370
   -1
100
AcDbBlockReference
  2
KK_2DXF12_ACAD_1_FMEBLOCKB
 10
142091.05625
 20
373988.846875
 30
0
 41
1
 42
1
 43
0
 50
0
 70
    1
 71
    1
 44
0
 45
0
  0
INSERT
  5
BC
100
AcDbEntity
  8
ANNOTATIE
  6
ByLayer
 62
    1
370
   -1
100
AcDbBlockReference
  2
KK_2DXF12_ACAD_1_FMEBLOCKC
 10
142110.4939947457
 20
374016.3142402869
 30
0
 41
1
 42
1
 43
0
 50
0
 70
    1
 71
    1
 44
0
 45
0
  0
INSERT
  5
BD
100
AcDbEntity
  8
ANNOTATIE
  6
ByLayer
 62
    1
370
   -1
100
AcDbBlockReference
  2
KK_2DXF12_ACAD_1_FMEBLOCKD
 10
142073.0953125
 20
373933.08125
 30
0
 41
1
 42
1
 43
0
 50
0
 70
    1
 71
    1
 44
0
 45
0
  0
INSERT
  5
BE
100
AcDbEntity
  8
PERCELEN
  6
ByLayer
 62
    7
370
   -1
100
AcDbBlockReference
  2
KK_2DXF12_ACAD_1_FMEBLOCKE
 10
142053.671875
 20
374072.328125
 30
0
 41
1
 42
1
 43
0
 50
0
 70
    1
 71
    1
 44
0
 45
0
  0
INSERT
  5
BF
100
AcDbEntity
  8
PERCELEN
  6
ByLayer
 62
    7
370
   -1
100
AcDbBlockReference
  2
KK_2DXF12_ACAD_1_FMEBLOCKF
 10
142049.418
 20
374072.09
 30
0
 41
1
 42
1
 43
0
 50
0
 70
    1
 71
    1
 44
0
 45
0
  0
INSERT
  5
C0
100
AcDbEntity
  8
PERCELEN
  6
ByLayer
 62
    7
370
   -1
100
AcDbBlockReference
  2
KK_2DXF12_ACAD_1_FMEBLOCKG
 10
142053.484375
 20
373961.40625
 30
0
 41
1
 42
1
 43
0
 50
0
 70
    1
 71
    1
 44
0
 45
0
  0
INSERT
  5
C1
100
AcDbEntity
  8
PERCELEN
  6
ByLayer
 62
    7
370
   -1
100
AcDbBlockReference
  2
KK_2DXF12_ACAD_1_FMEBLOCKH
 10
142049.17
 20
373960.895
 30
0
 41
1
 42
1
 43
0
 50
0
 70
    1
 71
    1
 44
0
 45
0
  0
INSERT
  5
C2
100
AcDbEntity
  8
PERCELEN
  6
ByLayer
 62
    7
370
   -1
100
AcDbBlockReference
  2
KK_2DXF12_ACAD_1_FMEBLOCKI
 10
142094.90625
 20
373988.546875
 30
0
 41
1
 42
1
 43
0
 50
0
 70
    1
 71
    1
 44
0
 45
0
  0
INSERT
  5
C3
100
AcDbEntity
  8
PERCELEN
  6
ByLayer
 62
    7
370
   -1
100
AcDbBlockReference
  2
KK_2DXF12_ACAD_1_FMEBLOCKJ
 10
142090.6605
 20
373988.0085
 30
0
 41
1
 42
1
 43
0
 50
0
 70
    1
 71
    1
 44
0
 45
0
  0
INSERT
  5
C4
100
AcDbEntity
  8
PERCELEN
  6
ByLayer
 62
    7
370
   -1
100
AcDbBlockReference
  2
KK_2DXF12_ACAD_1_FMEBLOCKK
 10
142130.34375
 20
373992.296875
 30
0
 41
1
 42
1
 43
0
 50
0
 70
    1
 71
    1
 44
0
 45
0
  0
INSERT
  5
C5
100
AcDbEntity
  8
PERCELEN
  6
ByLayer
 62
    7
370
   -1
100
AcDbBlockReference
  2
KK_2DXF12_ACAD_1_FMEBLOCKL
 10
142126.087
 20
373991.7965
 30
0
 41
1
 42
1
 43
0
 50
0
 70
    1
 71
    1
 44
0
 45
0
  0
INSERT
  5
C6
100
AcDbEntity
  8
PERCELEN
  6
ByLayer
 62
    7
370
   -1
100
AcDbBlockReference
  2
KK_2DXF12_ACAD_1_FMEBLOCKM
 10
142076.9453125
 20
373932.78125
 30
0
 41
1
 42
1
 43
0
 50
0
 70
    1
 71
    1
 44
0
 45
0
  0
INSERT
  5
C7
100
AcDbEntity
  8
PERCELEN
  6
ByLayer
 62
    7
370
   -1
100
AcDbBlockReference
  2
KK_2DXF12_ACAD_1_FMEBLOCKN
 10
142074.4115
 20
373932.268
 30
0
 41
1
 42
1
 43
0
 50
0
 70
    1
 71
    1
 44
0
 45
0
  0
ENDSEC
  0
SECTION
  2
OBJECTS
  0
DICTIONARY
  5
C
330
0
100
AcDbDictionary
281
    1
  3
ACAD_GROUP
350
D
  0
DICTIONARY
  5
D
330
C
100
AcDbDictionary
281
    1
  0
ENDSEC
  0
EOF
