  0
SECTION
  2
HEADER
  9
$ACADVER
  1
AC1024
  9
$ACADMAINTVER
 70
0
  9
$DWGCODEPAGE
  3
ANSI_1252
  9
$INSBASE
 10
0.0
 20
0.0
 30
0.0
  9
$EXTMIN
 10
0.0
 20
-1829.307892759
 30
0.0
  9
$EXTMAX
 10
3171.5997588337
 20
1885.3333614649
 30
0.0
  9
$LIMMIN
 10
0.0
 20
-1829.307892759
  9
$LIMMAX
 10
3171.5997588337
 20
1885.3333614649
  9
$ORTHOMODE
 70
0
  9
$REGENMODE
 70
1
  9
$FILLMODE
 70
1
  9
$QTEXTMODE
 70
0
  9
$MIRRTEXT
 70
1
  9
$LTSCALE
 40
1.0
  9
$ATTMODE
 70
1
  9
$TEXTSIZE
 40
2.5
  9
$TRACEWID
 40
1.0
  9
$TEXTSTYLE
  7
STANDARD
  9
$CLAYER
  8
0
  9
$CELTYPE
  6
BYLAYER
  9
$CECOLOR
 62
256
  9
$CELTSCALE
 40
1.0
  9
$DISPSILH
 70
0
  9
$DIMSCALE
 40
1.0
  9
$DIMASZ
 40
2.5
  9
$DIMEXO
 40
0.625
  9
$DIMDLI
 40
3.75
  9
$DIMRND
 40
0.0
  9
$DIMDLE
 40
0.0
  9
$DIMEXE
 40
1.25
  9
$DIMTP
 40
0.0
  9
$DIMTM
 40
0.0
  9
$DIMTXT
 40
2.5
  9
$DIMCEN
 40
2.5
  9
$DIMTSZ
 40
0.0
  9
$DIMTOL
 70
0
  9
$DIMLIM
 70
0
  9
$DIMTIH
 70
0
  9
$DIMTOH
 70
0
  9
$DIMSE1
 70
0
  9
$DIMSE2
 70
0
  9
$DIMTAD
 70
1
  9
$DIMZIN
 70
8
  9
$DIMBLK
  1

  9
$DIMASO
 70
1
  9
$DIMSHO
 70
1
  9
$DIMPOST
  1

  9
$DIMAPOST
  1

  9
$DIMALT
 70
0
  9
$DIMALTD
 70
4
  9
$DIMALTF
 40
0.0394
  9
$DIMLFAC
 40
1.0
  9
$DIMTOFL
 70
1
  9
$DIMTVP
 40
0.0
  9
$DIMTIX
 70
0
  9
$DIMSOXD
 70
0
  9
$DIMSAH
 70
0
  9
$DIMBLK1
  1

  9
$DIMBLK2
  1

  9
$DIMSTYLE
  2
Standard
  9
$DIMCLRD
 70
0
  9
$DIMCLRE
 70
0
  9
$DIMCLRT
 70
0
  9
$DIMTFAC
 40
1.0
  9
$DIMGAP
 40
0.625
  9
$DIMJUST
 70
0
  9
$DIMSD1
 70
0
  9
$DIMSD2
 70
0
  9
$DIMTOLJ
 70
1
  9
$DIMTZIN
 70
0
  9
$DIMALTZ
 70
0
  9
$DIMALTTZ
 70
0
  9
$DIMUPT
 70
0
  9
$DIMDEC
 70
4
  9
$DIMTDEC
 70
4
  9
$DIMALTU
 70
2
  9
$DIMALTTD
 70
2
  9
$DIMTXSTY
  7
STANDARD
  9
$DIMAUNIT
 70
0
  9
$DIMADEC
 70
0
  9
$DIMALTRND
 40
0.0
  9
$DIMAZIN
 70
0
  9
$DIMDSEP
 70
46
  9
$DIMATFIT
 70
3
  9
$DIMFRAC
 70
0
  9
$DIMLDRBLK
  1

  9
$DIMLUNIT
 70
2
  9
$DIMLWD
 70
-2
  9
$DIMLWE
 70
-2
  9
$DIMTMOVE
 70
0
  9
$DIMFXL
 40
1.0
  9
$DIMFXLON
 70
0
  9
$DIMJOGANG
 40
0.78
  9
$DIMTFILL
 70
0
  9
$DIMTFILLCLR
 70
0
  9
$DIMARCSYM
 70
0
  9
$DIMLTYPE
  6

  9
$DIMLTEX1
  6

  9
$DIMLTEX2
  6

  9
$DIMTXTDIRECTION
 70
0
  9
$LUNITS
 70
2
  9
$LUPREC
 70
4
  9
$SKETCHINC
 40
1.0
  9
$FILLETRAD
 40
1.0
  9
$AUNITS
 70
0
  9
$AUPREC
 70
0
  9
$MENU
  1
.
  9
$ELEVATION
 40
0.0
  9
$PELEVATION
 40
0.0
  9
$THICKNESS
 40
0.0
  9
$LIMCHECK
 70
0
  9
$CHAMFERA
 40
10.0
  9
$CHAMFERB
 40
10.0
  9
$CHAMFERC
 40
10.0
  9
$CHAMFERD
 40
10.0
  9
$SKPOLY
 70
0
  9
$TDCREATE
 40
0.0
  9
$TDUCREATE
 40
0.0
  9
$TDUPDATE
 40
0.0
  9
$TDUUPDATE
 40
0.0
  9
$TDINDWG
 40
0.0
  9
$TDUSRTIMER
 40
0.0
  9
$USRTIMER
 70
1
  9
$ANGBASE
 50
0.0
  9
$ANGDIR
 70
0
  9
$PDMODE
 70
98
  9
$PDSIZE
 40
0.0
  9
$PLINEWID
 40
0.0
  9
$SPLFRAME
 70
0
  9
$SPLINETYPE
 70
6
  9
$SPLINESEGS
 70
8
  9
$HANDSEED
  5
4B1
  9
$SURFTAB1
 70
6
  9
$SURFTAB2
 70
6
  9
$SURFTYPE
 70
6
  9
$SURFU
 70
6
  9
$SURFV
 70
6
  9
$UCSBASE
  2

  9
$UCSNAME
  2

  9
$UCSORG
 10
0.0
 20
0.0
 30
0.0
  9
$UCSXDIR
 10
1.0
 20
0.0
 30
0.0
  9
$UCSYDIR
 10
0.0
 20
1.0
 30
0.0
  9
$UCSORTHOREF
  2

  9
$UCSORTHOVIEW
 70
0
  9
$UCSORGTOP
 10
0.0
 20
0.0
 30
0.0
  9
$UCSORGBOTTOM
 10
0.0
 20
0.0
 30
0.0
  9
$UCSORGLEFT
 10
0.0
 20
0.0
 30
0.0
  9
$UCSORGRIGHT
 10
0.0
 20
0.0
 30
0.0
  9
$UCSORGFRONT
 10
0.0
 20
0.0
 30
0.0
  9
$UCSORGBACK
 10
0.0
 20
0.0
 30
0.0
  9
$PUCSBASE
  2

  9
$PUCSNAME
  2

  9
$PUCSORG
 10
0.0
 20
0.0
 30
0.0
  9
$PUCSXDIR
 10
1.0
 20
0.0
 30
0.0
  9
$PUCSYDIR
 10
0.0
 20
1.0
 30
0.0
  9
$PUCSORTHOREF
  2

  9
$PUCSORTHOVIEW
 70
0
  9
$PUCSORGTOP
 10
0.0
 20
0.0
 30
0.0
  9
$PUCSORGBOTTOM
 10
0.0
 20
0.0
 30
0.0
  9
$PUCSORGLEFT
 10
0.0
 20
0.0
 30
0.0
  9
$PUCSORGRIGHT
 10
0.0
 20
0.0
 30
0.0
  9
$PUCSORGFRONT
 10
0.0
 20
0.0
 30
0.0
  9
$PUCSORGBACK
 10
0.0
 20
0.0
 30
0.0
  9
$USERI1
 70
0
  9
$USERI2
 70
0
  9
$USERI3
 70
0
  9
$USERI4
 70
0
  9
$USERI5
 70
0
  9
$USERR1
 40
0.0
  9
$USERR2
 40
0.0
  9
$USERR3
 40
0.0
  9
$USERR4
 40
0.0
  9
$USERR5
 40
0.0
  9
$WORLDVIEW
 70
0
  9
$SHADEDGE
 70
3
  9
$SHADEDIF
 70
70
  9
$TILEMODE
 70
1
  9
$MAXACTVP
 70
48
  9
$PINSBASE
 10
0.0
 20
0.0
 30
0.0
  9
$PLIMCHECK
 70
0
  9
$PEXTMIN
 10
0.0
 20
0.0
 30
0.0
  9
$PEXTMAX
 10
0.0
 20
0.0
 30
0.0
  9
$PLIMMIN
 10
0.0
 20
0.0
  9
$PLIMMAX
 10
0.0
 20
0.0
  9
$UNITMODE
 70
0
  9
$VISRETAIN
 70
1
  9
$PLINEGEN
 70
0
  9
$PSLTSCALE
 70
1
  9
$TREEDEPTH
 70
3020
  9
$CMLSTYLE
  2
STANDARD
  9
$CMLJUST
 70
0
  9
$CMLSCALE
 40
1.0
  9
$PROXYGRAPHICS
 70
1
  9
$MEASUREMENT
 70
0
  9
$CELWEIGHT
370
-1
  9
$ENDCAPS
280
0
  9
$JOINSTYLE
280
0
  9
$LWDISPLAY
290
0
  9
$INSUNITS
 70
0
  9
$HYPERLINKBASE
  1

  9
$STYLESHEET
  1

  9
$XEDIT
290
1
  9
$CEPSNTYPE
380
0
  9
$PSTYLEMODE
290
1
  9
$FINGERPRINTGUID
  2
{FDEAD576-A652-11D2-9A35-0060089B3A3F}
  9
$VERSIONGUID
  2
{FBC2AE19-5C5C-49EC-81BC-71B1A3362A02}
  9
$EXTNAMES
290
0
  9
$PSVPSCALE
 40
0.0
  9
$OLESTARTUP
290
0
  9
$SORTENTS
280
127
  9
$INDEXCTL
280
0
  9
$HIDETEXT
280
0
  9
$XCLIPFRAME
280
0
  9
$HALOGAP
280
0
  9
$OBSCOLOR
 70
257
  9
$OBSLTYPE
280
0
  9
$INTERSECTIONDISPLAY
280
0
  9
$INTERSECTIONCOLOR
 70
257
  9
$DIMASSOC
280
1
  9
$PROJECTNAME
  1

  0
ENDSEC
  0
SECTION
  2
CLASSES
  0
CLASS
  1
ACDBDICTIONARYWDFLT
  2
AcDbDictionaryWithDefault
  3
ObjectDBX Classes
 90
0
 91
5
280
     0
281
     0
  0
CLASS
  1
ACDBPLACEHOLDER
  2
AcDbPlaceHolder
  3
ObjectDBX Classes
 90
0
 91
1
280
     0
281
     0
  0
CLASS
  1
LAYOUT
  2
AcDbLayout
  3
ObjectDBX Classes
 90
0
 91
1
280
     0
281
     0
  0
CLASS
  1
DICTIONARYVAR
  2
AcDbDictionaryVar
  3
ObjectDBX Classes
 90
0
 91
4
280
     0
281
     0
  0
CLASS
  1
TABLESTYLE
  2
AcDbTableStyle
  3
ObjectDBX Classes
 90
4095
 91
5
280
     0
281
     0
  0
CLASS
  1
MATERIAL
  2
AcDbMaterial
  3
ObjectDBX Classes
 90
1153
 91
5
280
     0
281
     0
  0
CLASS
  1
VISUALSTYLE
  2
AcDbVisualStyle
  3
ObjectDBX Classes
 90
4095
 91
5
280
     0
281
     0
  0
CLASS
  1
SCALE
  2
AcDbScale
  3
ObjectDBX Classes
 90
1153
 91
5
280
     0
281
     0
  0
CLASS
  1
CELLSTYLEMAP
  2
AcDbCellStyleMap
  3
ObjectDBX Classes
 90
1152
 91
4
280
     0
281
     0
  0
CLASS
  1
RASTERVARIABLES
  2
AcDbRasterVariables
  3
ISM
 90
0
 91
5
280
     0
281
     0
  0
CLASS
  1
SUN
  2
AcDbSun
  3
SCENEOE
 90
1153
 91
1
280
     0
281
     0
  0
CLASS
  1
XRECORD
  2
AcDbXrecord
  3
ObjectDBX Classes
 90
0
 91
1
280
     0
281
     0
  0
CLASS
  1
LWPOLYLINE
  2
AcDbPolyline
  3
ObjectDBX Classes
 90
0
 91
1
280
     0
281
     0
  0
CLASS
  1
HATCH
  2
AcDbHatch
  3
ObjectDBX Classes
 90
0
 91
1
280
     0
281
     0
  0
ENDSEC
  0
SECTION
  2
TABLES
  0
TABLE
  2
VPORT
  5
162
330
0
100
AcDbSymbolTable
 70
1
  0
VPORT
  5
18D
330
162
100
AcDbSymbolTableRecord
100
AcDbViewportTableRecord
  2
*Active
 70
0
 10
0.0
 20
0.0
 11
1000.0
 21
1000.0
 12
2500.0
 22
2500.0
 13
0.0
 23
0.0
 14
10000.0
 24
10000.0
 15
10000.0
 25
10000.0
 16
0.0
 26
0.0
 36
1000.0
 17
0.0
 27
0.0
 37
0.0
 40
17.3574617567
 41
2.2114285714
 42
50.0
 43
0.0
 44
0.0
 50
0.0
 51
0.0
 71
16
 72
1000
 73
1
 74
3
 75
0
 76
0
 77
0
 78
0
281
1
 65
0
110
0.0
120
0.0
130
0.0
111
1.0
121
0.0
131
0.0
112
0.0
122
1.0
132
0.0
 79
0
146
0.0
  0
ENDTAB
  0
TABLE
  2
LTYPE
  5
15F
330
0
100
AcDbSymbolTable
 70
24
  0
LTYPE
  5
175
330
15F
100
AcDbSymbolTableRecord
100
AcDbLinetypeTableRecord
  2
ByLayer
 70
0
  3

 72
65
 73
0
 40
0.0
  0
LTYPE
  5
176
330
15F
100
AcDbSymbolTableRecord
100
AcDbLinetypeTableRecord
  2
ByBlock
 70
0
  3

 72
65
 73
0
 40
0.0
  0
LTYPE
  5
177
330
15F
100
AcDbSymbolTableRecord
100
AcDbLinetypeTableRecord
  2
Continuous
 70
0
  3
Solid line
 72
65
 73
0
 40
0.0
  0
LTYPE
  5
178
330
15F
100
AcDbSymbolTableRecord
100
AcDbLinetypeTableRecord
  2
Dash
 70
0
  3
Dash, __ __ __ __ __ __ __ __ __ __ __ __ __ __
 72
65
 73
2
 40
750.0
 49
500.0
 74
0
 49
-250.0
 74
0
  0
LTYPE
  5
179
330
15F
100
AcDbSymbolTableRecord
100
AcDbLinetypeTableRecord
  2
Dot
 70
0
  3
Dot, . . . . . . . . . . . . . . . . . . . . . 
 72
65
 73
2
 40
250.0
 49
0.0
 74
0
 49
-250.0
 74
0
  0
LTYPE
  5
17A
330
15F
100
AcDbSymbolTableRecord
100
AcDbLinetypeTableRecord
  2
Dash_dot
 70
0
  3
Dash dot, __ . __ . __ . __ . __ . __ . __ . __
 72
65
 73
4
 40
1000.0
 49
500.0
 74
0
 49
-250.0
 74
0
 49
0.0
 74
0
 49
-250.0
 74
0
  0
LTYPE
  5
17B
330
15F
100
AcDbSymbolTableRecord
100
AcDbLinetypeTableRecord
  2
Dash_dot_dot
 70
0
  3
Dash dot dot, __ .. __ .. __ .. __ .. __ .. __
 72
65
 73
6
 40
2080.0
 49
780.0
 74
0
 49
-260.0
 74
0
 49
260.0
 74
0
 49
-260.0
 74
0
 49
260.0
 74
0
 49
-260.0
 74
0
  0
LTYPE
  5
17C
330
15F
100
AcDbSymbolTableRecord
100
AcDbLinetypeTableRecord
  2
Iso_dash
 70
0
  3
Iso dash, ___ ___ ___ ___ ___ ___ ___ ___ ___
 72
65
 73
4
 40
2080.0
 49
840.0
 74
0
 49
-200.0
 74
0
 49
840.0
 74
0
 49
-200.0
 74
0
  0
LTYPE
  5
17D
330
15F
100
AcDbSymbolTableRecord
100
AcDbLinetypeTableRecord
  2
Iso_dash_space
 70
0
  3
Iso dash space, __  __  __  __  __  __  __  __
 72
65
 73
4
 40
2080.0
 49
580.0
 74
0
 49
-460.0
 74
0
 49
580.0
 74
0
 49
-460.0
 74
0
  0
LTYPE
  5
17E
330
15F
100
AcDbSymbolTableRecord
100
AcDbLinetypeTableRecord
  2
Iso_long_dash_dot
 70
0
  3
Iso long dash dot, ____ . ____ . ____ . ____ . ____
 72
65
 73
4
 40
2030.0
 49
1630.0
 74
0
 49
-200.0
 74
0
 49
0.0
 74
0
 49
-200.0
 74
0
  0
LTYPE
  5
17F
330
15F
100
AcDbSymbolTableRecord
100
AcDbLinetypeTableRecord
  2
Iso_long_dash_double_dot
 70
0
  3
Iso long dash double dot, ____ .. ____ .. ____ .. ____ ..
 72
65
 73
6
 40
1960.0
 49
1430.0
 74
0
 49
-200.0
 74
0
 49
0.0
 74
0
 49
-130.0
 74
0
 49
0.0
 74
0
 49
-200.0
 74
0
  0
LTYPE
  5
180
330
15F
100
AcDbSymbolTableRecord
100
AcDbLinetypeTableRecord
  2
Iso_long_dash_triple_dot
 70
0
  3
Iso long dash triple dot, ____ ... ____ ... ____ ... ____
 72
65
 73
8
 40
1900.0
 49
1240.0
 74
0
 49
-200.0
 74
0
 49
0.0
 74
0
 49
-130.0
 74
0
 49
0.0
 74
0
 49
-130.0
 74
0
 49
0.0
 74
0
 49
-200.0
 74
0
  0
LTYPE
  5
181
330
15F
100
AcDbSymbolTableRecord
100
AcDbLinetypeTableRecord
  2
Iso_dot
 70
0
  3
Iso dot, ......................................
 72
65
 73
8
 40
2600.0
 49
0.0
 74
0
 49
-650.0
 74
0
 49
0.0
 74
0
 49
-650.0
 74
0
 49
0.0
 74
0
 49
-650.0
 74
0
 49
0.0
 74
0
 49
-650.0
 74
0
  0
LTYPE
  5
182
330
15F
100
AcDbSymbolTableRecord
100
AcDbLinetypeTableRecord
  2
Iso_long_dash_short_dash
 70
0
  3
Iso long dash short dash, ____ _ ____ _ ____ _ ____ _ ____
 72
65
 73
4
 40
2080.0
 49
1240.0
 74
0
 49
-130.0
 74
0
 49
580.0
 74
0
 49
-130.0
 74
0
  0
LTYPE
  5
183
330
15F
100
AcDbSymbolTableRecord
100
AcDbLinetypeTableRecord
  2
Iso_dash_dot
 70
0
  3
Iso dash dot, ___ . ___ . ___ . ___ . ___ . ___ . ___ . ___
 72
65
 73
4
 40
2020.0
 49
1240.0
 74
0
 49
390.0
 74
0
 49
0.0
 74
0
 49
-390.0
 74
0
  0
LTYPE
  5
184
330
15F
100
AcDbSymbolTableRecord
100
AcDbLinetypeTableRecord
  2
Iso_double_dash_dot
 70
0
  3
Iso double dash dot, ___ ___ . ___ ___ . ___ ___ . ___ ___
 72
65
 73
6
 40
2020.0
 49
710.0
 74
0
 49
-200.0
 74
0
 49
710.0
 74
0
 49
-200.0
 74
0
 49
0.0
 74
0
 49
-200.0
 74
0
  0
LTYPE
  5
185
330
15F
100
AcDbSymbolTableRecord
100
AcDbLinetypeTableRecord
  2
Iso_dash_double_dot
 70
0
  3
Iso dash double dot, ___ .. ___ .. ___ .. ___ .. ___ .. ___
 72
65
 73
6
 40
1950.0
 49
1100.0
 74
0
 49
-260.0
 74
0
 49
0.0
 74
0
 49
-330.0
 74
0
 49
0.0
 74
0
 49
-260.0
 74
0
  0
LTYPE
  5
186
330
15F
100
AcDbSymbolTableRecord
100
AcDbLinetypeTableRecord
  2
Iso_double_dash_double_dot
 70
0
  3
Iso double dash double dot, ___ ___ .. ___ ___ .. ___ ___ ..
 72
65
 73
8
 40
1960.0
 49
580.0
 74
0
 49
-200.0
 74
0
 49
580.0
 74
0
 49
-200.0
 74
0
 49
0.0
 74
0
 49
-200.0
 74
0
 49
0.0
 74
0
 49
-200.0
 74
0
  0
LTYPE
  5
187
330
15F
100
AcDbSymbolTableRecord
100
AcDbLinetypeTableRecord
  2
Iso_dash_triple_dot
 70
0
  3
Iso dash triple dot, ___ ... ___ ... ___ ...  ___ ...  ___ ...
 72
65
 73
8
 40
1880.0
 49
840.0
 74
0
 49
-260.0
 74
0
 49
0.0
 74
0
 49
-260.0
 74
0
 49
0.0
 74
0
 49
-260.0
 74
0
 49
0.0
 74
0
 49
-260.0
 74
0
  0
LTYPE
  5
188
330
15F
100
AcDbSymbolTableRecord
100
AcDbLinetypeTableRecord
  2
Iso_double_dash_triple_dot
 70
0
  3
Iso double dash triple dot, ___ ___ ... ___ ___ ... ___ ___ ...
 72
65
 73
10
 40
1900.0
 49
520.0
 74
0
 49
-200.0
 74
0
 49
520.0
 74
0
 49
-130.0
 74
0
 49
0.0
 74
0
 49
-200.0
 74
0
 49
0.0
 74
0
 49
-200.0
 74
0
 49
0.0
 74
0
 49
-130.0
 74
0
  0
LTYPE
  5
189
330
15F
100
AcDbSymbolTableRecord
100
AcDbLinetypeTableRecord
  2
Dot_small
 70
0
  3
Dot small, . . . . . . . . . . . . . . . . . . . . . 
 72
65
 73
2
 40
200.0
 49
0.0
 74
0
 49
-200.0
 74
0
  0
LTYPE
  5
18A
330
15F
100
AcDbSymbolTableRecord
100
AcDbLinetypeTableRecord
  2
Dot_large
 70
0
  3
Dot large, .  .  .  .  .  .  .  .  .  .  .  .  .  .  
 72
65
 73
2
 40
650.0
 49
0.0
 74
0
 49
-650.0
 74
0
  0
LTYPE
  5
18B
330
15F
100
AcDbSymbolTableRecord
100
AcDbLinetypeTableRecord
  2
Center
 70
0
  3
Center, ____ _ ____ _ ____ _ ____ _ ____ _ ____
 72
65
 73
4
 40
2000.0
 49
1250.0
 74
0
 49
-250.0
 74
0
 49
250.0
 74
0
 49
-250.0
 74
0
  0
LTYPE
  5
18C
330
15F
100
AcDbSymbolTableRecord
100
AcDbLinetypeTableRecord
  2
Center_2
 70
0
  3
Center 2, _____ _ _____ _ _____ _ _____ _ _____
 72
65
 73
4
 40
2090.0
 49
1430.0
 74
0
 49
-200.0
 74
0
 49
260.0
 74
0
 49
-200.0
 74
0
  0
ENDTAB
  0
TABLE
  2
LAYER
  5
142
330
0
100
AcDbSymbolTable
 70
11
  0
LAYER
5
174
100
AcDbSymbolTableRecord
100
AcDbLayerTableRecord
  2
0
 70
0
 62
1
  6
Continuous
290
1
370
0
390
F
  0
LAYER
5
193
100
AcDbSymbolTableRecord
100
AcDbLayerTableRecord
  2
Stations
 70
0
 62
255
  6
Continuous
290
1
370
0
390
F
  0
LAYER
5
194
100
AcDbSymbolTableRecord
100
AcDbLayerTableRecord
  2
Buttocks
 70
0
 62
255
  6
Continuous
290
1
370
0
390
F
  0
LAYER
5
195
100
AcDbSymbolTableRecord
100
AcDbLayerTableRecord
  2
Waterlines
 70
0
 62
5
  6
Continuous
290
1
370
0
390
F
  0
LAYER
5
196
100
AcDbSymbolTableRecord
100
AcDbLayerTableRecord
  2
Diagonals
 70
0
 62
255
  6
Continuous
290
1
370
0
390
F
  0
LAYER
5
197
100
AcDbSymbolTableRecord
100
AcDbLayerTableRecord
  2
Strake_2
 70
0
 62
54
  6
Continuous
290
1
370
0
390
F
  0
LAYER
5
20E
100
AcDbSymbolTableRecord
100
AcDbLayerTableRecord
  2
Strake_3
 70
0
 62
54
  6
Continuous
290
1
370
0
390
F
  0
LAYER
5
295
100
AcDbSymbolTableRecord
100
AcDbLayerTableRecord
  2
Strake_4
 70
0
 62
54
  6
Continuous
290
1
370
0
390
F
  0
LAYER
5
30C
100
AcDbSymbolTableRecord
100
AcDbLayerTableRecord
  2
Strake_5
 70
0
 62
54
  6
Continuous
290
1
370
0
390
F
  0
LAYER
5
393
100
AcDbSymbolTableRecord
100
AcDbLayerTableRecord
  2
Close_hull
 70
0
 62
54
  6
Continuous
290
1
370
0
390
F
  0
LAYER
5
43A
100
AcDbSymbolTableRecord
100
AcDbLayerTableRecord
  2
Strake_1
 70
0
 62
54
  6
Continuous
290
1
370
0
390
F
  0
ENDTAB
  0
TABLE
  2
STYLE
  5
165
330
0
100
AcDbSymbolTable
 70
1
  0
STYLE
  5
18F
330
165
100
AcDbSymbolTableRecord
100
AcDbTextStyleTableRecord
  2
Standard
 70
0
 40
0.0
 41
1.0
 50
0.0
 71
0
 42
0.2
  3
arial.ttf
  4

  0
ENDTAB
  0
TABLE
  2
VIEW
  5
169
330
0
100
AcDbSymbolTable
 70
0
  0
ENDTAB
  0
TABLE
  2
UCS
  5
167
330
0
100
AcDbSymbolTable
 70
0
  0
ENDTAB
  0
TABLE
  2
APPID
  5
13A
330
0
100
AcDbSymbolTable
 70
1
  0
APPID
  5
18E
330
13A
100
AcDbSymbolTableRecord
100
AcDbRegAppTableRecord
  2
ACAD
 70
0
  0
ENDTAB
  0
TABLE
  2
DIMSTYLE
  5
145
330
0
100
AcDbSymbolTable
 70
1
100
AcDbDimStyleTable
  0
DIMSTYLE
105
27
330
145
100
AcDbSymbolTableRecord
100
AcDbDimStyleTableRecord
  2
Standard
 70
0
  3

  4

 40
0.0
 41
0.0
 42
0.0
 43
0.0
 44
0.0
 45
0.0
 46
0.0
 47
0.0
 48
0.0
140
0.0
141
0.0
142
0.0
143
0.0
144
0.0
145
0.0
146
0.0
147
0.0
 71
0
 72
0
 73
0
 74
0
 75
0
 76
0
 77
0
 78
0
 78
0
170
0.0
171
0.0
172
0.0
173
0
174
0
175
0
176
256
177
256
178
256
  0
ENDTAB
  0
TABLE
  2
BLOCK_RECORD
  5
13F
330
0
100
AcDbSymbolTable
 70
3
  0
BLOCK_RECORD
  5
190
330
13F
100
AcDbSymbolTableRecord
100
AcDbBlockTableRecord
  2
*Model_Space
340
22 
  0
BLOCK_RECORD
  5
191
330
13F
100
AcDbSymbolTableRecord
100
AcDbBlockTableRecord
  2
*Paper_Space
340
59
  0
BLOCK_RECORD
  5
192
330
13F
100
AcDbSymbolTableRecord
100
AcDbBlockTableRecord
  2
*Paper_Space0
340
5E
  0
ENDTAB
  0
ENDSEC
  0
SECTION
  2
BLOCKS
  0
BLOCK
  5
16C
330
190
100
AcDbEntity
  8
0
100
AcDbBlockBegin
  2
*Model_Space
 70
0
 10
0.0
 20
0.0
 30
0.0
  3
*Model_Space
  1
*Model_Space
  0
ENDBLK
  5
16D
330
190
100
AcDbEntity
  8
0
100
AcDbBlockEnd
  0
BLOCK
  5
16E
330
191
100
AcDbEntity
 67
1
  8
0
100
AcDbBlockBegin
  2
*Paper_Space
 70
0
 10
0.0
 20
0.0
 30
0.0
  3
*Paper_Space
  1
*Paper_Space
  0
ENDBLK
  5
16F
330
191
100
AcDbEntity
 67
1
  8
0
100
AcDbBlockEnd
  0
BLOCK
  5
170
330
192
100
AcDbEntity
  8
0
100
AcDbBlockBegin
  2
*Paper_Space0
 70
0
 10
0.0
 20
0.0
 30
0.0
  3
*Paper_Space0
  1
*Paper_Space0
  0
ENDBLK
  5
171
330
192
100
AcDbEntity
  8
0
100
AcDbBlockEnd
  0
ENDSEC
  0
SECTION
  2
ENTITIES
  0
POLYLINE
  5
198
100
AcDbEntity
  8
Strake_2
100
AcDb3dPolyline
 66
1
 10
0.0
 20
0.0
 30
0.0
 70
8
  0
VERTEX
  5
199
330
198
100
AcDbEntity
  8
Strake_2
100
AcDbVertex
100
AcDb3dPolylineVertex
 10
858.317067
 20
154.067428
 30
0.0
 70
32
  0
VERTEX
  5
19A
330
198
100
AcDbEntity
  8
Strake_2
100
AcDbVertex
100
AcDb3dPolylineVertex
 10
743.816857
 20
149.807128
 30
0.0
 70
32
  0
VERTEX
  5
19B
330
198
100
AcDbEntity
  8
Strake_2
100
AcDbVertex
100
AcDb3dPolylineVertex
 10
635.97137
 20
144.196133
 30
0.0
 70
32
  0
VERTEX
  5
19C
330
198
100
AcDbEntity
  8
Strake_2
100
AcDbVertex
100
AcDb3dPolylineVertex
 10
534.126984
 20
137.329497
 30
0.0
 70
32
  0
VERTEX
  5
19D
330
198
100
AcDbEntity
  8
Strake_2
100
AcDbVertex
100
AcDb3dPolylineVertex
 10
437.391221
 20
129.359673
 30
0.0
 70
32
  0
VERTEX
  5
19E
330
198
100
AcDbEntity
  8
Strake_2
100
AcDbVertex
100
AcDb3dPolylineVertex
 10
344.884554
 20
120.449992
 30
0.0
 70
32
  0
VERTEX
  5
19F
330
198
100
AcDbEntity
  8
Strake_2
100
AcDbVertex
100
AcDb3dPolylineVertex
 10
255.740774
 20
110.773226
 30
0.0
 70
32
  0
VERTEX
  5
1A0
330
198
100
AcDbEntity
  8
Strake_2
100
AcDbVertex
100
AcDb3dPolylineVertex
 10
169.10614
 20
100.512068
 30
0.0
 70
32
  0
VERTEX
  5
1A1
330
198
100
AcDbEntity
  8
Strake_2
100
AcDbVertex
100
AcDb3dPolylineVertex
 10
84.137595
 20
89.857096
 30
0.0
 70
32
  0
VERTEX
  5
1A2
330
198
100
AcDbEntity
  8
Strake_2
100
AcDbVertex
100
AcDb3dPolylineVertex
 10
0.0
 20
79.003897
 30
0.0
 70
32
  0
VERTEX
  5
1A3
330
198
100
AcDbEntity
  8
Strake_2
100
AcDbVertex
100
AcDb3dPolylineVertex
 10
84.006377
 20
79.673788
 30
0.0
 70
32
  0
VERTEX
  5
1A4
330
198
100
AcDbEntity
  8
Strake_2
100
AcDbVertex
100
AcDb3dPolylineVertex
 10
168.852298
 20
80.204463
 30
0.0
 70
32
  0
VERTEX
  5
1A5
330
198
100
AcDbEntity
  8
Strake_2
100
AcDbVertex
100
AcDb3dPolylineVertex
 10
255.366765
 20
80.45898
 30
0.0
 70
32
  0
VERTEX
  5
1A6
330
198
100
AcDbEntity
  8
Strake_2
100
AcDbVertex
100
AcDb3dPolylineVertex
 10
344.387928
 20
80.304324
 30
0.0
 70
32
  0
VERTEX
  5
1A7
330
198
100
AcDbEntity
  8
Strake_2
100
AcDbVertex
100
AcDb3dPolylineVertex
 10
436.76302
 20
79.613771
 30
0.0
 70
32
  0
VERTEX
  5
1A8
330
198
100
AcDbEntity
  8
Strake_2
100
AcDbVertex
100
AcDb3dPolylineVertex
 10
533.351089
 20
78.268651
 30
0.0
 70
32
  0
VERTEX
  5
1A9
330
198
100
AcDbEntity
  8
Strake_2
100
AcDbVertex
100
AcDb3dPolylineVertex
 10
635.0221
 20
76.156953
 30
0.0
 70
32
  0
VERTEX
  5
1AA
330
198
100
AcDbEntity
  8
Strake_2
100
AcDbVertex
100
AcDb3dPolylineVertex
 10
742.655585
 20
73.153926
 30
0.0
 70
32
  0
VERTEX
  5
1AB
330
198
100
AcDbEntity
  8
Strake_2
100
AcDbVertex
100
AcDb3dPolylineVertex
 10
856.911135
 20
69.272727
 30
0.0
 70
32
  0
VERTEX
  5
1AC
330
198
100
AcDbEntity
  8
Strake_2
100
AcDbVertex
100
AcDb3dPolylineVertex
 10
977.414721
 20
64.666065
 30
0.0
 70
32
  0
VERTEX
  5
1AD
330
198
100
AcDbEntity
  8
Strake_2
100
AcDbVertex
100
AcDb3dPolylineVertex
 10
1103.564589
 20
59.647739
 30
0.0
 70
32
  0
VERTEX
  5
1AE
330
198
100
AcDbEntity
  8
Strake_2
100
AcDbVertex
100
AcDb3dPolylineVertex
 10
1234.760432
 20
54.518986
 30
0.0
 70
32
  0
VERTEX
  5
1AF
330
198
100
AcDbEntity
  8
Strake_2
100
AcDbVertex
100
AcDb3dPolylineVertex
 10
1370.404504
 20
49.58546
 30
0.0
 70
32
  0
VERTEX
  5
1B0
330
198
100
AcDbEntity
  8
Strake_2
100
AcDbVertex
100
AcDb3dPolylineVertex
 10
1509.901977
 20
45.154366
 30
0.0
 70
32
  0
VERTEX
  5
1B1
330
198
100
AcDbEntity
  8
Strake_2
100
AcDbVertex
100
AcDb3dPolylineVertex
 10
1652.661374
 20
41.532136
 30
0.0
 70
32
  0
VERTEX
  5
1B2
330
198
100
AcDbEntity
  8
Strake_2
100
AcDbVertex
100
AcDb3dPolylineVertex
 10
1798.095126
 20
39.021989
 30
0.0
 70
32
  0
VERTEX
  5
1B3
330
198
100
AcDbEntity
  8
Strake_2
100
AcDbVertex
100
AcDb3dPolylineVertex
 10
1945.67947
 20
37.844974
 30
0.0
 70
32
  0
VERTEX
  5
1B4
330
198
100
AcDbEntity
  8
Strake_2
100
AcDbVertex
100
AcDb3dPolylineVertex
 10
2095.124453
 20
37.9081
 30
0.0
 70
32
  0
VERTEX
  5
1B5
330
198
100
AcDbEntity
  8
Strake_2
100
AcDbVertex
100
AcDb3dPolylineVertex
 10
2246.186862
 20
39.033332
 30
0.0
 70
32
  0
VERTEX
  5
1B6
330
198
100
AcDbEntity
  8
Strake_2
100
AcDbVertex
100
AcDb3dPolylineVertex
 10
2398.612633
 20
41.037747
 30
0.0
 70
32
  0
VERTEX
  5
1B7
330
198
100
AcDbEntity
  8
Strake_2
100
AcDbVertex
100
AcDb3dPolylineVertex
 10
2552.139123
 20
43.73684
 30
0.0
 70
32
  0
VERTEX
  5
1B8
330
198
100
AcDbEntity
  8
Strake_2
100
AcDbVertex
100
AcDb3dPolylineVertex
 10
2706.497046
 20
46.947145
 30
0.0
 70
32
  0
VERTEX
  5
1B9
330
198
100
AcDbEntity
  8
Strake_2
100
AcDbVertex
100
AcDb3dPolylineVertex
 10
2861.412184
 20
50.488415
 30
0.0
 70
32
  0
VERTEX
  5
1BA
330
198
100
AcDbEntity
  8
Strake_2
100
AcDbVertex
100
AcDb3dPolylineVertex
 10
3016.606996
 20
54.18464
 30
0.0
 70
32
  0
VERTEX
  5
1BB
330
198
100
AcDbEntity
  8
Strake_2
100
AcDbVertex
100
AcDb3dPolylineVertex
 10
3017.351022
 20
68.395976
 30
0.0
 70
32
  0
VERTEX
  5
1BC
330
198
100
AcDbEntity
  8
Strake_2
100
AcDbVertex
100
AcDb3dPolylineVertex
 10
3018.095125
 20
82.607307
 30
0.0
 70
32
  0
VERTEX
  5
1BD
330
198
100
AcDbEntity
  8
Strake_2
100
AcDbVertex
100
AcDb3dPolylineVertex
 10
3018.839304
 20
96.818634
 30
0.0
 70
32
  0
VERTEX
  5
1BE
330
198
100
AcDbEntity
  8
Strake_2
100
AcDbVertex
100
AcDb3dPolylineVertex
 10
3019.583561
 20
111.029957
 30
0.0
 70
32
  0
VERTEX
  5
1BF
330
198
100
AcDbEntity
  8
Strake_2
100
AcDbVertex
100
AcDb3dPolylineVertex
 10
3020.327894
 20
125.241277
 30
0.0
 70
32
  0
VERTEX
  5
1C0
330
198
100
AcDbEntity
  8
Strake_2
100
AcDbVertex
100
AcDb3dPolylineVertex
 10
3021.072304
 20
139.452592
 30
0.0
 70
32
  0
VERTEX
  5
1C1
330
198
100
AcDbEntity
  8
Strake_2
100
AcDbVertex
100
AcDb3dPolylineVertex
 10
3021.816791
 20
153.663903
 30
0.0
 70
32
  0
VERTEX
  5
1C2
330
198
100
AcDbEntity
  8
Strake_2
100
AcDbVertex
100
AcDb3dPolylineVertex
 10
3022.561354
 20
167.87521
 30
0.0
 70
32
  0
VERTEX
  5
1C3
330
198
100
AcDbEntity
  8
Strake_2
100
AcDbVertex
100
AcDb3dPolylineVertex
 10
2867.281026
 20
166.854688
 30
0.0
 70
32
  0
VERTEX
  5
1C4
330
198
100
AcDbEntity
  8
Strake_2
100
AcDbVertex
100
AcDb3dPolylineVertex
 10
2712.266788
 20
165.852577
 30
0.0
 70
32
  0
VERTEX
  5
1C5
330
198
100
AcDbEntity
  8
Strake_2
100
AcDbVertex
100
AcDb3dPolylineVertex
 10
2557.783646
 20
164.892591
 30
0.0
 70
32
  0
VERTEX
  5
1C6
330
198
100
AcDbEntity
  8
Strake_2
100
AcDbVertex
100
AcDb3dPolylineVertex
 10
2404.094452
 20
164.001324
 30
0.0
 70
32
  0
VERTEX
  5
1C7
330
198
100
AcDbEntity
  8
Strake_2
100
AcDbVertex
100
AcDb3dPolylineVertex
 10
2251.45879
 20
163.207948
 30
0.0
 70
32
  0
VERTEX
  5
1C8
330
198
100
AcDbEntity
  8
Strake_2
100
AcDbVertex
100
AcDb3dPolylineVertex
 10
2100.131763
 20
162.542799
 30
0.0
 70
32
  0
VERTEX
  5
1C9
330
198
100
AcDbEntity
  8
Strake_2
100
AcDbVertex
100
AcDb3dPolylineVertex
 10
1950.362677
 20
162.035654
 30
0.0
 70
32
  0
VERTEX
  5
1CA
330
198
100
AcDbEntity
  8
Strake_2
100
AcDbVertex
100
AcDb3dPolylineVertex
 10
1802.39355
 20
161.713554
 30
0.0
 70
32
  0
VERTEX
  5
1CB
330
198
100
AcDbEntity
  8
Strake_2
100
AcDbVertex
100
AcDb3dPolylineVertex
 10
1656.521894
 20
161.564133
 30
0.0
 70
32
  0
VERTEX
  5
1CC
330
198
100
AcDbEntity
  8
Strake_2
100
AcDbVertex
100
AcDb3dPolylineVertex
 10
1513.297071
 20
161.432443
 30
0.0
 70
32
  0
VERTEX
  5
1CD
330
198
100
AcDbEntity
  8
Strake_2
100
AcDbVertex
100
AcDb3dPolylineVertex
 10
1373.332479
 20
161.123918
 30
0.0
 70
32
  0
VERTEX
  5
1CE
330
198
100
AcDbEntity
  8
Strake_2
100
AcDbVertex
100
AcDb3dPolylineVertex
 10
1237.24112
 20
160.438957
 30
0.0
 70
32
  0
VERTEX
  5
1CF
330
198
100
AcDbEntity
  8
Strake_2
100
AcDbVertex
100
AcDb3dPolylineVertex
 10
1105.634994
 20
159.173479
 30
0.0
 70
32
  0
VERTEX
  5
1D0
330
198
100
AcDbEntity
  8
Strake_2
100
AcDbVertex
100
AcDb3dPolylineVertex
 10
979.124403
 20
157.119642
 30
0.0
 70
32
  0
VERTEX
  5
1D1
330
198
100
AcDbEntity
  8
Strake_2
100
AcDbVertex
100
AcDb3dPolylineVertex
 10
858.317067
 20
154.067428
 30
0.0
 70
32
  0
SEQEND
  5
1D2
330
198
100
AcDbEntity
  8
0
  0
POLYLINE
  5
1D3
100
AcDbEntity
  8
Strake_2
100
AcDb3dPolyline
 66
1
 10
0.0
 20
0.0
 30
0.0
 70
8
  0
VERTEX
  5
1D4
330
1D3
100
AcDbEntity
  8
Strake_2
100
AcDbVertex
100
AcDb3dPolylineVertex
 10
858.317067
 20
-522.132445
 30
0.0
 70
32
  0
VERTEX
  5
1D5
330
1D3
100
AcDbEntity
  8
Strake_2
100
AcDbVertex
100
AcDb3dPolylineVertex
 10
743.816857
 20
-517.872144
 30
0.0
 70
32
  0
VERTEX
  5
1D6
330
1D3
100
AcDbEntity
  8
Strake_2
100
AcDbVertex
100
AcDb3dPolylineVertex
 10
635.97137
 20
-512.261149
 30
0.0
 70
32
  0
VERTEX
  5
1D7
330
1D3
100
AcDbEntity
  8
Strake_2
100
AcDbVertex
100
AcDb3dPolylineVertex
 10
534.126984
 20
-505.394513
 30
0.0
 70
32
  0
VERTEX
  5
1D8
330
1D3
100
AcDbEntity
  8
Strake_2
100
AcDbVertex
100
AcDb3dPolylineVertex
 10
437.391221
 20
-497.424689
 30
0.0
 70
32
  0
VERTEX
  5
1D9
330
1D3
100
AcDbEntity
  8
Strake_2
100
AcDbVertex
100
AcDb3dPolylineVertex
 10
344.884554
 20
-488.515009
 30
0.0
 70
32
  0
VERTEX
  5
1DA
330
1D3
100
AcDbEntity
  8
Strake_2
100
AcDbVertex
100
AcDb3dPolylineVertex
 10
255.740774
 20
-478.838242
 30
0.0
 70
32
  0
VERTEX
  5
1DB
330
1D3
100
AcDbEntity
  8
Strake_2
100
AcDbVertex
100
AcDb3dPolylineVertex
 10
169.10614
 20
-468.577084
 30
0.0
 70
32
  0
VERTEX
  5
1DC
330
1D3
100
AcDbEntity
  8
Strake_2
100
AcDbVertex
100
AcDb3dPolylineVertex
 10
84.137595
 20
-457.922112
 30
0.0
 70
32
  0
VERTEX
  5
1DD
330
1D3
100
AcDbEntity
  8
Strake_2
100
AcDbVertex
100
AcDb3dPolylineVertex
 10
0.0
 20
-447.068914
 30
0.0
 70
32
  0
VERTEX
  5
1DE
330
1D3
100
AcDbEntity
  8
Strake_2
100
AcDbVertex
100
AcDb3dPolylineVertex
 10
84.006377
 20
-447.738804
 30
0.0
 70
32
  0
VERTEX
  5
1DF
330
1D3
100
AcDbEntity
  8
Strake_2
100
AcDbVertex
100
AcDb3dPolylineVertex
 10
168.852298
 20
-448.269479
 30
0.0
 70
32
  0
VERTEX
  5
1E0
330
1D3
100
AcDbEntity
  8
Strake_2
100
AcDbVertex
100
AcDb3dPolylineVertex
 10
255.366765
 20
-448.523996
 30
0.0
 70
32
  0
VERTEX
  5
1E1
330
1D3
100
AcDbEntity
  8
Strake_2
100
AcDbVertex
100
AcDb3dPolylineVertex
 10
344.387928
 20
-448.36934
 30
0.0
 70
32
  0
VERTEX
  5
1E2
330
1D3
100
AcDbEntity
  8
Strake_2
100
AcDbVertex
100
AcDb3dPolylineVertex
 10
436.76302
 20
-447.678787
 30
0.0
 70
32
  0
VERTEX
  5
1E3
330
1D3
100
AcDbEntity
  8
Strake_2
100
AcDbVertex
100
AcDb3dPolylineVertex
 10
533.351089
 20
-446.333667
 30
0.0
 70
32
  0
VERTEX
  5
1E4
330
1D3
100
AcDbEntity
  8
Strake_2
100
AcDbVertex
100
AcDb3dPolylineVertex
 10
635.0221
 20
-444.22197
 30
0.0
 70
32
  0
VERTEX
  5
1E5
330
1D3
100
AcDbEntity
  8
Strake_2
100
AcDbVertex
100
AcDb3dPolylineVertex
 10
742.655585
 20
-441.218942
 30
0.0
 70
32
  0
VERTEX
  5
1E6
330
1D3
100
AcDbEntity
  8
Strake_2
100
AcDbVertex
100
AcDb3dPolylineVertex
 10
856.911135
 20
-437.337744
 30
0.0
 70
32
  0
VERTEX
  5
1E7
330
1D3
100
AcDbEntity
  8
Strake_2
100
AcDbVertex
100
AcDb3dPolylineVertex
 10
977.414721
 20
-432.731082
 30
0.0
 70
32
  0
VERTEX
  5
1E8
330
1D3
100
AcDbEntity
  8
Strake_2
100
AcDbVertex
100
AcDb3dPolylineVertex
 10
1103.564589
 20
-427.712755
 30
0.0
 70
32
  0
VERTEX
  5
1E9
330
1D3
100
AcDbEntity
  8
Strake_2
100
AcDbVertex
100
AcDb3dPolylineVertex
 10
1234.760432
 20
-422.584003
 30
0.0
 70
32
  0
VERTEX
  5
1EA
330
1D3
100
AcDbEntity
  8
Strake_2
100
AcDbVertex
100
AcDb3dPolylineVertex
 10
1370.404504
 20
-417.650477
 30
0.0
 70
32
  0
VERTEX
  5
1EB
330
1D3
100
AcDbEntity
  8
Strake_2
100
AcDbVertex
100
AcDb3dPolylineVertex
 10
1509.901977
 20
-413.219382
 30
0.0
 70
32
  0
VERTEX
  5
1EC
330
1D3
100
AcDbEntity
  8
Strake_2
100
AcDbVertex
100
AcDb3dPolylineVertex
 10
1652.661374
 20
-409.597152
 30
0.0
 70
32
  0
VERTEX
  5
1ED
330
1D3
100
AcDbEntity
  8
Strake_2
100
AcDbVertex
100
AcDb3dPolylineVertex
 10
1798.095126
 20
-407.087006
 30
0.0
 70
32
  0
VERTEX
  5
1EE
330
1D3
100
AcDbEntity
  8
Strake_2
100
AcDbVertex
100
AcDb3dPolylineVertex
 10
1945.67947
 20
-405.90999
 30
0.0
 70
32
  0
VERTEX
  5
1EF
330
1D3
100
AcDbEntity
  8
Strake_2
100
AcDbVertex
100
AcDb3dPolylineVertex
 10
2095.124453
 20
-405.973116
 30
0.0
 70
32
  0
VERTEX
  5
1F0
330
1D3
100
AcDbEntity
  8
Strake_2
100
AcDbVertex
100
AcDb3dPolylineVertex
 10
2246.186862
 20
-407.098348
 30
0.0
 70
32
  0
VERTEX
  5
1F1
330
1D3
100
AcDbEntity
  8
Strake_2
100
AcDbVertex
100
AcDb3dPolylineVertex
 10
2398.612633
 20
-409.102763
 30
0.0
 70
32
  0
VERTEX
  5
1F2
330
1D3
100
AcDbEntity
  8
Strake_2
100
AcDbVertex
100
AcDb3dPolylineVertex
 10
2552.139123
 20
-411.801856
 30
0.0
 70
32
  0
VERTEX
  5
1F3
330
1D3
100
AcDbEntity
  8
Strake_2
100
AcDbVertex
100
AcDb3dPolylineVertex
 10
2706.497046
 20
-415.012162
 30
0.0
 70
32
  0
VERTEX
  5
1F4
330
1D3
100
AcDbEntity
  8
Strake_2
100
AcDbVertex
100
AcDb3dPolylineVertex
 10
2861.412184
 20
-418.553432
 30
0.0
 70
32
  0
VERTEX
  5
1F5
330
1D3
100
AcDbEntity
  8
Strake_2
100
AcDbVertex
100
AcDb3dPolylineVertex
 10
3016.606996
 20
-422.249657
 30
0.0
 70
32
  0
VERTEX
  5
1F6
330
1D3
100
AcDbEntity
  8
Strake_2
100
AcDbVertex
100
AcDb3dPolylineVertex
 10
3017.351022
 20
-436.460992
 30
0.0
 70
32
  0
VERTEX
  5
1F7
330
1D3
100
AcDbEntity
  8
Strake_2
100
AcDbVertex
100
AcDb3dPolylineVertex
 10
3018.095125
 20
-450.672323
 30
0.0
 70
32
  0
VERTEX
  5
1F8
330
1D3
100
AcDbEntity
  8
Strake_2
100
AcDbVertex
100
AcDb3dPolylineVertex
 10
3018.839304
 20
-464.883651
 30
0.0
 70
32
  0
VERTEX
  5
1F9
330
1D3
100
AcDbEntity
  8
Strake_2
100
AcDbVertex
100
AcDb3dPolylineVertex
 10
3019.583561
 20
-479.094974
 30
0.0
 70
32
  0
VERTEX
  5
1FA
330
1D3
100
AcDbEntity
  8
Strake_2
100
AcDbVertex
100
AcDb3dPolylineVertex
 10
3020.327894
 20
-493.306293
 30
0.0
 70
32
  0
VERTEX
  5
1FB
330
1D3
100
AcDbEntity
  8
Strake_2
100
AcDbVertex
100
AcDb3dPolylineVertex
 10
3021.072304
 20
-507.517608
 30
0.0
 70
32
  0
VERTEX
  5
1FC
330
1D3
100
AcDbEntity
  8
Strake_2
100
AcDbVertex
100
AcDb3dPolylineVertex
 10
3021.816791
 20
-521.728919
 30
0.0
 70
32
  0
VERTEX
  5
1FD
330
1D3
100
AcDbEntity
  8
Strake_2
100
AcDbVertex
100
AcDb3dPolylineVertex
 10
3022.561354
 20
-535.940226
 30
0.0
 70
32
  0
VERTEX
  5
1FE
330
1D3
100
AcDbEntity
  8
Strake_2
100
AcDbVertex
100
AcDb3dPolylineVertex
 10
2867.281026
 20
-534.919704
 30
0.0
 70
32
  0
VERTEX
  5
1FF
330
1D3
100
AcDbEntity
  8
Strake_2
100
AcDbVertex
100
AcDb3dPolylineVertex
 10
2712.266788
 20
-533.917594
 30
0.0
 70
32
  0
VERTEX
  5
200
330
1D3
100
AcDbEntity
  8
Strake_2
100
AcDbVertex
100
AcDb3dPolylineVertex
 10
2557.783646
 20
-532.957607
 30
0.0
 70
32
  0
VERTEX
  5
201
330
1D3
100
AcDbEntity
  8
Strake_2
100
AcDbVertex
100
AcDb3dPolylineVertex
 10
2404.094452
 20
-532.06634
 30
0.0
 70
32
  0
VERTEX
  5
202
330
1D3
100
AcDbEntity
  8
Strake_2
100
AcDbVertex
100
AcDb3dPolylineVertex
 10
2251.45879
 20
-531.272964
 30
0.0
 70
32
  0
VERTEX
  5
203
330
1D3
100
AcDbEntity
  8
Strake_2
100
AcDbVertex
100
AcDb3dPolylineVertex
 10
2100.131763
 20
-530.607816
 30
0.0
 70
32
  0
VERTEX
  5
204
330
1D3
100
AcDbEntity
  8
Strake_2
100
AcDbVertex
100
AcDb3dPolylineVertex
 10
1950.362677
 20
-530.10067
 30
0.0
 70
32
  0
VERTEX
  5
205
330
1D3
100
AcDbEntity
  8
Strake_2
100
AcDbVertex
100
AcDb3dPolylineVertex
 10
1802.39355
 20
-529.77857
 30
0.0
 70
32
  0
VERTEX
  5
206
330
1D3
100
AcDbEntity
  8
Strake_2
100
AcDbVertex
100
AcDb3dPolylineVertex
 10
1656.521894
 20
-529.629149
 30
0.0
 70
32
  0
VERTEX
  5
207
330
1D3
100
AcDbEntity
  8
Strake_2
100
AcDbVertex
100
AcDb3dPolylineVertex
 10
1513.297071
 20
-529.497459
 30
0.0
 70
32
  0
VERTEX
  5
208
330
1D3
100
AcDbEntity
  8
Strake_2
100
AcDbVertex
100
AcDb3dPolylineVertex
 10
1373.332479
 20
-529.188934
 30
0.0
 70
32
  0
VERTEX
  5
209
330
1D3
100
AcDbEntity
  8
Strake_2
100
AcDbVertex
100
AcDb3dPolylineVertex
 10
1237.24112
 20
-528.503973
 30
0.0
 70
32
  0
VERTEX
  5
20A
330
1D3
100
AcDbEntity
  8
Strake_2
100
AcDbVertex
100
AcDb3dPolylineVertex
 10
1105.634994
 20
-527.238495
 30
0.0
 70
32
  0
VERTEX
  5
20B
330
1D3
100
AcDbEntity
  8
Strake_2
100
AcDbVertex
100
AcDb3dPolylineVertex
 10
979.124403
 20
-525.184658
 30
0.0
 70
32
  0
VERTEX
  5
20C
330
1D3
100
AcDbEntity
  8
Strake_2
100
AcDbVertex
100
AcDb3dPolylineVertex
 10
858.317067
 20
-522.132445
 30
0.0
 70
32
  0
SEQEND
  5
20D
330
1D3
100
AcDbEntity
  8
0
  0
POLYLINE
  5
20F
100
AcDbEntity
  8
Strake_3
100
AcDb3dPolyline
 66
1
 10
0.0
 20
0.0
 30
0.0
 70
8
  0
VERTEX
  5
210
330
20F
100
AcDbEntity
  8
Strake_3
100
AcDbVertex
100
AcDb3dPolylineVertex
 10
757.778545
 20
254.656366
 30
0.0
 70
32
  0
VERTEX
  5
211
330
20F
100
AcDbEntity
  8
Strake_3
100
AcDbVertex
100
AcDb3dPolylineVertex
 10
872.320429
 20
257.58983
 30
0.0
 70
32
  0
VERTEX
  5
212
330
20F
100
AcDbEntity
  8
Strake_3
100
AcDbVertex
100
AcDb3dPolylineVertex
 10
993.114383
 20
261.1323
 30
0.0
 70
32
  0
VERTEX
  5
213
330
20F
100
AcDbEntity
  8
Strake_3
100
AcDbVertex
100
AcDb3dPolylineVertex
 10
1119.569422
 20
265.406753
 30
0.0
 70
32
  0
VERTEX
  5
214
330
20F
100
AcDbEntity
  8
Strake_3
100
AcDbVertex
100
AcDb3dPolylineVertex
 10
1251.081558
 20
270.538187
 30
0.0
 70
32
  0
VERTEX
  5
215
330
20F
100
AcDbEntity
  8
Strake_3
100
AcDbVertex
100
AcDb3dPolylineVertex
 10
1387.037202
 20
276.652933
 30
0.0
 70
32
  0
VERTEX
  5
216
330
20F
100
AcDbEntity
  8
Strake_3
100
AcDbVertex
100
AcDb3dPolylineVertex
 10
1526.815526
 20
283.878063
 30
0.0
 70
32
  0
VERTEX
  5
217
330
20F
100
AcDbEntity
  8
Strake_3
100
AcDbVertex
100
AcDb3dPolylineVertex
 10
1669.790175
 20
292.340738
 30
0.0
 70
32
  0
VERTEX
  5
218
330
20F
100
AcDbEntity
  8
Strake_3
100
AcDbVertex
100
AcDb3dPolylineVertex
 10
1815.330548
 20
302.167341
 30
0.0
 70
32
  0
VERTEX
  5
219
330
20F
100
AcDbEntity
  8
Strake_3
100
AcDbVertex
100
AcDb3dPolylineVertex
 10
1962.870745
 20
313.430406
 30
0.0
 70
32
  0
VERTEX
  5
21A
330
20F
100
AcDbEntity
  8
Strake_3
100
AcDbVertex
100
AcDb3dPolylineVertex
 10
2112.112957
 20
325.992191
 30
0.0
 70
32
  0
VERTEX
  5
21B
330
20F
100
AcDbEntity
  8
Strake_3
100
AcDbVertex
100
AcDb3dPolylineVertex
 10
2262.822886
 20
339.660728
 30
0.0
 70
32
  0
VERTEX
  5
21C
330
20F
100
AcDbEntity
  8
Strake_3
100
AcDbVertex
100
AcDb3dPolylineVertex
 10
2414.762499
 20
354.242525
 30
0.0
 70
32
  0
VERTEX
  5
21D
330
20F
100
AcDbEntity
  8
Strake_3
100
AcDbVertex
100
AcDb3dPolylineVertex
 10
2567.69074
 20
369.543363
 30
0.0
 70
32
  0
VERTEX
  5
21E
330
20F
100
AcDbEntity
  8
Strake_3
100
AcDbVertex
100
AcDb3dPolylineVertex
 10
2721.364127
 20
385.369076
 30
0.0
 70
32
  0
VERTEX
  5
21F
330
20F
100
AcDbEntity
  8
Strake_3
100
AcDbVertex
100
AcDb3dPolylineVertex
 10
2875.537277
 20
401.52636
 30
0.0
 70
32
  0
VERTEX
  5
220
330
20F
100
AcDbEntity
  8
Strake_3
100
AcDbVertex
100
AcDb3dPolylineVertex
 10
3029.963661
 20
417.820955
 30
0.0
 70
32
  0
VERTEX
  5
221
330
20F
100
AcDbEntity
  8
Strake_3
100
AcDbVertex
100
AcDb3dPolylineVertex
 10
3029.776843
 20
437.198683
 30
0.0
 70
32
  0
VERTEX
  5
222
330
20F
100
AcDbEntity
  8
Strake_3
100
AcDbVertex
100
AcDb3dPolylineVertex
 10
3029.590399
 20
456.576415
 30
0.0
 70
32
  0
VERTEX
  5
223
330
20F
100
AcDbEntity
  8
Strake_3
100
AcDbVertex
100
AcDb3dPolylineVertex
 10
3029.404327
 20
475.95415
 30
0.0
 70
32
  0
VERTEX
  5
224
330
20F
100
AcDbEntity
  8
Strake_3
100
AcDbVertex
100
AcDb3dPolylineVertex
 10
3029.218629
 20
495.331889
 30
0.0
 70
32
  0
VERTEX
  5
225
330
20F
100
AcDbEntity
  8
Strake_3
100
AcDbVertex
100
AcDb3dPolylineVertex
 10
3029.033303
 20
514.709632
 30
0.0
 70
32
  0
VERTEX
  5
226
330
20F
100
AcDbEntity
  8
Strake_3
100
AcDbVertex
100
AcDb3dPolylineVertex
 10
3028.848349
 20
534.087378
 30
0.0
 70
32
  0
VERTEX
  5
227
330
20F
100
AcDbEntity
  8
Strake_3
100
AcDbVertex
100
AcDb3dPolylineVertex
 10
3028.663767
 20
553.465127
 30
0.0
 70
32
  0
VERTEX
  5
228
330
20F
100
AcDbEntity
  8
Strake_3
100
AcDbVertex
100
AcDb3dPolylineVertex
 10
3028.479556
 20
572.84288
 30
0.0
 70
32
  0
VERTEX
  5
229
330
20F
100
AcDbEntity
  8
Strake_3
100
AcDbVertex
100
AcDb3dPolylineVertex
 10
2873.546511
 20
570.535976
 30
0.0
 70
32
  0
VERTEX
  5
22A
330
20F
100
AcDbEntity
  8
Strake_3
100
AcDbVertex
100
AcDb3dPolylineVertex
 10
2718.863502
 20
568.290648
 30
0.0
 70
32
  0
VERTEX
  5
22B
330
20F
100
AcDbEntity
  8
Strake_3
100
AcDbVertex
100
AcDb3dPolylineVertex
 10
2564.680175
 20
566.174044
 30
0.0
 70
32
  0
VERTEX
  5
22C
330
20F
100
AcDbEntity
  8
Strake_3
100
AcDbVertex
100
AcDb3dPolylineVertex
 10
2411.245548
 20
564.253273
 30
0.0
 70
32
  0
VERTEX
  5
22D
330
20F
100
AcDbEntity
  8
Strake_3
100
AcDbVertex
100
AcDb3dPolylineVertex
 10
2258.80767
 20
562.597295
 30
0.0
 70
32
  0
VERTEX
  5
22E
330
20F
100
AcDbEntity
  8
Strake_3
100
AcDbVertex
100
AcDb3dPolylineVertex
 10
2107.613292
 20
561.276194
 30
0.0
 70
32
  0
VERTEX
  5
22F
330
20F
100
AcDbEntity
  8
Strake_3
100
AcDbVertex
100
AcDb3dPolylineVertex
 10
1957.907497
 20
560.360527
 30
0.0
 70
32
  0
VERTEX
  5
230
330
20F
100
AcDbEntity
  8
Strake_3
100
AcDbVertex
100
AcDb3dPolylineVertex
 10
1809.933296
 20
559.920705
 30
0.0
 70
32
  0
VERTEX
  5
231
330
20F
100
AcDbEntity
  8
Strake_3
100
AcDbVertex
100
AcDb3dPolylineVertex
 10
1663.999467
 20
559.999557
 30
0.0
 70
32
  0
VERTEX
  5
232
330
20F
100
AcDbEntity
  8
Strake_3
100
AcDbVertex
100
AcDb3dPolylineVertex
 10
1520.684102
 20
560.531407
 30
0.0
 70
32
  0
VERTEX
  5
233
330
20F
100
AcDbEntity
  8
Strake_3
100
AcDbVertex
100
AcDb3dPolylineVertex
 10
1380.627225
 20
561.422409
 30
0.0
 70
32
  0
VERTEX
  5
234
330
20F
100
AcDbEntity
  8
Strake_3
100
AcDbVertex
100
AcDb3dPolylineVertex
 10
1244.460326
 20
562.577604
 30
0.0
 70
32
  0
VERTEX
  5
235
330
20F
100
AcDbEntity
  8
Strake_3
100
AcDbVertex
100
AcDb3dPolylineVertex
 10
1112.803671
 20
563.901588
 30
0.0
 70
32
  0
VERTEX
  5
236
330
20F
100
AcDbEntity
  8
Strake_3
100
AcDbVertex
100
AcDb3dPolylineVertex
 10
986.262651
 20
565.29965
 30
0.0
 70
32
  0
VERTEX
  5
237
330
20F
100
AcDbEntity
  8
Strake_3
100
AcDbVertex
100
AcDb3dPolylineVertex
 10
865.422712
 20
566.67943
 30
0.0
 70
32
  0
VERTEX
  5
238
330
20F
100
AcDbEntity
  8
Strake_3
100
AcDbVertex
100
AcDb3dPolylineVertex
 10
750.842112
 20
567.953229
 30
0.0
 70
32
  0
VERTEX
  5
239
330
20F
100
AcDbEntity
  8
Strake_3
100
AcDbVertex
100
AcDb3dPolylineVertex
 10
642.79863
 20
569.060367
 30
0.0
 70
32
  0
VERTEX
  5
23A
330
20F
100
AcDbEntity
  8
Strake_3
100
AcDbVertex
100
AcDb3dPolylineVertex
 10
540.580758
 20
570.02422
 30
0.0
 70
32
  0
VERTEX
  5
23B
330
20F
100
AcDbEntity
  8
Strake_3
100
AcDbVertex
100
AcDb3dPolylineVertex
 10
443.259492
 20
570.888853
 30
0.0
 70
32
  0
VERTEX
  5
23C
330
20F
100
AcDbEntity
  8
Strake_3
100
AcDbVertex
100
AcDb3dPolylineVertex
 10
349.939756
 20
571.696015
 30
0.0
 70
32
  0
VERTEX
  5
23D
330
20F
100
AcDbEntity
  8
Strake_3
100
AcDbVertex
100
AcDb3dPolylineVertex
 10
259.762691
 20
572.481485
 30
0.0
 70
32
  0
VERTEX
  5
23E
330
20F
100
AcDbEntity
  8
Strake_3
100
AcDbVertex
100
AcDb3dPolylineVertex
 10
171.904851
 20
573.271768
 30
0.0
 70
32
  0
VERTEX
  5
23F
330
20F
100
AcDbEntity
  8
Strake_3
100
AcDbVertex
100
AcDb3dPolylineVertex
 10
85.573774
 20
574.081281
 30
0.0
 70
32
  0
VERTEX
  5
240
330
20F
100
AcDbEntity
  8
Strake_3
100
AcDbVertex
100
AcDb3dPolylineVertex
 10
0.0
 20
574.91016
 30
0.0
 70
32
  0
VERTEX
  5
241
330
20F
100
AcDbEntity
  8
Strake_3
100
AcDbVertex
100
AcDb3dPolylineVertex
 10
1.377214
 20
533.558088
 30
0.0
 70
32
  0
VERTEX
  5
242
330
20F
100
AcDbEntity
  8
Strake_3
100
AcDbVertex
100
AcDb3dPolylineVertex
 10
2.733233
 20
492.205315
 30
0.0
 70
32
  0
VERTEX
  5
243
330
20F
100
AcDbEntity
  8
Strake_3
100
AcDbVertex
100
AcDb3dPolylineVertex
 10
4.068013
 20
450.851851
 30
0.0
 70
32
  0
VERTEX
  5
244
330
20F
100
AcDbEntity
  8
Strake_3
100
AcDbVertex
100
AcDb3dPolylineVertex
 10
5.381511
 20
409.497705
 30
0.0
 70
32
  0
VERTEX
  5
245
330
20F
100
AcDbEntity
  8
Strake_3
100
AcDbVertex
100
AcDb3dPolylineVertex
 10
6.673688
 20
368.142888
 30
0.0
 70
32
  0
VERTEX
  5
246
330
20F
100
AcDbEntity
  8
Strake_3
100
AcDbVertex
100
AcDb3dPolylineVertex
 10
7.944503
 20
326.787409
 30
0.0
 70
32
  0
VERTEX
  5
247
330
20F
100
AcDbEntity
  8
Strake_3
100
AcDbVertex
100
AcDb3dPolylineVertex
 10
9.19392
 20
285.431278
 30
0.0
 70
32
  0
VERTEX
  5
248
330
20F
100
AcDbEntity
  8
Strake_3
100
AcDbVertex
100
AcDb3dPolylineVertex
 10
10.421901
 20
244.074505
 30
0.0
 70
32
  0
VERTEX
  5
249
330
20F
100
AcDbEntity
  8
Strake_3
100
AcDbVertex
100
AcDb3dPolylineVertex
 10
95.253966
 20
244.743669
 30
0.0
 70
32
  0
VERTEX
  5
24A
330
20F
100
AcDbEntity
  8
Strake_3
100
AcDbVertex
100
AcDb3dPolylineVertex
 10
180.88504
 20
245.451523
 30
0.0
 70
32
  0
VERTEX
  5
24B
330
20F
100
AcDbEntity
  8
Strake_3
100
AcDbVertex
100
AcDb3dPolylineVertex
 10
268.121273
 20
246.282648
 30
0.0
 70
32
  0
VERTEX
  5
24C
330
20F
100
AcDbEntity
  8
Strake_3
100
AcDbVertex
100
AcDb3dPolylineVertex
 10
357.782827
 20
247.311789
 30
0.0
 70
32
  0
VERTEX
  5
24D
330
20F
100
AcDbEntity
  8
Strake_3
100
AcDbVertex
100
AcDb3dPolylineVertex
 10
450.708563
 20
248.605406
 30
0.0
 70
32
  0
VERTEX
  5
24E
330
20F
100
AcDbEntity
  8
Strake_3
100
AcDbVertex
100
AcDb3dPolylineVertex
 10
547.758587
 20
250.223646
 30
0.0
 70
32
  0
VERTEX
  5
24F
330
20F
100
AcDbEntity
  8
Strake_3
100
AcDbVertex
100
AcDb3dPolylineVertex
 10
649.814621
 20
252.222557
 30
0.0
 70
32
  0
VERTEX
  5
250
330
20F
100
AcDbEntity
  8
Strake_3
100
AcDbVertex
100
AcDb3dPolylineVertex
 10
757.778545
 20
254.656366
 30
0.0
 70
32
  0
SEQEND
  5
251
330
20F
100
AcDbEntity
  8
0
  0
POLYLINE
  5
252
100
AcDbEntity
  8
Strake_3
100
AcDb3dPolyline
 66
1
 10
0.0
 20
0.0
 30
0.0
 70
8
  0
VERTEX
  5
253
330
252
100
AcDbEntity
  8
Strake_3
100
AcDbVertex
100
AcDb3dPolylineVertex
 10
757.778545
 20
-622.721382
 30
0.0
 70
32
  0
VERTEX
  5
254
330
252
100
AcDbEntity
  8
Strake_3
100
AcDbVertex
100
AcDb3dPolylineVertex
 10
872.320429
 20
-625.654847
 30
0.0
 70
32
  0
VERTEX
  5
255
330
252
100
AcDbEntity
  8
Strake_3
100
AcDbVertex
100
AcDb3dPolylineVertex
 10
993.114383
 20
-629.197316
 30
0.0
 70
32
  0
VERTEX
  5
256
330
252
100
AcDbEntity
  8
Strake_3
100
AcDbVertex
100
AcDb3dPolylineVertex
 10
1119.569422
 20
-633.47177
 30
0.0
 70
32
  0
VERTEX
  5
257
330
252
100
AcDbEntity
  8
Strake_3
100
AcDbVertex
100
AcDb3dPolylineVertex
 10
1251.081558
 20
-638.603204
 30
0.0
 70
32
  0
VERTEX
  5
258
330
252
100
AcDbEntity
  8
Strake_3
100
AcDbVertex
100
AcDb3dPolylineVertex
 10
1387.037202
 20
-644.717949
 30
0.0
 70
32
  0
VERTEX
  5
259
330
252
100
AcDbEntity
  8
Strake_3
100
AcDbVertex
100
AcDb3dPolylineVertex
 10
1526.815526
 20
-651.943079
 30
0.0
 70
32
  0
VERTEX
  5
25A
330
252
100
AcDbEntity
  8
Strake_3
100
AcDbVertex
100
AcDb3dPolylineVertex
 10
1669.790175
 20
-660.405755
 30
0.0
 70
32
  0
VERTEX
  5
25B
330
252
100
AcDbEntity
  8
Strake_3
100
AcDbVertex
100
AcDb3dPolylineVertex
 10
1815.330548
 20
-670.232357
 30
0.0
 70
32
  0
VERTEX
  5
25C
330
252
100
AcDbEntity
  8
Strake_3
100
AcDbVertex
100
AcDb3dPolylineVertex
 10
1962.870745
 20
-681.495422
 30
0.0
 70
32
  0
VERTEX
  5
25D
330
252
100
AcDbEntity
  8
Strake_3
100
AcDbVertex
100
AcDb3dPolylineVertex
 10
2112.112957
 20
-694.057208
 30
0.0
 70
32
  0
VERTEX
  5
25E
330
252
100
AcDbEntity
  8
Strake_3
100
AcDbVertex
100
AcDb3dPolylineVertex
 10
2262.822886
 20
-707.725744
 30
0.0
 70
32
  0
VERTEX
  5
25F
330
252
100
AcDbEntity
  8
Strake_3
100
AcDbVertex
100
AcDb3dPolylineVertex
 10
2414.762499
 20
-722.307541
 30
0.0
 70
32
  0
VERTEX
  5
260
330
252
100
AcDbEntity
  8
Strake_3
100
AcDbVertex
100
AcDb3dPolylineVertex
 10
2567.69074
 20
-737.608379
 30
0.0
 70
32
  0
VERTEX
  5
261
330
252
100
AcDbEntity
  8
Strake_3
100
AcDbVertex
100
AcDb3dPolylineVertex
 10
2721.364127
 20
-753.434092
 30
0.0
 70
32
  0
VERTEX
  5
262
330
252
100
AcDbEntity
  8
Strake_3
100
AcDbVertex
100
AcDb3dPolylineVertex
 10
2875.537277
 20
-769.591376
 30
0.0
 70
32
  0
VERTEX
  5
263
330
252
100
AcDbEntity
  8
Strake_3
100
AcDbVertex
100
AcDb3dPolylineVertex
 10
3029.963661
 20
-785.885971
 30
0.0
 70
32
  0
VERTEX
  5
264
330
252
100
AcDbEntity
  8
Strake_3
100
AcDbVertex
100
AcDb3dPolylineVertex
 10
3029.776843
 20
-805.263699
 30
0.0
 70
32
  0
VERTEX
  5
265
330
252
100
AcDbEntity
  8
Strake_3
100
AcDbVertex
100
AcDb3dPolylineVertex
 10
3029.590399
 20
-824.641431
 30
0.0
 70
32
  0
VERTEX
  5
266
330
252
100
AcDbEntity
  8
Strake_3
100
AcDbVertex
100
AcDb3dPolylineVertex
 10
3029.404327
 20
-844.019167
 30
0.0
 70
32
  0
VERTEX
  5
267
330
252
100
AcDbEntity
  8
Strake_3
100
AcDbVertex
100
AcDb3dPolylineVertex
 10
3029.218629
 20
-863.396905
 30
0.0
 70
32
  0
VERTEX
  5
268
330
252
100
AcDbEntity
  8
Strake_3
100
AcDbVertex
100
AcDb3dPolylineVertex
 10
3029.033303
 20
-882.774648
 30
0.0
 70
32
  0
VERTEX
  5
269
330
252
100
AcDbEntity
  8
Strake_3
100
AcDbVertex
100
AcDb3dPolylineVertex
 10
3028.848349
 20
-902.152394
 30
0.0
 70
32
  0
VERTEX
  5
26A
330
252
100
AcDbEntity
  8
Strake_3
100
AcDbVertex
100
AcDb3dPolylineVertex
 10
3028.663767
 20
-921.530144
 30
0.0
 70
32
  0
VERTEX
  5
26B
330
252
100
AcDbEntity
  8
Strake_3
100
AcDbVertex
100
AcDb3dPolylineVertex
 10
3028.479556
 20
-940.907897
 30
0.0
 70
32
  0
VERTEX
  5
26C
330
252
100
AcDbEntity
  8
Strake_3
100
AcDbVertex
100
AcDb3dPolylineVertex
 10
2873.546511
 20
-938.600992
 30
0.0
 70
32
  0
VERTEX
  5
26D
330
252
100
AcDbEntity
  8
Strake_3
100
AcDbVertex
100
AcDb3dPolylineVertex
 10
2718.863502
 20
-936.355664
 30
0.0
 70
32
  0
VERTEX
  5
26E
330
252
100
AcDbEntity
  8
Strake_3
100
AcDbVertex
100
AcDb3dPolylineVertex
 10
2564.680175
 20
-934.23906
 30
0.0
 70
32
  0
VERTEX
  5
26F
330
252
100
AcDbEntity
  8
Strake_3
100
AcDbVertex
100
AcDb3dPolylineVertex
 10
2411.245548
 20
-932.31829
 30
0.0
 70
32
  0
VERTEX
  5
270
330
252
100
AcDbEntity
  8
Strake_3
100
AcDbVertex
100
AcDb3dPolylineVertex
 10
2258.80767
 20
-930.662311
 30
0.0
 70
32
  0
VERTEX
  5
271
330
252
100
AcDbEntity
  8
Strake_3
100
AcDbVertex
100
AcDb3dPolylineVertex
 10
2107.613292
 20
-929.34121
 30
0.0
 70
32
  0
VERTEX
  5
272
330
252
100
AcDbEntity
  8
Strake_3
100
AcDbVertex
100
AcDb3dPolylineVertex
 10
1957.907497
 20
-928.425544
 30
0.0
 70
32
  0
VERTEX
  5
273
330
252
100
AcDbEntity
  8
Strake_3
100
AcDbVertex
100
AcDb3dPolylineVertex
 10
1809.933296
 20
-927.985721
 30
0.0
 70
32
  0
VERTEX
  5
274
330
252
100
AcDbEntity
  8
Strake_3
100
AcDbVertex
100
AcDb3dPolylineVertex
 10
1663.999467
 20
-928.064574
 30
0.0
 70
32
  0
VERTEX
  5
275
330
252
100
AcDbEntity
  8
Strake_3
100
AcDbVertex
100
AcDb3dPolylineVertex
 10
1520.684102
 20
-928.596424
 30
0.0
 70
32
  0
VERTEX
  5
276
330
252
100
AcDbEntity
  8
Strake_3
100
AcDbVertex
100
AcDb3dPolylineVertex
 10
1380.627225
 20
-929.487426
 30
0.0
 70
32
  0
VERTEX
  5
277
330
252
100
AcDbEntity
  8
Strake_3
100
AcDbVertex
100
AcDb3dPolylineVertex
 10
1244.460326
 20
-930.64262
 30
0.0
 70
32
  0
VERTEX
  5
278
330
252
100
AcDbEntity
  8
Strake_3
100
AcDbVertex
100
AcDb3dPolylineVertex
 10
1112.803671
 20
-931.966604
 30
0.0
 70
32
  0
VERTEX
  5
279
330
252
100
AcDbEntity
  8
Strake_3
100
AcDbVertex
100
AcDb3dPolylineVertex
 10
986.262651
 20
-933.364666
 30
0.0
 70
32
  0
VERTEX
  5
27A
330
252
100
AcDbEntity
  8
Strake_3
100
AcDbVertex
100
AcDb3dPolylineVertex
 10
865.422712
 20
-934.744446
 30
0.0
 70
32
  0
VERTEX
  5
27B
330
252
100
AcDbEntity
  8
Strake_3
100
AcDbVertex
100
AcDb3dPolylineVertex
 10
750.842112
 20
-936.018245
 30
0.0
 70
32
  0
VERTEX
  5
27C
330
252
100
AcDbEntity
  8
Strake_3
100
AcDbVertex
100
AcDb3dPolylineVertex
 10
642.79863
 20
-937.125384
 30
0.0
 70
32
  0
VERTEX
  5
27D
330
252
100
AcDbEntity
  8
Strake_3
100
AcDbVertex
100
AcDb3dPolylineVertex
 10
540.580758
 20
-938.089236
 30
0.0
 70
32
  0
VERTEX
  5
27E
330
252
100
AcDbEntity
  8
Strake_3
100
AcDbVertex
100
AcDb3dPolylineVertex
 10
443.259492
 20
-938.953869
 30
0.0
 70
32
  0
VERTEX
  5
27F
330
252
100
AcDbEntity
  8
Strake_3
100
AcDbVertex
100
AcDb3dPolylineVertex
 10
349.939756
 20
-939.761031
 30
0.0
 70
32
  0
VERTEX
  5
280
330
252
100
AcDbEntity
  8
Strake_3
100
AcDbVertex
100
AcDb3dPolylineVertex
 10
259.762691
 20
-940.546501
 30
0.0
 70
32
  0
VERTEX
  5
281
330
252
100
AcDbEntity
  8
Strake_3
100
AcDbVertex
100
AcDb3dPolylineVertex
 10
171.904851
 20
-941.336785
 30
0.0
 70
32
  0
VERTEX
  5
282
330
252
100
AcDbEntity
  8
Strake_3
100
AcDbVertex
100
AcDb3dPolylineVertex
 10
85.573774
 20
-942.146297
 30
0.0
 70
32
  0
VERTEX
  5
283
330
252
100
AcDbEntity
  8
Strake_3
100
AcDbVertex
100
AcDb3dPolylineVertex
 10
0.0
 20
-942.975177
 30
0.0
 70
32
  0
VERTEX
  5
284
330
252
100
AcDbEntity
  8
Strake_3
100
AcDbVertex
100
AcDb3dPolylineVertex
 10
1.377214
 20
-901.623104
 30
0.0
 70
32
  0
VERTEX
  5
285
330
252
100
AcDbEntity
  8
Strake_3
100
AcDbVertex
100
AcDb3dPolylineVertex
 10
2.733233
 20
-860.270331
 30
0.0
 70
32
  0
VERTEX
  5
286
330
252
100
AcDbEntity
  8
Strake_3
100
AcDbVertex
100
AcDb3dPolylineVertex
 10
4.068013
 20
-818.916867
 30
0.0
 70
32
  0
VERTEX
  5
287
330
252
100
AcDbEntity
  8
Strake_3
100
AcDbVertex
100
AcDb3dPolylineVertex
 10
5.381511
 20
-777.562722
 30
0.0
 70
32
  0
VERTEX
  5
288
330
252
100
AcDbEntity
  8
Strake_3
100
AcDbVertex
100
AcDb3dPolylineVertex
 10
6.673688
 20
-736.207904
 30
0.0
 70
32
  0
VERTEX
  5
289
330
252
100
AcDbEntity
  8
Strake_3
100
AcDbVertex
100
AcDb3dPolylineVertex
 10
7.944503
 20
-694.852425
 30
0.0
 70
32
  0
VERTEX
  5
28A
330
252
100
AcDbEntity
  8
Strake_3
100
AcDbVertex
100
AcDb3dPolylineVertex
 10
9.19392
 20
-653.496294
 30
0.0
 70
32
  0
VERTEX
  5
28B
330
252
100
AcDbEntity
  8
Strake_3
100
AcDbVertex
100
AcDb3dPolylineVertex
 10
10.421901
 20
-612.139521
 30
0.0
 70
32
  0
VERTEX
  5
28C
330
252
100
AcDbEntity
  8
Strake_3
100
AcDbVertex
100
AcDb3dPolylineVertex
 10
95.253966
 20
-612.808686
 30
0.0
 70
32
  0
VERTEX
  5
28D
330
252
100
AcDbEntity
  8
Strake_3
100
AcDbVertex
100
AcDb3dPolylineVertex
 10
180.88504
 20
-613.516539
 30
0.0
 70
32
  0
VERTEX
  5
28E
330
252
100
AcDbEntity
  8
Strake_3
100
AcDbVertex
100
AcDb3dPolylineVertex
 10
268.121273
 20
-614.347665
 30
0.0
 70
32
  0
VERTEX
  5
28F
330
252
100
AcDbEntity
  8
Strake_3
100
AcDbVertex
100
AcDb3dPolylineVertex
 10
357.782827
 20
-615.376805
 30
0.0
 70
32
  0
VERTEX
  5
290
330
252
100
AcDbEntity
  8
Strake_3
100
AcDbVertex
100
AcDb3dPolylineVertex
 10
450.708563
 20
-616.670422
 30
0.0
 70
32
  0
VERTEX
  5
291
330
252
100
AcDbEntity
  8
Strake_3
100
AcDbVertex
100
AcDb3dPolylineVertex
 10
547.758587
 20
-618.288662
 30
0.0
 70
32
  0
VERTEX
  5
292
330
252
100
AcDbEntity
  8
Strake_3
100
AcDbVertex
100
AcDb3dPolylineVertex
 10
649.814621
 20
-620.287573
 30
0.0
 70
32
  0
VERTEX
  5
293
330
252
100
AcDbEntity
  8
Strake_3
100
AcDbVertex
100
AcDb3dPolylineVertex
 10
757.778545
 20
-622.721382
 30
0.0
 70
32
  0
SEQEND
  5
294
330
252
100
AcDbEntity
  8
0
  0
POLYLINE
  5
296
100
AcDbEntity
  8
Strake_4
100
AcDb3dPolyline
 66
1
 10
0.0
 20
0.0
 30
0.0
 70
8
  0
VERTEX
  5
297
330
296
100
AcDbEntity
  8
Strake_4
100
AcDbVertex
100
AcDb3dPolylineVertex
 10
2532.853439
 20
934.8981
 30
0.0
 70
32
  0
VERTEX
  5
298
330
296
100
AcDbEntity
  8
Strake_4
100
AcDbVertex
100
AcDb3dPolylineVertex
 10
2627.700465
 20
980.808799
 30
0.0
 70
32
  0
VERTEX
  5
299
330
296
100
AcDbEntity
  8
Strake_4
100
AcDbVertex
100
AcDb3dPolylineVertex
 10
2717.733905
 20
1028.492156
 30
0.0
 70
32
  0
VERTEX
  5
29A
330
296
100
AcDbEntity
  8
Strake_4
100
AcDbVertex
100
AcDb3dPolylineVertex
 10
2803.918298
 20
1077.593829
 30
0.0
 70
32
  0
VERTEX
  5
29B
330
296
100
AcDbEntity
  8
Strake_4
100
AcDbVertex
100
AcDb3dPolylineVertex
 10
2887.217097
 20
1127.759379
 30
0.0
 70
32
  0
VERTEX
  5
29C
330
296
100
AcDbEntity
  8
Strake_4
100
AcDbVertex
100
AcDb3dPolylineVertex
 10
2968.592784
 20
1178.634256
 30
0.0
 70
32
  0
VERTEX
  5
29D
330
296
100
AcDbEntity
  8
Strake_4
100
AcDbVertex
100
AcDb3dPolylineVertex
 10
3049.007107
 20
1229.86383
 30
0.0
 70
32
  0
VERTEX
  5
29E
330
296
100
AcDbEntity
  8
Strake_4
100
AcDbVertex
100
AcDb3dPolylineVertex
 10
2965.8093
 20
1209.821806
 30
0.0
 70
32
  0
VERTEX
  5
29F
330
296
100
AcDbEntity
  8
Strake_4
100
AcDbVertex
100
AcDb3dPolylineVertex
 10
2881.738191
 20
1190.181062
 30
0.0
 70
32
  0
VERTEX
  5
2A0
330
296
100
AcDbEntity
  8
Strake_4
100
AcDbVertex
100
AcDb3dPolylineVertex
 10
2795.920089
 20
1171.342855
 30
0.0
 70
32
  0
VERTEX
  5
2A1
330
296
100
AcDbEntity
  8
Strake_4
100
AcDbVertex
100
AcDb3dPolylineVertex
 10
2707.48059
 20
1153.708369
 30
0.0
 70
32
  0
VERTEX
  5
2A2
330
296
100
AcDbEntity
  8
Strake_4
100
AcDbVertex
100
AcDb3dPolylineVertex
 10
2615.544339
 20
1137.6787
 30
0.0
 70
32
  0
VERTEX
  5
2A3
330
296
100
AcDbEntity
  8
Strake_4
100
AcDbVertex
100
AcDb3dPolylineVertex
 10
2519.2349
 20
1123.654852
 30
0.0
 70
32
  0
VERTEX
  5
2A4
330
296
100
AcDbEntity
  8
Strake_4
100
AcDbVertex
100
AcDb3dPolylineVertex
 10
2417.674741
 20
1112.037769
 30
0.0
 70
32
  0
VERTEX
  5
2A5
330
296
100
AcDbEntity
  8
Strake_4
100
AcDbVertex
100
AcDb3dPolylineVertex
 10
2309.985307
 20
1103.228366
 30
0.0
 70
32
  0
VERTEX
  5
2A6
330
296
100
AcDbEntity
  8
Strake_4
100
AcDbVertex
100
AcDb3dPolylineVertex
 10
2195.540198
 20
1097.514068
 30
0.0
 70
32
  0
VERTEX
  5
2A7
330
296
100
AcDbEntity
  8
Strake_4
100
AcDbVertex
100
AcDb3dPolylineVertex
 10
2074.724269
 20
1094.738089
 30
0.0
 70
32
  0
VERTEX
  5
2A8
330
296
100
AcDbEntity
  8
Strake_4
100
AcDbVertex
100
AcDb3dPolylineVertex
 10
1948.175573
 20
1094.629071
 30
0.0
 70
32
  0
VERTEX
  5
2A9
330
296
100
AcDbEntity
  8
Strake_4
100
AcDbVertex
100
AcDb3dPolylineVertex
 10
1816.532132
 20
1096.91646
 30
0.0
 70
32
  0
VERTEX
  5
2AA
330
296
100
AcDbEntity
  8
Strake_4
100
AcDbVertex
100
AcDb3dPolylineVertex
 10
1680.43187
 20
1101.329787
 30
0.0
 70
32
  0
VERTEX
  5
2AB
330
296
100
AcDbEntity
  8
Strake_4
100
AcDbVertex
100
AcDb3dPolylineVertex
 10
1540.512523
 20
1107.598677
 30
0.0
 70
32
  0
VERTEX
  5
2AC
330
296
100
AcDbEntity
  8
Strake_4
100
AcDbVertex
100
AcDb3dPolylineVertex
 10
1397.411549
 20
1115.452858
 30
0.0
 70
32
  0
VERTEX
  5
2AD
330
296
100
AcDbEntity
  8
Strake_4
100
AcDbVertex
100
AcDb3dPolylineVertex
 10
1251.766048
 20
1124.62219
 30
0.0
 70
32
  0
VERTEX
  5
2AE
330
296
100
AcDbEntity
  8
Strake_4
100
AcDbVertex
100
AcDb3dPolylineVertex
 10
1104.145775
 20
1134.859996
 30
0.0
 70
32
  0
VERTEX
  5
2AF
330
296
100
AcDbEntity
  8
Strake_4
100
AcDbVertex
100
AcDb3dPolylineVertex
 10
954.853189
 20
1146.012893
 30
0.0
 70
32
  0
VERTEX
  5
2B0
330
296
100
AcDbEntity
  8
Strake_4
100
AcDbVertex
100
AcDb3dPolylineVertex
 10
804.125045
 20
1157.950734
 30
0.0
 70
32
  0
VERTEX
  5
2B1
330
296
100
AcDbEntity
  8
Strake_4
100
AcDbVertex
100
AcDb3dPolylineVertex
 10
652.199151
 20
1170.543246
 30
0.0
 70
32
  0
VERTEX
  5
2B2
330
296
100
AcDbEntity
  8
Strake_4
100
AcDbVertex
100
AcDb3dPolylineVertex
 10
499.314145
 20
1183.659993
 30
0.0
 70
32
  0
VERTEX
  5
2B3
330
296
100
AcDbEntity
  8
Strake_4
100
AcDbVertex
100
AcDb3dPolylineVertex
 10
345.709297
 20
1197.170339
 30
0.0
 70
32
  0
VERTEX
  5
2B4
330
296
100
AcDbEntity
  8
Strake_4
100
AcDbVertex
100
AcDb3dPolylineVertex
 10
191.624331
 20
1210.94342
 30
0.0
 70
32
  0
VERTEX
  5
2B5
330
296
100
AcDbEntity
  8
Strake_4
100
AcDbVertex
100
AcDb3dPolylineVertex
 10
37.299252
 20
1224.848111
 30
0.0
 70
32
  0
VERTEX
  5
2B6
330
296
100
AcDbEntity
  8
Strake_4
100
AcDbVertex
100
AcDb3dPolylineVertex
 10
32.637288
 20
1164.703879
 30
0.0
 70
32
  0
VERTEX
  5
2B7
330
296
100
AcDbEntity
  8
Strake_4
100
AcDbVertex
100
AcDb3dPolylineVertex
 10
27.975118
 20
1104.559664
 30
0.0
 70
32
  0
VERTEX
  5
2B8
330
296
100
AcDbEntity
  8
Strake_4
100
AcDbVertex
100
AcDb3dPolylineVertex
 10
23.312948
 20
1044.415448
 30
0.0
 70
32
  0
VERTEX
  5
2B9
330
296
100
AcDbEntity
  8
Strake_4
100
AcDbVertex
100
AcDb3dPolylineVertex
 10
18.650696
 20
984.271239
 30
0.0
 70
32
  0
VERTEX
  5
2BA
330
296
100
AcDbEntity
  8
Strake_4
100
AcDbVertex
100
AcDb3dPolylineVertex
 10
13.988315
 20
924.12704
 30
0.0
 70
32
  0
VERTEX
  5
2BB
330
296
100
AcDbEntity
  8
Strake_4
100
AcDbVertex
100
AcDb3dPolylineVertex
 10
9.325761
 20
863.982854
 30
0.0
 70
32
  0
VERTEX
  5
2BC
330
296
100
AcDbEntity
  8
Strake_4
100
AcDbVertex
100
AcDb3dPolylineVertex
 10
4.662999
 20
803.838684
 30
0.0
 70
32
  0
VERTEX
  5
2BD
330
296
100
AcDbEntity
  8
Strake_4
100
AcDbVertex
100
AcDb3dPolylineVertex
 10
0.0
 20
743.694533
 30
0.0
 70
32
  0
VERTEX
  5
2BE
330
296
100
AcDbEntity
  8
Strake_4
100
AcDbVertex
100
AcDb3dPolylineVertex
 10
158.937088
 20
724.699151
 30
0.0
 70
32
  0
VERTEX
  5
2BF
330
296
100
AcDbEntity
  8
Strake_4
100
AcDbVertex
100
AcDb3dPolylineVertex
 10
317.606593
 20
706.449193
 30
0.0
 70
32
  0
VERTEX
  5
2C0
330
296
100
AcDbEntity
  8
Strake_4
100
AcDbVertex
100
AcDb3dPolylineVertex
 10
475.741038
 20
689.690823
 30
0.0
 70
32
  0
VERTEX
  5
2C1
330
296
100
AcDbEntity
  8
Strake_4
100
AcDbVertex
100
AcDb3dPolylineVertex
 10
633.073157
 20
675.170012
 30
0.0
 70
32
  0
VERTEX
  5
2C2
330
296
100
AcDbEntity
  8
Strake_4
100
AcDbVertex
100
AcDb3dPolylineVertex
 10
789.336027
 20
663.632549
 30
0.0
 70
32
  0
VERTEX
  5
2C3
330
296
100
AcDbEntity
  8
Strake_4
100
AcDbVertex
100
AcDb3dPolylineVertex
 10
944.263221
 20
655.824049
 30
0.0
 70
32
  0
VERTEX
  5
2C4
330
296
100
AcDbEntity
  8
Strake_4
100
AcDbVertex
100
AcDb3dPolylineVertex
 10
1097.588986
 20
652.489978
 30
0.0
 70
32
  0
VERTEX
  5
2C5
330
296
100
AcDbEntity
  8
Strake_4
100
AcDbVertex
100
AcDb3dPolylineVertex
 10
1249.048444
 20
654.37568
 30
0.0
 70
32
  0
VERTEX
  5
2C6
330
296
100
AcDbEntity
  8
Strake_4
100
AcDbVertex
100
AcDb3dPolylineVertex
 10
1398.305439
 20
662.036949
 30
0.0
 70
32
  0
VERTEX
  5
2C7
330
296
100
AcDbEntity
  8
Strake_4
100
AcDbVertex
100
AcDb3dPolylineVertex
 10
1544.734941
 20
675.271762
 30
0.0
 70
32
  0
VERTEX
  5
2C8
330
296
100
AcDbEntity
  8
Strake_4
100
AcDbVertex
100
AcDb3dPolylineVertex
 10
1687.639196
 20
693.688741
 30
0.0
 70
32
  0
VERTEX
  5
2C9
330
296
100
AcDbEntity
  8
Strake_4
100
AcDbVertex
100
AcDb3dPolylineVertex
 10
1826.320485
 20
716.896607
 30
0.0
 70
32
  0
VERTEX
  5
2CA
330
296
100
AcDbEntity
  8
Strake_4
100
AcDbVertex
100
AcDb3dPolylineVertex
 10
1960.080725
 20
744.504161
 30
0.0
 70
32
  0
VERTEX
  5
2CB
330
296
100
AcDbEntity
  8
Strake_4
100
AcDbVertex
100
AcDb3dPolylineVertex
 10
2088.221747
 20
776.120278
 30
0.0
 70
32
  0
VERTEX
  5
2CC
330
296
100
AcDbEntity
  8
Strake_4
100
AcDbVertex
100
AcDb3dPolylineVertex
 10
2210.04535
 20
811.353905
 30
0.0
 70
32
  0
VERTEX
  5
2CD
330
296
100
AcDbEntity
  8
Strake_4
100
AcDbVertex
100
AcDb3dPolylineVertex
 10
2324.855076
 20
849.811686
 30
0.0
 70
32
  0
VERTEX
  5
2CE
330
296
100
AcDbEntity
  8
Strake_4
100
AcDbVertex
100
AcDb3dPolylineVertex
 10
2432.227188
 20
891.114326
 30
0.0
 70
32
  0
VERTEX
  5
2CF
330
296
100
AcDbEntity
  8
Strake_4
100
AcDbVertex
100
AcDb3dPolylineVertex
 10
2532.853439
 20
934.8981
 30
0.0
 70
32
  0
SEQEND
  5
2D0
330
296
100
AcDbEntity
  8
0
  0
POLYLINE
  5
2D1
100
AcDbEntity
  8
Strake_4
100
AcDb3dPolyline
 66
1
 10
0.0
 20
0.0
 30
0.0
 70
8
  0
VERTEX
  5
2D2
330
2D1
100
AcDbEntity
  8
Strake_4
100
AcDbVertex
100
AcDb3dPolylineVertex
 10
2532.853439
 20
-1302.963117
 30
0.0
 70
32
  0
VERTEX
  5
2D3
330
2D1
100
AcDbEntity
  8
Strake_4
100
AcDbVertex
100
AcDb3dPolylineVertex
 10
2627.700465
 20
-1348.873815
 30
0.0
 70
32
  0
VERTEX
  5
2D4
330
2D1
100
AcDbEntity
  8
Strake_4
100
AcDbVertex
100
AcDb3dPolylineVertex
 10
2717.733905
 20
-1396.557172
 30
0.0
 70
32
  0
VERTEX
  5
2D5
330
2D1
100
AcDbEntity
  8
Strake_4
100
AcDbVertex
100
AcDb3dPolylineVertex
 10
2803.918298
 20
-1445.658846
 30
0.0
 70
32
  0
VERTEX
  5
2D6
330
2D1
100
AcDbEntity
  8
Strake_4
100
AcDbVertex
100
AcDb3dPolylineVertex
 10
2887.217097
 20
-1495.824395
 30
0.0
 70
32
  0
VERTEX
  5
2D7
330
2D1
100
AcDbEntity
  8
Strake_4
100
AcDbVertex
100
AcDb3dPolylineVertex
 10
2968.592784
 20
-1546.699273
 30
0.0
 70
32
  0
VERTEX
  5
2D8
330
2D1
100
AcDbEntity
  8
Strake_4
100
AcDbVertex
100
AcDb3dPolylineVertex
 10
3049.007107
 20
-1597.928846
 30
0.0
 70
32
  0
VERTEX
  5
2D9
330
2D1
100
AcDbEntity
  8
Strake_4
100
AcDbVertex
100
AcDb3dPolylineVertex
 10
2965.8093
 20
-1577.886823
 30
0.0
 70
32
  0
VERTEX
  5
2DA
330
2D1
100
AcDbEntity
  8
Strake_4
100
AcDbVertex
100
AcDb3dPolylineVertex
 10
2881.738191
 20
-1558.246078
 30
0.0
 70
32
  0
VERTEX
  5
2DB
330
2D1
100
AcDbEntity
  8
Strake_4
100
AcDbVertex
100
AcDb3dPolylineVertex
 10
2795.920089
 20
-1539.407871
 30
0.0
 70
32
  0
VERTEX
  5
2DC
330
2D1
100
AcDbEntity
  8
Strake_4
100
AcDbVertex
100
AcDb3dPolylineVertex
 10
2707.48059
 20
-1521.773385
 30
0.0
 70
32
  0
VERTEX
  5
2DD
330
2D1
100
AcDbEntity
  8
Strake_4
100
AcDbVertex
100
AcDb3dPolylineVertex
 10
2615.544339
 20
-1505.743716
 30
0.0
 70
32
  0
VERTEX
  5
2DE
330
2D1
100
AcDbEntity
  8
Strake_4
100
AcDbVertex
100
AcDb3dPolylineVertex
 10
2519.2349
 20
-1491.719869
 30
0.0
 70
32
  0
VERTEX
  5
2DF
330
2D1
100
AcDbEntity
  8
Strake_4
100
AcDbVertex
100
AcDb3dPolylineVertex
 10
2417.674741
 20
-1480.102785
 30
0.0
 70
32
  0
VERTEX
  5
2E0
330
2D1
100
AcDbEntity
  8
Strake_4
100
AcDbVertex
100
AcDb3dPolylineVertex
 10
2309.985307
 20
-1471.293383
 30
0.0
 70
32
  0
VERTEX
  5
2E1
330
2D1
100
AcDbEntity
  8
Strake_4
100
AcDbVertex
100
AcDb3dPolylineVertex
 10
2195.540198
 20
-1465.579084
 30
0.0
 70
32
  0
VERTEX
  5
2E2
330
2D1
100
AcDbEntity
  8
Strake_4
100
AcDbVertex
100
AcDb3dPolylineVertex
 10
2074.724269
 20
-1462.803105
 30
0.0
 70
32
  0
VERTEX
  5
2E3
330
2D1
100
AcDbEntity
  8
Strake_4
100
AcDbVertex
100
AcDb3dPolylineVertex
 10
1948.175573
 20
-1462.694087
 30
0.0
 70
32
  0
VERTEX
  5
2E4
330
2D1
100
AcDbEntity
  8
Strake_4
100
AcDbVertex
100
AcDb3dPolylineVertex
 10
1816.532132
 20
-1464.981476
 30
0.0
 70
32
  0
VERTEX
  5
2E5
330
2D1
100
AcDbEntity
  8
Strake_4
100
AcDbVertex
100
AcDb3dPolylineVertex
 10
1680.43187
 20
-1469.394803
 30
0.0
 70
32
  0
VERTEX
  5
2E6
330
2D1
100
AcDbEntity
  8
Strake_4
100
AcDbVertex
100
AcDb3dPolylineVertex
 10
1540.512523
 20
-1475.663693
 30
0.0
 70
32
  0
VERTEX
  5
2E7
330
2D1
100
AcDbEntity
  8
Strake_4
100
AcDbVertex
100
AcDb3dPolylineVertex
 10
1397.411549
 20
-1483.517874
 30
0.0
 70
32
  0
VERTEX
  5
2E8
330
2D1
100
AcDbEntity
  8
Strake_4
100
AcDbVertex
100
AcDb3dPolylineVertex
 10
1251.766048
 20
-1492.687207
 30
0.0
 70
32
  0
VERTEX
  5
2E9
330
2D1
100
AcDbEntity
  8
Strake_4
100
AcDbVertex
100
AcDb3dPolylineVertex
 10
1104.145775
 20
-1502.925012
 30
0.0
 70
32
  0
VERTEX
  5
2EA
330
2D1
100
AcDbEntity
  8
Strake_4
100
AcDbVertex
100
AcDb3dPolylineVertex
 10
954.853189
 20
-1514.07791
 30
0.0
 70
32
  0
VERTEX
  5
2EB
330
2D1
100
AcDbEntity
  8
Strake_4
100
AcDbVertex
100
AcDb3dPolylineVertex
 10
804.125045
 20
-1526.015751
 30
0.0
 70
32
  0
VERTEX
  5
2EC
330
2D1
100
AcDbEntity
  8
Strake_4
100
AcDbVertex
100
AcDb3dPolylineVertex
 10
652.199151
 20
-1538.608262
 30
0.0
 70
32
  0
VERTEX
  5
2ED
330
2D1
100
AcDbEntity
  8
Strake_4
100
AcDbVertex
100
AcDb3dPolylineVertex
 10
499.314145
 20
-1551.725009
 30
0.0
 70
32
  0
VERTEX
  5
2EE
330
2D1
100
AcDbEntity
  8
Strake_4
100
AcDbVertex
100
AcDb3dPolylineVertex
 10
345.709297
 20
-1565.235356
 30
0.0
 70
32
  0
VERTEX
  5
2EF
330
2D1
100
AcDbEntity
  8
Strake_4
100
AcDbVertex
100
AcDb3dPolylineVertex
 10
191.624331
 20
-1579.008436
 30
0.0
 70
32
  0
VERTEX
  5
2F0
330
2D1
100
AcDbEntity
  8
Strake_4
100
AcDbVertex
100
AcDb3dPolylineVertex
 10
37.299252
 20
-1592.913127
 30
0.0
 70
32
  0
VERTEX
  5
2F1
330
2D1
100
AcDbEntity
  8
Strake_4
100
AcDbVertex
100
AcDb3dPolylineVertex
 10
32.637288
 20
-1532.768896
 30
0.0
 70
32
  0
VERTEX
  5
2F2
330
2D1
100
AcDbEntity
  8
Strake_4
100
AcDbVertex
100
AcDb3dPolylineVertex
 10
27.975118
 20
-1472.62468
 30
0.0
 70
32
  0
VERTEX
  5
2F3
330
2D1
100
AcDbEntity
  8
Strake_4
100
AcDbVertex
100
AcDb3dPolylineVertex
 10
23.312948
 20
-1412.480464
 30
0.0
 70
32
  0
VERTEX
  5
2F4
330
2D1
100
AcDbEntity
  8
Strake_4
100
AcDbVertex
100
AcDb3dPolylineVertex
 10
18.650696
 20
-1352.336255
 30
0.0
 70
32
  0
VERTEX
  5
2F5
330
2D1
100
AcDbEntity
  8
Strake_4
100
AcDbVertex
100
AcDb3dPolylineVertex
 10
13.988315
 20
-1292.192056
 30
0.0
 70
32
  0
VERTEX
  5
2F6
330
2D1
100
AcDbEntity
  8
Strake_4
100
AcDbVertex
100
AcDb3dPolylineVertex
 10
9.325761
 20
-1232.04787
 30
0.0
 70
32
  0
VERTEX
  5
2F7
330
2D1
100
AcDbEntity
  8
Strake_4
100
AcDbVertex
100
AcDb3dPolylineVertex
 10
4.662999
 20
-1171.9037
 30
0.0
 70
32
  0
VERTEX
  5
2F8
330
2D1
100
AcDbEntity
  8
Strake_4
100
AcDbVertex
100
AcDb3dPolylineVertex
 10
0.0
 20
-1111.759549
 30
0.0
 70
32
  0
VERTEX
  5
2F9
330
2D1
100
AcDbEntity
  8
Strake_4
100
AcDbVertex
100
AcDb3dPolylineVertex
 10
158.937088
 20
-1092.764167
 30
0.0
 70
32
  0
VERTEX
  5
2FA
330
2D1
100
AcDbEntity
  8
Strake_4
100
AcDbVertex
100
AcDb3dPolylineVertex
 10
317.606593
 20
-1074.514209
 30
0.0
 70
32
  0
VERTEX
  5
2FB
330
2D1
100
AcDbEntity
  8
Strake_4
100
AcDbVertex
100
AcDb3dPolylineVertex
 10
475.741038
 20
-1057.755839
 30
0.0
 70
32
  0
VERTEX
  5
2FC
330
2D1
100
AcDbEntity
  8
Strake_4
100
AcDbVertex
100
AcDb3dPolylineVertex
 10
633.073157
 20
-1043.235029
 30
0.0
 70
32
  0
VERTEX
  5
2FD
330
2D1
100
AcDbEntity
  8
Strake_4
100
AcDbVertex
100
AcDb3dPolylineVertex
 10
789.336027
 20
-1031.697565
 30
0.0
 70
32
  0
VERTEX
  5
2FE
330
2D1
100
AcDbEntity
  8
Strake_4
100
AcDbVertex
100
AcDb3dPolylineVertex
 10
944.263221
 20
-1023.889065
 30
0.0
 70
32
  0
VERTEX
  5
2FF
330
2D1
100
AcDbEntity
  8
Strake_4
100
AcDbVertex
100
AcDb3dPolylineVertex
 10
1097.588986
 20
-1020.554994
 30
0.0
 70
32
  0
VERTEX
  5
300
330
2D1
100
AcDbEntity
  8
Strake_4
100
AcDbVertex
100
AcDb3dPolylineVertex
 10
1249.048444
 20
-1022.440696
 30
0.0
 70
32
  0
VERTEX
  5
301
330
2D1
100
AcDbEntity
  8
Strake_4
100
AcDbVertex
100
AcDb3dPolylineVertex
 10
1398.305439
 20
-1030.101965
 30
0.0
 70
32
  0
VERTEX
  5
302
330
2D1
100
AcDbEntity
  8
Strake_4
100
AcDbVertex
100
AcDb3dPolylineVertex
 10
1544.734941
 20
-1043.336778
 30
0.0
 70
32
  0
VERTEX
  5
303
330
2D1
100
AcDbEntity
  8
Strake_4
100
AcDbVertex
100
AcDb3dPolylineVertex
 10
1687.639196
 20
-1061.753757
 30
0.0
 70
32
  0
VERTEX
  5
304
330
2D1
100
AcDbEntity
  8
Strake_4
100
AcDbVertex
100
AcDb3dPolylineVertex
 10
1826.320485
 20
-1084.961623
 30
0.0
 70
32
  0
VERTEX
  5
305
330
2D1
100
AcDbEntity
  8
Strake_4
100
AcDbVertex
100
AcDb3dPolylineVertex
 10
1960.080725
 20
-1112.569177
 30
0.0
 70
32
  0
VERTEX
  5
306
330
2D1
100
AcDbEntity
  8
Strake_4
100
AcDbVertex
100
AcDb3dPolylineVertex
 10
2088.221747
 20
-1144.185295
 30
0.0
 70
32
  0
VERTEX
  5
307
330
2D1
100
AcDbEntity
  8
Strake_4
100
AcDbVertex
100
AcDb3dPolylineVertex
 10
2210.04535
 20
-1179.418922
 30
0.0
 70
32
  0
VERTEX
  5
308
330
2D1
100
AcDbEntity
  8
Strake_4
100
AcDbVertex
100
AcDb3dPolylineVertex
 10
2324.855076
 20
-1217.876702
 30
0.0
 70
32
  0
VERTEX
  5
309
330
2D1
100
AcDbEntity
  8
Strake_4
100
AcDbVertex
100
AcDb3dPolylineVertex
 10
2432.227188
 20
-1259.179342
 30
0.0
 70
32
  0
VERTEX
  5
30A
330
2D1
100
AcDbEntity
  8
Strake_4
100
AcDbVertex
100
AcDb3dPolylineVertex
 10
2532.853439
 20
-1302.963117
 30
0.0
 70
32
  0
SEQEND
  5
30B
330
2D1
100
AcDbEntity
  8
0
  0
POLYLINE
  5
30D
100
AcDbEntity
  8
Strake_5
100
AcDb3dPolyline
 66
1
 10
0.0
 20
0.0
 30
0.0
 70
8
  0
VERTEX
  5
30E
330
30D
100
AcDbEntity
  8
Strake_5
100
AcDbVertex
100
AcDb3dPolylineVertex
 10
3170.925905
 20
1442.24312
 30
0.0
 70
32
  0
VERTEX
  5
30F
330
30D
100
AcDbEntity
  8
Strake_5
100
AcDbVertex
100
AcDb3dPolylineVertex
 10
3170.82964
 20
1461.242876
 30
0.0
 70
32
  0
VERTEX
  5
310
330
30D
100
AcDbEntity
  8
Strake_5
100
AcDbVertex
100
AcDb3dPolylineVertex
 10
3075.484483
 20
1460.759797
 30
0.0
 70
32
  0
VERTEX
  5
311
330
30D
100
AcDbEntity
  8
Strake_5
100
AcDbVertex
100
AcDb3dPolylineVertex
 10
2979.515638
 20
1460.273558
 30
0.0
 70
32
  0
VERTEX
  5
312
330
30D
100
AcDbEntity
  8
Strake_5
100
AcDbVertex
100
AcDb3dPolylineVertex
 10
2882.278661
 20
1459.780891
 30
0.0
 70
32
  0
VERTEX
  5
313
330
30D
100
AcDbEntity
  8
Strake_5
100
AcDbVertex
100
AcDb3dPolylineVertex
 10
2783.089592
 20
1459.278329
 30
0.0
 70
32
  0
VERTEX
  5
314
330
30D
100
AcDbEntity
  8
Strake_5
100
AcDbVertex
100
AcDb3dPolylineVertex
 10
2681.209976
 20
1458.762129
 30
0.0
 70
32
  0
VERTEX
  5
315
330
30D
100
AcDbEntity
  8
Strake_5
100
AcDbVertex
100
AcDb3dPolylineVertex
 10
2575.836993
 20
1458.228224
 30
0.0
 70
32
  0
VERTEX
  5
316
330
30D
100
AcDbEntity
  8
Strake_5
100
AcDbVertex
100
AcDb3dPolylineVertex
 10
2466.099341
 20
1457.6722
 30
0.0
 70
32
  0
VERTEX
  5
317
330
30D
100
AcDbEntity
  8
Strake_5
100
AcDbVertex
100
AcDb3dPolylineVertex
 10
2351.058745
 20
1457.089309
 30
0.0
 70
32
  0
VERTEX
  5
318
330
30D
100
AcDbEntity
  8
Strake_5
100
AcDbVertex
100
AcDb3dPolylineVertex
 10
2229.981381
 20
1456.475838
 30
0.0
 70
32
  0
VERTEX
  5
319
330
30D
100
AcDbEntity
  8
Strake_5
100
AcDbVertex
100
AcDb3dPolylineVertex
 10
2103.166532
 20
1455.833307
 30
0.0
 70
32
  0
VERTEX
  5
31A
330
30D
100
AcDbEntity
  8
Strake_5
100
AcDbVertex
100
AcDb3dPolylineVertex
 10
1971.184445
 20
1455.164608
 30
0.0
 70
32
  0
VERTEX
  5
31B
330
30D
100
AcDbEntity
  8
Strake_5
100
AcDbVertex
100
AcDb3dPolylineVertex
 10
1834.606549
 20
1454.472638
 30
0.0
 70
32
  0
VERTEX
  5
31C
330
30D
100
AcDbEntity
  8
Strake_5
100
AcDbVertex
100
AcDb3dPolylineVertex
 10
1693.998492
 20
1453.760261
 30
0.0
 70
32
  0
VERTEX
  5
31D
330
30D
100
AcDbEntity
  8
Strake_5
100
AcDbVertex
100
AcDb3dPolylineVertex
 10
1549.914064
 20
1453.030278
 30
0.0
 70
32
  0
VERTEX
  5
31E
330
30D
100
AcDbEntity
  8
Strake_5
100
AcDbVertex
100
AcDb3dPolylineVertex
 10
1402.889505
 20
1452.285403
 30
0.0
 70
32
  0
VERTEX
  5
31F
330
30D
100
AcDbEntity
  8
Strake_5
100
AcDbVertex
100
AcDb3dPolylineVertex
 10
1253.437838
 20
1451.52823
 30
0.0
 70
32
  0
VERTEX
  5
320
330
30D
100
AcDbEntity
  8
Strake_5
100
AcDbVertex
100
AcDb3dPolylineVertex
 10
1101.968432
 20
1450.760826
 30
0.0
 70
32
  0
VERTEX
  5
321
330
30D
100
AcDbEntity
  8
Strake_5
100
AcDbVertex
100
AcDb3dPolylineVertex
 10
948.608159
 20
1449.983833
 30
0.0
 70
32
  0
VERTEX
  5
322
330
30D
100
AcDbEntity
  8
Strake_5
100
AcDbVertex
100
AcDb3dPolylineVertex
 10
793.485975
 20
1449.197903
 30
0.0
 70
32
  0
VERTEX
  5
323
330
30D
100
AcDbEntity
  8
Strake_5
100
AcDbVertex
100
AcDb3dPolylineVertex
 10
636.799331
 20
1448.404037
 30
0.0
 70
32
  0
VERTEX
  5
324
330
30D
100
AcDbEntity
  8
Strake_5
100
AcDbVertex
100
AcDb3dPolylineVertex
 10
478.800008
 20
1447.603515
 30
0.0
 70
32
  0
VERTEX
  5
325
330
30D
100
AcDbEntity
  8
Strake_5
100
AcDbVertex
100
AcDb3dPolylineVertex
 10
319.781408
 20
1446.797823
 30
0.0
 70
32
  0
VERTEX
  5
326
330
30D
100
AcDbEntity
  8
Strake_5
100
AcDbVertex
100
AcDb3dPolylineVertex
 10
160.067048
 20
1445.988605
 30
0.0
 70
32
  0
VERTEX
  5
327
330
30D
100
AcDbEntity
  8
Strake_5
100
AcDbVertex
100
AcDb3dPolylineVertex
 10
0.0
 20
1445.177598
 30
0.0
 70
32
  0
VERTEX
  5
328
330
30D
100
AcDbEntity
  8
Strake_5
100
AcDbVertex
100
AcDb3dPolylineVertex
 10
0.064599
 20
1432.427762
 30
0.0
 70
32
  0
VERTEX
  5
329
330
30D
100
AcDbEntity
  8
Strake_5
100
AcDbVertex
100
AcDb3dPolylineVertex
 10
0.129198
 20
1419.677926
 30
0.0
 70
32
  0
VERTEX
  5
32A
330
30D
100
AcDbEntity
  8
Strake_5
100
AcDbVertex
100
AcDb3dPolylineVertex
 10
0.193797
 20
1406.928089
 30
0.0
 70
32
  0
VERTEX
  5
32B
330
30D
100
AcDbEntity
  8
Strake_5
100
AcDbVertex
100
AcDb3dPolylineVertex
 10
0.258397
 20
1394.178253
 30
0.0
 70
32
  0
VERTEX
  5
32C
330
30D
100
AcDbEntity
  8
Strake_5
100
AcDbVertex
100
AcDb3dPolylineVertex
 10
0.322996
 20
1381.428417
 30
0.0
 70
32
  0
VERTEX
  5
32D
330
30D
100
AcDbEntity
  8
Strake_5
100
AcDbVertex
100
AcDb3dPolylineVertex
 10
0.387595
 20
1368.67858
 30
0.0
 70
32
  0
VERTEX
  5
32E
330
30D
100
AcDbEntity
  8
Strake_5
100
AcDbVertex
100
AcDb3dPolylineVertex
 10
0.452194
 20
1355.928744
 30
0.0
 70
32
  0
VERTEX
  5
32F
330
30D
100
AcDbEntity
  8
Strake_5
100
AcDbVertex
100
AcDb3dPolylineVertex
 10
0.516793
 20
1343.178908
 30
0.0
 70
32
  0
VERTEX
  5
330
330
30D
100
AcDbEntity
  8
Strake_5
100
AcDbVertex
100
AcDb3dPolylineVertex
 10
160.596402
 20
1341.466501
 30
0.0
 70
32
  0
VERTEX
  5
331
330
30D
100
AcDbEntity
  8
Strake_5
100
AcDbVertex
100
AcDb3dPolylineVertex
 10
320.323304
 20
1339.755108
 30
0.0
 70
32
  0
VERTEX
  5
332
330
30D
100
AcDbEntity
  8
Strake_5
100
AcDbVertex
100
AcDb3dPolylineVertex
 10
479.354409
 20
1338.045789
 30
0.0
 70
32
  0
VERTEX
  5
333
330
30D
100
AcDbEntity
  8
Strake_5
100
AcDbVertex
100
AcDb3dPolylineVertex
 10
637.366179
 20
1336.339704
 30
0.0
 70
32
  0
VERTEX
  5
334
330
30D
100
AcDbEntity
  8
Strake_5
100
AcDbVertex
100
AcDb3dPolylineVertex
 10
794.065194
 20
1334.638164
 30
0.0
 70
32
  0
VERTEX
  5
335
330
30D
100
AcDbEntity
  8
Strake_5
100
AcDbVertex
100
AcDb3dPolylineVertex
 10
949.199649
 20
1332.942693
 30
0.0
 70
32
  0
VERTEX
  5
336
330
30D
100
AcDbEntity
  8
Strake_5
100
AcDbVertex
100
AcDb3dPolylineVertex
 10
1102.572074
 20
1331.25509
 30
0.0
 70
32
  0
VERTEX
  5
337
330
30D
100
AcDbEntity
  8
Strake_5
100
AcDbVertex
100
AcDb3dPolylineVertex
 10
1254.053486
 20
1329.577502
 30
0.0
 70
32
  0
VERTEX
  5
338
330
30D
100
AcDbEntity
  8
Strake_5
100
AcDbVertex
100
AcDb3dPolylineVertex
 10
1403.516987
 20
1327.913665
 30
0.0
 70
32
  0
VERTEX
  5
339
330
30D
100
AcDbEntity
  8
Strake_5
100
AcDbVertex
100
AcDb3dPolylineVertex
 10
1550.553172
 20
1326.272185
 30
0.0
 70
32
  0
VERTEX
  5
33A
330
30D
100
AcDbEntity
  8
Strake_5
100
AcDbVertex
100
AcDb3dPolylineVertex
 10
1694.648984
 20
1324.662717
 30
0.0
 70
32
  0
VERTEX
  5
33B
330
30D
100
AcDbEntity
  8
Strake_5
100
AcDbVertex
100
AcDb3dPolylineVertex
 10
1835.268152
 20
1323.0948
 30
0.0
 70
32
  0
VERTEX
  5
33C
330
30D
100
AcDbEntity
  8
Strake_5
100
AcDbVertex
100
AcDb3dPolylineVertex
 10
1971.856854
 20
1321.577879
 30
0.0
 70
32
  0
VERTEX
  5
33D
330
30D
100
AcDbEntity
  8
Strake_5
100
AcDbVertex
100
AcDb3dPolylineVertex
 10
2103.849413
 20
1320.121341
 30
0.0
 70
32
  0
VERTEX
  5
33E
330
30D
100
AcDbEntity
  8
Strake_5
100
AcDbVertex
100
AcDb3dPolylineVertex
 10
2230.674373
 20
1318.734538
 30
0.0
 70
32
  0
VERTEX
  5
33F
330
30D
100
AcDbEntity
  8
Strake_5
100
AcDbVertex
100
AcDb3dPolylineVertex
 10
2351.76146
 20
1317.42683
 30
0.0
 70
32
  0
VERTEX
  5
340
330
30D
100
AcDbEntity
  8
Strake_5
100
AcDbVertex
100
AcDb3dPolylineVertex
 10
2466.811379
 20
1316.204394
 30
0.0
 70
32
  0
VERTEX
  5
341
330
30D
100
AcDbEntity
  8
Strake_5
100
AcDbVertex
100
AcDb3dPolylineVertex
 10
2576.557995
 20
1315.060442
 30
0.0
 70
32
  0
VERTEX
  5
342
330
30D
100
AcDbEntity
  8
Strake_5
100
AcDbVertex
100
AcDb3dPolylineVertex
 10
2681.939634
 20
1313.984675
 30
0.0
 70
32
  0
VERTEX
  5
343
330
30D
100
AcDbEntity
  8
Strake_5
100
AcDbVertex
100
AcDb3dPolylineVertex
 10
2783.827651
 20
1312.966453
 30
0.0
 70
32
  0
VERTEX
  5
344
330
30D
100
AcDbEntity
  8
Strake_5
100
AcDbVertex
100
AcDb3dPolylineVertex
 10
2883.024915
 20
1311.994796
 30
0.0
 70
32
  0
VERTEX
  5
345
330
30D
100
AcDbEntity
  8
Strake_5
100
AcDbVertex
100
AcDb3dPolylineVertex
 10
2980.269932
 20
1311.058394
 30
0.0
 70
32
  0
VERTEX
  5
346
330
30D
100
AcDbEntity
  8
Strake_5
100
AcDbVertex
100
AcDb3dPolylineVertex
 10
3076.246715
 20
1310.145666
 30
0.0
 70
32
  0
VERTEX
  5
347
330
30D
100
AcDbEntity
  8
Strake_5
100
AcDbVertex
100
AcDb3dPolylineVertex
 10
3171.599759
 20
1309.244827
 30
0.0
 70
32
  0
VERTEX
  5
348
330
30D
100
AcDbEntity
  8
Strake_5
100
AcDbVertex
100
AcDb3dPolylineVertex
 10
3171.503494
 20
1328.244584
 30
0.0
 70
32
  0
VERTEX
  5
349
330
30D
100
AcDbEntity
  8
Strake_5
100
AcDbVertex
100
AcDb3dPolylineVertex
 10
3171.407229
 20
1347.24434
 30
0.0
 70
32
  0
VERTEX
  5
34A
330
30D
100
AcDbEntity
  8
Strake_5
100
AcDbVertex
100
AcDb3dPolylineVertex
 10
3171.310964
 20
1366.244096
 30
0.0
 70
32
  0
VERTEX
  5
34B
330
30D
100
AcDbEntity
  8
Strake_5
100
AcDbVertex
100
AcDb3dPolylineVertex
 10
3171.2147
 20
1385.243852
 30
0.0
 70
32
  0
VERTEX
  5
34C
330
30D
100
AcDbEntity
  8
Strake_5
100
AcDbVertex
100
AcDb3dPolylineVertex
 10
3171.118435
 20
1404.243608
 30
0.0
 70
32
  0
VERTEX
  5
34D
330
30D
100
AcDbEntity
  8
Strake_5
100
AcDbVertex
100
AcDb3dPolylineVertex
 10
3171.02217
 20
1423.243364
 30
0.0
 70
32
  0
VERTEX
  5
34E
330
30D
100
AcDbEntity
  8
Strake_5
100
AcDbVertex
100
AcDb3dPolylineVertex
 10
3170.925905
 20
1442.24312
 30
0.0
 70
32
  0
SEQEND
  5
34F
330
30D
100
AcDbEntity
  8
0
  0
POLYLINE
  5
350
100
AcDbEntity
  8
Strake_5
100
AcDb3dPolyline
 66
1
 10
0.0
 20
0.0
 30
0.0
 70
8
  0
VERTEX
  5
351
330
350
100
AcDbEntity
  8
Strake_5
100
AcDbVertex
100
AcDb3dPolylineVertex
 10
3170.925905
 20
-1810.308137
 30
0.0
 70
32
  0
VERTEX
  5
352
330
350
100
AcDbEntity
  8
Strake_5
100
AcDbVertex
100
AcDb3dPolylineVertex
 10
3170.82964
 20
-1829.307893
 30
0.0
 70
32
  0
VERTEX
  5
353
330
350
100
AcDbEntity
  8
Strake_5
100
AcDbVertex
100
AcDb3dPolylineVertex
 10
3075.484483
 20
-1828.824814
 30
0.0
 70
32
  0
VERTEX
  5
354
330
350
100
AcDbEntity
  8
Strake_5
100
AcDbVertex
100
AcDb3dPolylineVertex
 10
2979.515638
 20
-1828.338574
 30
0.0
 70
32
  0
VERTEX
  5
355
330
350
100
AcDbEntity
  8
Strake_5
100
AcDbVertex
100
AcDb3dPolylineVertex
 10
2882.278661
 20
-1827.845907
 30
0.0
 70
32
  0
VERTEX
  5
356
330
350
100
AcDbEntity
  8
Strake_5
100
AcDbVertex
100
AcDb3dPolylineVertex
 10
2783.089592
 20
-1827.343345
 30
0.0
 70
32
  0
VERTEX
  5
357
330
350
100
AcDbEntity
  8
Strake_5
100
AcDbVertex
100
AcDb3dPolylineVertex
 10
2681.209976
 20
-1826.827145
 30
0.0
 70
32
  0
VERTEX
  5
358
330
350
100
AcDbEntity
  8
Strake_5
100
AcDbVertex
100
AcDb3dPolylineVertex
 10
2575.836993
 20
-1826.29324
 30
0.0
 70
32
  0
VERTEX
  5
359
330
350
100
AcDbEntity
  8
Strake_5
100
AcDbVertex
100
AcDb3dPolylineVertex
 10
2466.099341
 20
-1825.737217
 30
0.0
 70
32
  0
VERTEX
  5
35A
330
350
100
AcDbEntity
  8
Strake_5
100
AcDbVertex
100
AcDb3dPolylineVertex
 10
2351.058745
 20
-1825.154325
 30
0.0
 70
32
  0
VERTEX
  5
35B
330
350
100
AcDbEntity
  8
Strake_5
100
AcDbVertex
100
AcDb3dPolylineVertex
 10
2229.981381
 20
-1824.540854
 30
0.0
 70
32
  0
VERTEX
  5
35C
330
350
100
AcDbEntity
  8
Strake_5
100
AcDbVertex
100
AcDb3dPolylineVertex
 10
2103.166532
 20
-1823.898323
 30
0.0
 70
32
  0
VERTEX
  5
35D
330
350
100
AcDbEntity
  8
Strake_5
100
AcDbVertex
100
AcDb3dPolylineVertex
 10
1971.184445
 20
-1823.229625
 30
0.0
 70
32
  0
VERTEX
  5
35E
330
350
100
AcDbEntity
  8
Strake_5
100
AcDbVertex
100
AcDb3dPolylineVertex
 10
1834.606549
 20
-1822.537654
 30
0.0
 70
32
  0
VERTEX
  5
35F
330
350
100
AcDbEntity
  8
Strake_5
100
AcDbVertex
100
AcDb3dPolylineVertex
 10
1693.998492
 20
-1821.825277
 30
0.0
 70
32
  0
VERTEX
  5
360
330
350
100
AcDbEntity
  8
Strake_5
100
AcDbVertex
100
AcDb3dPolylineVertex
 10
1549.914064
 20
-1821.095294
 30
0.0
 70
32
  0
VERTEX
  5
361
330
350
100
AcDbEntity
  8
Strake_5
100
AcDbVertex
100
AcDb3dPolylineVertex
 10
1402.889505
 20
-1820.35042
 30
0.0
 70
32
  0
VERTEX
  5
362
330
350
100
AcDbEntity
  8
Strake_5
100
AcDbVertex
100
AcDb3dPolylineVertex
 10
1253.437838
 20
-1819.593246
 30
0.0
 70
32
  0
VERTEX
  5
363
330
350
100
AcDbEntity
  8
Strake_5
100
AcDbVertex
100
AcDb3dPolylineVertex
 10
1101.968432
 20
-1818.825842
 30
0.0
 70
32
  0
VERTEX
  5
364
330
350
100
AcDbEntity
  8
Strake_5
100
AcDbVertex
100
AcDb3dPolylineVertex
 10
948.608159
 20
-1818.048849
 30
0.0
 70
32
  0
VERTEX
  5
365
330
350
100
AcDbEntity
  8
Strake_5
100
AcDbVertex
100
AcDb3dPolylineVertex
 10
793.485975
 20
-1817.262919
 30
0.0
 70
32
  0
VERTEX
  5
366
330
350
100
AcDbEntity
  8
Strake_5
100
AcDbVertex
100
AcDb3dPolylineVertex
 10
636.799331
 20
-1816.469054
 30
0.0
 70
32
  0
VERTEX
  5
367
330
350
100
AcDbEntity
  8
Strake_5
100
AcDbVertex
100
AcDb3dPolylineVertex
 10
478.800008
 20
-1815.668531
 30
0.0
 70
32
  0
VERTEX
  5
368
330
350
100
AcDbEntity
  8
Strake_5
100
AcDbVertex
100
AcDb3dPolylineVertex
 10
319.781408
 20
-1814.862839
 30
0.0
 70
32
  0
VERTEX
  5
369
330
350
100
AcDbEntity
  8
Strake_5
100
AcDbVertex
100
AcDb3dPolylineVertex
 10
160.067048
 20
-1814.053621
 30
0.0
 70
32
  0
VERTEX
  5
36A
330
350
100
AcDbEntity
  8
Strake_5
100
AcDbVertex
100
AcDb3dPolylineVertex
 10
0.0
 20
-1813.242615
 30
0.0
 70
32
  0
VERTEX
  5
36B
330
350
100
AcDbEntity
  8
Strake_5
100
AcDbVertex
100
AcDb3dPolylineVertex
 10
0.064599
 20
-1800.492778
 30
0.0
 70
32
  0
VERTEX
  5
36C
330
350
100
AcDbEntity
  8
Strake_5
100
AcDbVertex
100
AcDb3dPolylineVertex
 10
0.129198
 20
-1787.742942
 30
0.0
 70
32
  0
VERTEX
  5
36D
330
350
100
AcDbEntity
  8
Strake_5
100
AcDbVertex
100
AcDb3dPolylineVertex
 10
0.193797
 20
-1774.993106
 30
0.0
 70
32
  0
VERTEX
  5
36E
330
350
100
AcDbEntity
  8
Strake_5
100
AcDbVertex
100
AcDb3dPolylineVertex
 10
0.258397
 20
-1762.243269
 30
0.0
 70
32
  0
VERTEX
  5
36F
330
350
100
AcDbEntity
  8
Strake_5
100
AcDbVertex
100
AcDb3dPolylineVertex
 10
0.322996
 20
-1749.493433
 30
0.0
 70
32
  0
VERTEX
  5
370
330
350
100
AcDbEntity
  8
Strake_5
100
AcDbVertex
100
AcDb3dPolylineVertex
 10
0.387595
 20
-1736.743597
 30
0.0
 70
32
  0
VERTEX
  5
371
330
350
100
AcDbEntity
  8
Strake_5
100
AcDbVertex
100
AcDb3dPolylineVertex
 10
0.452194
 20
-1723.99376
 30
0.0
 70
32
  0
VERTEX
  5
372
330
350
100
AcDbEntity
  8
Strake_5
100
AcDbVertex
100
AcDb3dPolylineVertex
 10
0.516793
 20
-1711.243924
 30
0.0
 70
32
  0
VERTEX
  5
373
330
350
100
AcDbEntity
  8
Strake_5
100
AcDbVertex
100
AcDb3dPolylineVertex
 10
160.596402
 20
-1709.531517
 30
0.0
 70
32
  0
VERTEX
  5
374
330
350
100
AcDbEntity
  8
Strake_5
100
AcDbVertex
100
AcDb3dPolylineVertex
 10
320.323304
 20
-1707.820124
 30
0.0
 70
32
  0
VERTEX
  5
375
330
350
100
AcDbEntity
  8
Strake_5
100
AcDbVertex
100
AcDb3dPolylineVertex
 10
479.354409
 20
-1706.110805
 30
0.0
 70
32
  0
VERTEX
  5
376
330
350
100
AcDbEntity
  8
Strake_5
100
AcDbVertex
100
AcDb3dPolylineVertex
 10
637.366179
 20
-1704.40472
 30
0.0
 70
32
  0
VERTEX
  5
377
330
350
100
AcDbEntity
  8
Strake_5
100
AcDbVertex
100
AcDb3dPolylineVertex
 10
794.065194
 20
-1702.70318
 30
0.0
 70
32
  0
VERTEX
  5
378
330
350
100
AcDbEntity
  8
Strake_5
100
AcDbVertex
100
AcDb3dPolylineVertex
 10
949.199649
 20
-1701.007709
 30
0.0
 70
32
  0
VERTEX
  5
379
330
350
100
AcDbEntity
  8
Strake_5
100
AcDbVertex
100
AcDb3dPolylineVertex
 10
1102.572074
 20
-1699.320106
 30
0.0
 70
32
  0
VERTEX
  5
37A
330
350
100
AcDbEntity
  8
Strake_5
100
AcDbVertex
100
AcDb3dPolylineVertex
 10
1254.053486
 20
-1697.642518
 30
0.0
 70
32
  0
VERTEX
  5
37B
330
350
100
AcDbEntity
  8
Strake_5
100
AcDbVertex
100
AcDb3dPolylineVertex
 10
1403.516987
 20
-1695.978681
 30
0.0
 70
32
  0
VERTEX
  5
37C
330
350
100
AcDbEntity
  8
Strake_5
100
AcDbVertex
100
AcDb3dPolylineVertex
 10
1550.553172
 20
-1694.337201
 30
0.0
 70
32
  0
VERTEX
  5
37D
330
350
100
AcDbEntity
  8
Strake_5
100
AcDbVertex
100
AcDb3dPolylineVertex
 10
1694.648984
 20
-1692.727734
 30
0.0
 70
32
  0
VERTEX
  5
37E
330
350
100
AcDbEntity
  8
Strake_5
100
AcDbVertex
100
AcDb3dPolylineVertex
 10
1835.268152
 20
-1691.159816
 30
0.0
 70
32
  0
VERTEX
  5
37F
330
350
100
AcDbEntity
  8
Strake_5
100
AcDbVertex
100
AcDb3dPolylineVertex
 10
1971.856854
 20
-1689.642896
 30
0.0
 70
32
  0
VERTEX
  5
380
330
350
100
AcDbEntity
  8
Strake_5
100
AcDbVertex
100
AcDb3dPolylineVertex
 10
2103.849413
 20
-1688.186357
 30
0.0
 70
32
  0
VERTEX
  5
381
330
350
100
AcDbEntity
  8
Strake_5
100
AcDbVertex
100
AcDb3dPolylineVertex
 10
2230.674373
 20
-1686.799555
 30
0.0
 70
32
  0
VERTEX
  5
382
330
350
100
AcDbEntity
  8
Strake_5
100
AcDbVertex
100
AcDb3dPolylineVertex
 10
2351.76146
 20
-1685.491846
 30
0.0
 70
32
  0
VERTEX
  5
383
330
350
100
AcDbEntity
  8
Strake_5
100
AcDbVertex
100
AcDb3dPolylineVertex
 10
2466.811379
 20
-1684.26941
 30
0.0
 70
32
  0
VERTEX
  5
384
330
350
100
AcDbEntity
  8
Strake_5
100
AcDbVertex
100
AcDb3dPolylineVertex
 10
2576.557995
 20
-1683.125458
 30
0.0
 70
32
  0
VERTEX
  5
385
330
350
100
AcDbEntity
  8
Strake_5
100
AcDbVertex
100
AcDb3dPolylineVertex
 10
2681.939634
 20
-1682.049691
 30
0.0
 70
32
  0
VERTEX
  5
386
330
350
100
AcDbEntity
  8
Strake_5
100
AcDbVertex
100
AcDb3dPolylineVertex
 10
2783.827651
 20
-1681.03147
 30
0.0
 70
32
  0
VERTEX
  5
387
330
350
100
AcDbEntity
  8
Strake_5
100
AcDbVertex
100
AcDb3dPolylineVertex
 10
2883.024915
 20
-1680.059812
 30
0.0
 70
32
  0
VERTEX
  5
388
330
350
100
AcDbEntity
  8
Strake_5
100
AcDbVertex
100
AcDb3dPolylineVertex
 10
2980.269932
 20
-1679.123411
 30
0.0
 70
32
  0
VERTEX
  5
389
330
350
100
AcDbEntity
  8
Strake_5
100
AcDbVertex
100
AcDb3dPolylineVertex
 10
3076.246715
 20
-1678.210682
 30
0.0
 70
32
  0
VERTEX
  5
38A
330
350
100
AcDbEntity
  8
Strake_5
100
AcDbVertex
100
AcDb3dPolylineVertex
 10
3171.599759
 20
-1677.309844
 30
0.0
 70
32
  0
VERTEX
  5
38B
330
350
100
AcDbEntity
  8
Strake_5
100
AcDbVertex
100
AcDb3dPolylineVertex
 10
3171.503494
 20
-1696.3096
 30
0.0
 70
32
  0
VERTEX
  5
38C
330
350
100
AcDbEntity
  8
Strake_5
100
AcDbVertex
100
AcDb3dPolylineVertex
 10
3171.407229
 20
-1715.309356
 30
0.0
 70
32
  0
VERTEX
  5
38D
330
350
100
AcDbEntity
  8
Strake_5
100
AcDbVertex
100
AcDb3dPolylineVertex
 10
3171.310964
 20
-1734.309112
 30
0.0
 70
32
  0
VERTEX
  5
38E
330
350
100
AcDbEntity
  8
Strake_5
100
AcDbVertex
100
AcDb3dPolylineVertex
 10
3171.2147
 20
-1753.308868
 30
0.0
 70
32
  0
VERTEX
  5
38F
330
350
100
AcDbEntity
  8
Strake_5
100
AcDbVertex
100
AcDb3dPolylineVertex
 10
3171.118435
 20
-1772.308624
 30
0.0
 70
32
  0
VERTEX
  5
390
330
350
100
AcDbEntity
  8
Strake_5
100
AcDbVertex
100
AcDb3dPolylineVertex
 10
3171.02217
 20
-1791.30838
 30
0.0
 70
32
  0
VERTEX
  5
391
330
350
100
AcDbEntity
  8
Strake_5
100
AcDbVertex
100
AcDb3dPolylineVertex
 10
3170.925905
 20
-1810.308137
 30
0.0
 70
32
  0
SEQEND
  5
392
330
350
100
AcDbEntity
  8
0
  0
POLYLINE
  5
394
100
AcDbEntity
  8
Close_hull
100
AcDb3dPolyline
 66
1
 10
0.0
 20
0.0
 30
0.0
 70
8
  0
VERTEX
  5
395
330
394
100
AcDbEntity
  8
Close_hull
100
AcDbVertex
100
AcDb3dPolylineVertex
 10
1449.999682
 20
1498.760651
 30
0.0
 70
32
  0
VERTEX
  5
396
330
394
100
AcDbEntity
  8
Close_hull
100
AcDbVertex
100
AcDb3dPolylineVertex
 10
1359.374702
 20
1498.820662
 30
0.0
 70
32
  0
VERTEX
  5
397
330
394
100
AcDbEntity
  8
Close_hull
100
AcDbVertex
100
AcDb3dPolylineVertex
 10
1268.749722
 20
1498.880673
 30
0.0
 70
32
  0
VERTEX
  5
398
330
394
100
AcDbEntity
  8
Close_hull
100
AcDbVertex
100
AcDb3dPolylineVertex
 10
1178.124742
 20
1498.940684
 30
0.0
 70
32
  0
VERTEX
  5
399
330
394
100
AcDbEntity
  8
Close_hull
100
AcDbVertex
100
AcDb3dPolylineVertex
 10
1087.499762
 20
1499.000695
 30
0.0
 70
32
  0
VERTEX
  5
39A
330
394
100
AcDbEntity
  8
Close_hull
100
AcDbVertex
100
AcDb3dPolylineVertex
 10
996.874781
 20
1499.060706
 30
0.0
 70
32
  0
VERTEX
  5
39B
330
394
100
AcDbEntity
  8
Close_hull
100
AcDbVertex
100
AcDb3dPolylineVertex
 10
906.249801
 20
1499.120717
 30
0.0
 70
32
  0
VERTEX
  5
39C
330
394
100
AcDbEntity
  8
Close_hull
100
AcDbVertex
100
AcDb3dPolylineVertex
 10
815.624821
 20
1499.180728
 30
0.0
 70
32
  0
VERTEX
  5
39D
330
394
100
AcDbEntity
  8
Close_hull
100
AcDbVertex
100
AcDb3dPolylineVertex
 10
724.999841
 20
1499.240739
 30
0.0
 70
32
  0
VERTEX
  5
39E
330
394
100
AcDbEntity
  8
Close_hull
100
AcDbVertex
100
AcDb3dPolylineVertex
 10
725.008284
 20
1511.990737
 30
0.0
 70
32
  0
VERTEX
  5
39F
330
394
100
AcDbEntity
  8
Close_hull
100
AcDbVertex
100
AcDb3dPolylineVertex
 10
725.016727
 20
1524.740734
 30
0.0
 70
32
  0
VERTEX
  5
3A0
330
394
100
AcDbEntity
  8
Close_hull
100
AcDbVertex
100
AcDb3dPolylineVertex
 10
725.02517
 20
1537.490731
 30
0.0
 70
32
  0
VERTEX
  5
3A1
330
394
100
AcDbEntity
  8
Close_hull
100
AcDbVertex
100
AcDb3dPolylineVertex
 10
725.033613
 20
1550.240728
 30
0.0
 70
32
  0
VERTEX
  5
3A2
330
394
100
AcDbEntity
  8
Close_hull
100
AcDbVertex
100
AcDb3dPolylineVertex
 10
725.042056
 20
1562.990725
 30
0.0
 70
32
  0
VERTEX
  5
3A3
330
394
100
AcDbEntity
  8
Close_hull
100
AcDbVertex
100
AcDb3dPolylineVertex
 10
725.050499
 20
1575.740723
 30
0.0
 70
32
  0
VERTEX
  5
3A4
330
394
100
AcDbEntity
  8
Close_hull
100
AcDbVertex
100
AcDb3dPolylineVertex
 10
725.058942
 20
1588.49072
 30
0.0
 70
32
  0
VERTEX
  5
3A5
330
394
100
AcDbEntity
  8
Close_hull
100
AcDbVertex
100
AcDb3dPolylineVertex
 10
725.067385
 20
1601.240717
 30
0.0
 70
32
  0
VERTEX
  5
3A6
330
394
100
AcDbEntity
  8
Close_hull
100
AcDbVertex
100
AcDb3dPolylineVertex
 10
725.071523
 20
1607.490716
 30
0.0
 70
32
  0
VERTEX
  5
3A7
330
394
100
AcDbEntity
  8
Close_hull
100
AcDbVertex
100
AcDb3dPolylineVertex
 10
725.075662
 20
1613.740714
 30
0.0
 70
32
  0
VERTEX
  5
3A8
330
394
100
AcDbEntity
  8
Close_hull
100
AcDbVertex
100
AcDb3dPolylineVertex
 10
725.079801
 20
1619.990713
 30
0.0
 70
32
  0
VERTEX
  5
3A9
330
394
100
AcDbEntity
  8
Close_hull
100
AcDbVertex
100
AcDb3dPolylineVertex
 10
725.083939
 20
1626.240711
 30
0.0
 70
32
  0
VERTEX
  5
3AA
330
394
100
AcDbEntity
  8
Close_hull
100
AcDbVertex
100
AcDb3dPolylineVertex
 10
725.088078
 20
1632.49071
 30
0.0
 70
32
  0
VERTEX
  5
3AB
330
394
100
AcDbEntity
  8
Close_hull
100
AcDbVertex
100
AcDb3dPolylineVertex
 10
725.092217
 20
1638.740709
 30
0.0
 70
32
  0
VERTEX
  5
3AC
330
394
100
AcDbEntity
  8
Close_hull
100
AcDbVertex
100
AcDb3dPolylineVertex
 10
725.096355
 20
1644.990707
 30
0.0
 70
32
  0
VERTEX
  5
3AD
330
394
100
AcDbEntity
  8
Close_hull
100
AcDbVertex
100
AcDb3dPolylineVertex
 10
725.100494
 20
1651.240706
 30
0.0
 70
32
  0
VERTEX
  5
3AE
330
394
100
AcDbEntity
  8
Close_hull
100
AcDbVertex
100
AcDb3dPolylineVertex
 10
725.113159
 20
1670.365702
 30
0.0
 70
32
  0
VERTEX
  5
3AF
330
394
100
AcDbEntity
  8
Close_hull
100
AcDbVertex
100
AcDb3dPolylineVertex
 10
725.125823
 20
1689.490698
 30
0.0
 70
32
  0
VERTEX
  5
3B0
330
394
100
AcDbEntity
  8
Close_hull
100
AcDbVertex
100
AcDb3dPolylineVertex
 10
725.138487
 20
1708.615693
 30
0.0
 70
32
  0
VERTEX
  5
3B1
330
394
100
AcDbEntity
  8
Close_hull
100
AcDbVertex
100
AcDb3dPolylineVertex
 10
725.151152
 20
1727.740689
 30
0.0
 70
32
  0
VERTEX
  5
3B2
330
394
100
AcDbEntity
  8
Close_hull
100
AcDbVertex
100
AcDb3dPolylineVertex
 10
725.163816
 20
1746.865685
 30
0.0
 70
32
  0
VERTEX
  5
3B3
330
394
100
AcDbEntity
  8
Close_hull
100
AcDbVertex
100
AcDb3dPolylineVertex
 10
725.176481
 20
1765.990681
 30
0.0
 70
32
  0
VERTEX
  5
3B4
330
394
100
AcDbEntity
  8
Close_hull
100
AcDbVertex
100
AcDb3dPolylineVertex
 10
725.189145
 20
1785.115677
 30
0.0
 70
32
  0
VERTEX
  5
3B5
330
394
100
AcDbEntity
  8
Close_hull
100
AcDbVertex
100
AcDb3dPolylineVertex
 10
725.201809
 20
1804.240672
 30
0.0
 70
32
  0
VERTEX
  5
3B6
330
394
100
AcDbEntity
  8
Close_hull
100
AcDbVertex
100
AcDb3dPolylineVertex
 10
725.208514
 20
1814.36567
 30
0.0
 70
32
  0
VERTEX
  5
3B7
330
394
100
AcDbEntity
  8
Close_hull
100
AcDbVertex
100
AcDb3dPolylineVertex
 10
725.215219
 20
1824.490668
 30
0.0
 70
32
  0
VERTEX
  5
3B8
330
394
100
AcDbEntity
  8
Close_hull
100
AcDbVertex
100
AcDb3dPolylineVertex
 10
725.221923
 20
1834.615666
 30
0.0
 70
32
  0
VERTEX
  5
3B9
330
394
100
AcDbEntity
  8
Close_hull
100
AcDbVertex
100
AcDb3dPolylineVertex
 10
725.228628
 20
1844.740664
 30
0.0
 70
32
  0
VERTEX
  5
3BA
330
394
100
AcDbEntity
  8
Close_hull
100
AcDbVertex
100
AcDb3dPolylineVertex
 10
725.235333
 20
1854.865661
 30
0.0
 70
32
  0
VERTEX
  5
3BB
330
394
100
AcDbEntity
  8
Close_hull
100
AcDbVertex
100
AcDb3dPolylineVertex
 10
725.242037
 20
1864.990659
 30
0.0
 70
32
  0
VERTEX
  5
3BC
330
394
100
AcDbEntity
  8
Close_hull
100
AcDbVertex
100
AcDb3dPolylineVertex
 10
725.248742
 20
1875.115657
 30
0.0
 70
32
  0
VERTEX
  5
3BD
330
394
100
AcDbEntity
  8
Close_hull
100
AcDbVertex
100
AcDb3dPolylineVertex
 10
725.255447
 20
1885.240655
 30
0.0
 70
32
  0
VERTEX
  5
3BE
330
394
100
AcDbEntity
  8
Close_hull
100
AcDbVertex
100
AcDb3dPolylineVertex
 10
742.755443
 20
1885.229066
 30
0.0
 70
32
  0
VERTEX
  5
3BF
330
394
100
AcDbEntity
  8
Close_hull
100
AcDbVertex
100
AcDb3dPolylineVertex
 10
760.255439
 20
1885.217478
 30
0.0
 70
32
  0
VERTEX
  5
3C0
330
394
100
AcDbEntity
  8
Close_hull
100
AcDbVertex
100
AcDb3dPolylineVertex
 10
777.755435
 20
1885.20589
 30
0.0
 70
32
  0
VERTEX
  5
3C1
330
394
100
AcDbEntity
  8
Close_hull
100
AcDbVertex
100
AcDb3dPolylineVertex
 10
795.255431
 20
1885.194301
 30
0.0
 70
32
  0
VERTEX
  5
3C2
330
394
100
AcDbEntity
  8
Close_hull
100
AcDbVertex
100
AcDb3dPolylineVertex
 10
812.755428
 20
1885.182713
 30
0.0
 70
32
  0
VERTEX
  5
3C3
330
394
100
AcDbEntity
  8
Close_hull
100
AcDbVertex
100
AcDb3dPolylineVertex
 10
830.255424
 20
1885.171125
 30
0.0
 70
32
  0
VERTEX
  5
3C4
330
394
100
AcDbEntity
  8
Close_hull
100
AcDbVertex
100
AcDb3dPolylineVertex
 10
847.75542
 20
1885.159536
 30
0.0
 70
32
  0
VERTEX
  5
3C5
330
394
100
AcDbEntity
  8
Close_hull
100
AcDbVertex
100
AcDb3dPolylineVertex
 10
865.255416
 20
1885.147948
 30
0.0
 70
32
  0
VERTEX
  5
3C6
330
394
100
AcDbEntity
  8
Close_hull
100
AcDbVertex
100
AcDb3dPolylineVertex
 10
875.248709
 20
1875.016328
 30
0.0
 70
32
  0
VERTEX
  5
3C7
330
394
100
AcDbEntity
  8
Close_hull
100
AcDbVertex
100
AcDb3dPolylineVertex
 10
885.242002
 20
1864.884709
 30
0.0
 70
32
  0
VERTEX
  5
3C8
330
394
100
AcDbEntity
  8
Close_hull
100
AcDbVertex
100
AcDb3dPolylineVertex
 10
895.235296
 20
1854.753089
 30
0.0
 70
32
  0
VERTEX
  5
3C9
330
394
100
AcDbEntity
  8
Close_hull
100
AcDbVertex
100
AcDb3dPolylineVertex
 10
905.228589
 20
1844.621469
 30
0.0
 70
32
  0
VERTEX
  5
3CA
330
394
100
AcDbEntity
  8
Close_hull
100
AcDbVertex
100
AcDb3dPolylineVertex
 10
915.221882
 20
1834.489849
 30
0.0
 70
32
  0
VERTEX
  5
3CB
330
394
100
AcDbEntity
  8
Close_hull
100
AcDbVertex
100
AcDb3dPolylineVertex
 10
925.215175
 20
1824.35823
 30
0.0
 70
32
  0
VERTEX
  5
3CC
330
394
100
AcDbEntity
  8
Close_hull
100
AcDbVertex
100
AcDb3dPolylineVertex
 10
935.208468
 20
1814.22661
 30
0.0
 70
32
  0
VERTEX
  5
3CD
330
394
100
AcDbEntity
  8
Close_hull
100
AcDbVertex
100
AcDb3dPolylineVertex
 10
945.201761
 20
1804.09499
 30
0.0
 70
32
  0
VERTEX
  5
3CE
330
394
100
AcDbEntity
  8
Close_hull
100
AcDbVertex
100
AcDb3dPolylineVertex
 10
948.314096
 20
1784.967925
 30
0.0
 70
32
  0
VERTEX
  5
3CF
330
394
100
AcDbEntity
  8
Close_hull
100
AcDbVertex
100
AcDb3dPolylineVertex
 10
951.426431
 20
1765.84086
 30
0.0
 70
32
  0
VERTEX
  5
3D0
330
394
100
AcDbEntity
  8
Close_hull
100
AcDbVertex
100
AcDb3dPolylineVertex
 10
954.538766
 20
1746.713795
 30
0.0
 70
32
  0
VERTEX
  5
3D1
330
394
100
AcDbEntity
  8
Close_hull
100
AcDbVertex
100
AcDb3dPolylineVertex
 10
957.651101
 20
1727.58673
 30
0.0
 70
32
  0
VERTEX
  5
3D2
330
394
100
AcDbEntity
  8
Close_hull
100
AcDbVertex
100
AcDb3dPolylineVertex
 10
960.763436
 20
1708.459665
 30
0.0
 70
32
  0
VERTEX
  5
3D3
330
394
100
AcDbEntity
  8
Close_hull
100
AcDbVertex
100
AcDb3dPolylineVertex
 10
963.875771
 20
1689.332599
 30
0.0
 70
32
  0
VERTEX
  5
3D4
330
394
100
AcDbEntity
  8
Close_hull
100
AcDbVertex
100
AcDb3dPolylineVertex
 10
966.988105
 20
1670.205534
 30
0.0
 70
32
  0
VERTEX
  5
3D5
330
394
100
AcDbEntity
  8
Close_hull
100
AcDbVertex
100
AcDb3dPolylineVertex
 10
970.10044
 20
1651.078469
 30
0.0
 70
32
  0
VERTEX
  5
3D6
330
394
100
AcDbEntity
  8
Close_hull
100
AcDbVertex
100
AcDb3dPolylineVertex
 10
1030.096289
 20
1644.788739
 30
0.0
 70
32
  0
VERTEX
  5
3D7
330
394
100
AcDbEntity
  8
Close_hull
100
AcDbVertex
100
AcDb3dPolylineVertex
 10
1090.092137
 20
1638.499009
 30
0.0
 70
32
  0
VERTEX
  5
3D8
330
394
100
AcDbEntity
  8
Close_hull
100
AcDbVertex
100
AcDb3dPolylineVertex
 10
1150.087985
 20
1632.209279
 30
0.0
 70
32
  0
VERTEX
  5
3D9
330
394
100
AcDbEntity
  8
Close_hull
100
AcDbVertex
100
AcDb3dPolylineVertex
 10
1210.083833
 20
1625.919549
 30
0.0
 70
32
  0
VERTEX
  5
3DA
330
394
100
AcDbEntity
  8
Close_hull
100
AcDbVertex
100
AcDb3dPolylineVertex
 10
1270.079681
 20
1619.629819
 30
0.0
 70
32
  0
VERTEX
  5
3DB
330
394
100
AcDbEntity
  8
Close_hull
100
AcDbVertex
100
AcDb3dPolylineVertex
 10
1330.075529
 20
1613.340089
 30
0.0
 70
32
  0
VERTEX
  5
3DC
330
394
100
AcDbEntity
  8
Close_hull
100
AcDbVertex
100
AcDb3dPolylineVertex
 10
1390.071377
 20
1607.050358
 30
0.0
 70
32
  0
VERTEX
  5
3DD
330
394
100
AcDbEntity
  8
Close_hull
100
AcDbVertex
100
AcDb3dPolylineVertex
 10
1450.067226
 20
1600.760628
 30
0.0
 70
32
  0
VERTEX
  5
3DE
330
394
100
AcDbEntity
  8
Close_hull
100
AcDbVertex
100
AcDb3dPolylineVertex
 10
1450.058783
 20
1588.010631
 30
0.0
 70
32
  0
VERTEX
  5
3DF
330
394
100
AcDbEntity
  8
Close_hull
100
AcDbVertex
100
AcDb3dPolylineVertex
 10
1450.05034
 20
1575.260634
 30
0.0
 70
32
  0
VERTEX
  5
3E0
330
394
100
AcDbEntity
  8
Close_hull
100
AcDbVertex
100
AcDb3dPolylineVertex
 10
1450.041897
 20
1562.510637
 30
0.0
 70
32
  0
VERTEX
  5
3E1
330
394
100
AcDbEntity
  8
Close_hull
100
AcDbVertex
100
AcDb3dPolylineVertex
 10
1450.033454
 20
1549.76064
 30
0.0
 70
32
  0
VERTEX
  5
3E2
330
394
100
AcDbEntity
  8
Close_hull
100
AcDbVertex
100
AcDb3dPolylineVertex
 10
1450.025011
 20
1537.010642
 30
0.0
 70
32
  0
VERTEX
  5
3E3
330
394
100
AcDbEntity
  8
Close_hull
100
AcDbVertex
100
AcDb3dPolylineVertex
 10
1450.016568
 20
1524.260645
 30
0.0
 70
32
  0
VERTEX
  5
3E4
330
394
100
AcDbEntity
  8
Close_hull
100
AcDbVertex
100
AcDb3dPolylineVertex
 10
1450.008125
 20
1511.510648
 30
0.0
 70
32
  0
VERTEX
  5
3E5
330
394
100
AcDbEntity
  8
Close_hull
100
AcDbVertex
100
AcDb3dPolylineVertex
 10
1449.999682
 20
1498.760651
 30
0.0
 70
32
  0
SEQEND
  5
3E6
330
394
100
AcDbEntity
  8
0
  0
POLYLINE
  5
3E7
100
AcDbEntity
  8
Close_hull
100
AcDb3dPolyline
 66
1
 10
0.0
 20
0.0
 30
0.0
 70
8
  0
VERTEX
  5
3E8
330
3E7
100
AcDbEntity
  8
Close_hull
100
AcDbVertex
100
AcDb3dPolylineVertex
 10
0.0
 20
1499.720828
 30
0.0
 70
32
  0
VERTEX
  5
3E9
330
3E7
100
AcDbEntity
  8
Close_hull
100
AcDbVertex
100
AcDb3dPolylineVertex
 10
90.62498
 20
1499.660817
 30
0.0
 70
32
  0
VERTEX
  5
3EA
330
3E7
100
AcDbEntity
  8
Close_hull
100
AcDbVertex
100
AcDb3dPolylineVertex
 10
181.24996
 20
1499.600806
 30
0.0
 70
32
  0
VERTEX
  5
3EB
330
3E7
100
AcDbEntity
  8
Close_hull
100
AcDbVertex
100
AcDb3dPolylineVertex
 10
271.87494
 20
1499.540795
 30
0.0
 70
32
  0
VERTEX
  5
3EC
330
3E7
100
AcDbEntity
  8
Close_hull
100
AcDbVertex
100
AcDb3dPolylineVertex
 10
362.499921
 20
1499.480784
 30
0.0
 70
32
  0
VERTEX
  5
3ED
330
3E7
100
AcDbEntity
  8
Close_hull
100
AcDbVertex
100
AcDb3dPolylineVertex
 10
453.124901
 20
1499.420773
 30
0.0
 70
32
  0
VERTEX
  5
3EE
330
3E7
100
AcDbEntity
  8
Close_hull
100
AcDbVertex
100
AcDb3dPolylineVertex
 10
543.749881
 20
1499.360761
 30
0.0
 70
32
  0
VERTEX
  5
3EF
330
3E7
100
AcDbEntity
  8
Close_hull
100
AcDbVertex
100
AcDb3dPolylineVertex
 10
634.374861
 20
1499.30075
 30
0.0
 70
32
  0
VERTEX
  5
3F0
330
3E7
100
AcDbEntity
  8
Close_hull
100
AcDbVertex
100
AcDb3dPolylineVertex
 10
724.999841
 20
1499.240739
 30
0.0
 70
32
  0
VERTEX
  5
3F1
330
3E7
100
AcDbEntity
  8
Close_hull
100
AcDbVertex
100
AcDb3dPolylineVertex
 10
725.008284
 20
1511.990737
 30
0.0
 70
32
  0
VERTEX
  5
3F2
330
3E7
100
AcDbEntity
  8
Close_hull
100
AcDbVertex
100
AcDb3dPolylineVertex
 10
725.016727
 20
1524.740734
 30
0.0
 70
32
  0
VERTEX
  5
3F3
330
3E7
100
AcDbEntity
  8
Close_hull
100
AcDbVertex
100
AcDb3dPolylineVertex
 10
725.02517
 20
1537.490731
 30
0.0
 70
32
  0
VERTEX
  5
3F4
330
3E7
100
AcDbEntity
  8
Close_hull
100
AcDbVertex
100
AcDb3dPolylineVertex
 10
725.033613
 20
1550.240728
 30
0.0
 70
32
  0
VERTEX
  5
3F5
330
3E7
100
AcDbEntity
  8
Close_hull
100
AcDbVertex
100
AcDb3dPolylineVertex
 10
725.042056
 20
1562.990725
 30
0.0
 70
32
  0
VERTEX
  5
3F6
330
3E7
100
AcDbEntity
  8
Close_hull
100
AcDbVertex
100
AcDb3dPolylineVertex
 10
725.050499
 20
1575.740723
 30
0.0
 70
32
  0
VERTEX
  5
3F7
330
3E7
100
AcDbEntity
  8
Close_hull
100
AcDbVertex
100
AcDb3dPolylineVertex
 10
725.058942
 20
1588.49072
 30
0.0
 70
32
  0
VERTEX
  5
3F8
330
3E7
100
AcDbEntity
  8
Close_hull
100
AcDbVertex
100
AcDb3dPolylineVertex
 10
725.067385
 20
1601.240717
 30
0.0
 70
32
  0
VERTEX
  5
3F9
330
3E7
100
AcDbEntity
  8
Close_hull
100
AcDbVertex
100
AcDb3dPolylineVertex
 10
725.071523
 20
1607.490716
 30
0.0
 70
32
  0
VERTEX
  5
3FA
330
3E7
100
AcDbEntity
  8
Close_hull
100
AcDbVertex
100
AcDb3dPolylineVertex
 10
725.075662
 20
1613.740714
 30
0.0
 70
32
  0
VERTEX
  5
3FB
330
3E7
100
AcDbEntity
  8
Close_hull
100
AcDbVertex
100
AcDb3dPolylineVertex
 10
725.079801
 20
1619.990713
 30
0.0
 70
32
  0
VERTEX
  5
3FC
330
3E7
100
AcDbEntity
  8
Close_hull
100
AcDbVertex
100
AcDb3dPolylineVertex
 10
725.083939
 20
1626.240711
 30
0.0
 70
32
  0
VERTEX
  5
3FD
330
3E7
100
AcDbEntity
  8
Close_hull
100
AcDbVertex
100
AcDb3dPolylineVertex
 10
725.088078
 20
1632.49071
 30
0.0
 70
32
  0
VERTEX
  5
3FE
330
3E7
100
AcDbEntity
  8
Close_hull
100
AcDbVertex
100
AcDb3dPolylineVertex
 10
725.092217
 20
1638.740709
 30
0.0
 70
32
  0
VERTEX
  5
3FF
330
3E7
100
AcDbEntity
  8
Close_hull
100
AcDbVertex
100
AcDb3dPolylineVertex
 10
725.096355
 20
1644.990707
 30
0.0
 70
32
  0
VERTEX
  5
400
330
3E7
100
AcDbEntity
  8
Close_hull
100
AcDbVertex
100
AcDb3dPolylineVertex
 10
725.100494
 20
1651.240706
 30
0.0
 70
32
  0
VERTEX
  5
401
330
3E7
100
AcDbEntity
  8
Close_hull
100
AcDbVertex
100
AcDb3dPolylineVertex
 10
725.113159
 20
1670.365702
 30
0.0
 70
32
  0
VERTEX
  5
402
330
3E7
100
AcDbEntity
  8
Close_hull
100
AcDbVertex
100
AcDb3dPolylineVertex
 10
725.125823
 20
1689.490698
 30
0.0
 70
32
  0
VERTEX
  5
403
330
3E7
100
AcDbEntity
  8
Close_hull
100
AcDbVertex
100
AcDb3dPolylineVertex
 10
725.138487
 20
1708.615693
 30
0.0
 70
32
  0
VERTEX
  5
404
330
3E7
100
AcDbEntity
  8
Close_hull
100
AcDbVertex
100
AcDb3dPolylineVertex
 10
725.151152
 20
1727.740689
 30
0.0
 70
32
  0
VERTEX
  5
405
330
3E7
100
AcDbEntity
  8
Close_hull
100
AcDbVertex
100
AcDb3dPolylineVertex
 10
725.163816
 20
1746.865685
 30
0.0
 70
32
  0
VERTEX
  5
406
330
3E7
100
AcDbEntity
  8
Close_hull
100
AcDbVertex
100
AcDb3dPolylineVertex
 10
725.176481
 20
1765.990681
 30
0.0
 70
32
  0
VERTEX
  5
407
330
3E7
100
AcDbEntity
  8
Close_hull
100
AcDbVertex
100
AcDb3dPolylineVertex
 10
725.189145
 20
1785.115677
 30
0.0
 70
32
  0
VERTEX
  5
408
330
3E7
100
AcDbEntity
  8
Close_hull
100
AcDbVertex
100
AcDb3dPolylineVertex
 10
725.201809
 20
1804.240672
 30
0.0
 70
32
  0
VERTEX
  5
409
330
3E7
100
AcDbEntity
  8
Close_hull
100
AcDbVertex
100
AcDb3dPolylineVertex
 10
725.208514
 20
1814.36567
 30
0.0
 70
32
  0
VERTEX
  5
40A
330
3E7
100
AcDbEntity
  8
Close_hull
100
AcDbVertex
100
AcDb3dPolylineVertex
 10
725.215219
 20
1824.490668
 30
0.0
 70
32
  0
VERTEX
  5
40B
330
3E7
100
AcDbEntity
  8
Close_hull
100
AcDbVertex
100
AcDb3dPolylineVertex
 10
725.221923
 20
1834.615666
 30
0.0
 70
32
  0
VERTEX
  5
40C
330
3E7
100
AcDbEntity
  8
Close_hull
100
AcDbVertex
100
AcDb3dPolylineVertex
 10
725.228628
 20
1844.740664
 30
0.0
 70
32
  0
VERTEX
  5
40D
330
3E7
100
AcDbEntity
  8
Close_hull
100
AcDbVertex
100
AcDb3dPolylineVertex
 10
725.235333
 20
1854.865661
 30
0.0
 70
32
  0
VERTEX
  5
40E
330
3E7
100
AcDbEntity
  8
Close_hull
100
AcDbVertex
100
AcDb3dPolylineVertex
 10
725.242037
 20
1864.990659
 30
0.0
 70
32
  0
VERTEX
  5
40F
330
3E7
100
AcDbEntity
  8
Close_hull
100
AcDbVertex
100
AcDb3dPolylineVertex
 10
725.248742
 20
1875.115657
 30
0.0
 70
32
  0
VERTEX
  5
410
330
3E7
100
AcDbEntity
  8
Close_hull
100
AcDbVertex
100
AcDb3dPolylineVertex
 10
725.255447
 20
1885.240655
 30
0.0
 70
32
  0
VERTEX
  5
411
330
3E7
100
AcDbEntity
  8
Close_hull
100
AcDbVertex
100
AcDb3dPolylineVertex
 10
707.755451
 20
1885.252243
 30
0.0
 70
32
  0
VERTEX
  5
412
330
3E7
100
AcDbEntity
  8
Close_hull
100
AcDbVertex
100
AcDb3dPolylineVertex
 10
690.255455
 20
1885.263831
 30
0.0
 70
32
  0
VERTEX
  5
413
330
3E7
100
AcDbEntity
  8
Close_hull
100
AcDbVertex
100
AcDb3dPolylineVertex
 10
672.755458
 20
1885.27542
 30
0.0
 70
32
  0
VERTEX
  5
414
330
3E7
100
AcDbEntity
  8
Close_hull
100
AcDbVertex
100
AcDb3dPolylineVertex
 10
655.255462
 20
1885.287008
 30
0.0
 70
32
  0
VERTEX
  5
415
330
3E7
100
AcDbEntity
  8
Close_hull
100
AcDbVertex
100
AcDb3dPolylineVertex
 10
637.755466
 20
1885.298596
 30
0.0
 70
32
  0
VERTEX
  5
416
330
3E7
100
AcDbEntity
  8
Close_hull
100
AcDbVertex
100
AcDb3dPolylineVertex
 10
620.25547
 20
1885.310185
 30
0.0
 70
32
  0
VERTEX
  5
417
330
3E7
100
AcDbEntity
  8
Close_hull
100
AcDbVertex
100
AcDb3dPolylineVertex
 10
602.755474
 20
1885.321773
 30
0.0
 70
32
  0
VERTEX
  5
418
330
3E7
100
AcDbEntity
  8
Close_hull
100
AcDbVertex
100
AcDb3dPolylineVertex
 10
585.255478
 20
1885.333361
 30
0.0
 70
32
  0
VERTEX
  5
419
330
3E7
100
AcDbEntity
  8
Close_hull
100
AcDbVertex
100
AcDb3dPolylineVertex
 10
575.248775
 20
1875.214986
 30
0.0
 70
32
  0
VERTEX
  5
41A
330
3E7
100
AcDbEntity
  8
Close_hull
100
AcDbVertex
100
AcDb3dPolylineVertex
 10
565.242073
 20
1865.09661
 30
0.0
 70
32
  0
VERTEX
  5
41B
330
3E7
100
AcDbEntity
  8
Close_hull
100
AcDbVertex
100
AcDb3dPolylineVertex
 10
555.23537
 20
1854.978234
 30
0.0
 70
32
  0
VERTEX
  5
41C
330
3E7
100
AcDbEntity
  8
Close_hull
100
AcDbVertex
100
AcDb3dPolylineVertex
 10
545.228668
 20
1844.859858
 30
0.0
 70
32
  0
VERTEX
  5
41D
330
3E7
100
AcDbEntity
  8
Close_hull
100
AcDbVertex
100
AcDb3dPolylineVertex
 10
535.221965
 20
1834.741482
 30
0.0
 70
32
  0
VERTEX
  5
41E
330
3E7
100
AcDbEntity
  8
Close_hull
100
AcDbVertex
100
AcDb3dPolylineVertex
 10
525.215263
 20
1824.623106
 30
0.0
 70
32
  0
VERTEX
  5
41F
330
3E7
100
AcDbEntity
  8
Close_hull
100
AcDbVertex
100
AcDb3dPolylineVertex
 10
515.20856
 20
1814.50473
 30
0.0
 70
32
  0
VERTEX
  5
420
330
3E7
100
AcDbEntity
  8
Close_hull
100
AcDbVertex
100
AcDb3dPolylineVertex
 10
505.201858
 20
1804.386355
 30
0.0
 70
32
  0
VERTEX
  5
421
330
3E7
100
AcDbEntity
  8
Close_hull
100
AcDbVertex
100
AcDb3dPolylineVertex
 10
502.064194
 20
1785.263428
 30
0.0
 70
32
  0
VERTEX
  5
422
330
3E7
100
AcDbEntity
  8
Close_hull
100
AcDbVertex
100
AcDb3dPolylineVertex
 10
498.92653
 20
1766.140502
 30
0.0
 70
32
  0
VERTEX
  5
423
330
3E7
100
AcDbEntity
  8
Close_hull
100
AcDbVertex
100
AcDb3dPolylineVertex
 10
495.788866
 20
1747.017575
 30
0.0
 70
32
  0
VERTEX
  5
424
330
3E7
100
AcDbEntity
  8
Close_hull
100
AcDbVertex
100
AcDb3dPolylineVertex
 10
492.651203
 20
1727.894649
 30
0.0
 70
32
  0
VERTEX
  5
425
330
3E7
100
AcDbEntity
  8
Close_hull
100
AcDbVertex
100
AcDb3dPolylineVertex
 10
489.513539
 20
1708.771722
 30
0.0
 70
32
  0
VERTEX
  5
426
330
3E7
100
AcDbEntity
  8
Close_hull
100
AcDbVertex
100
AcDb3dPolylineVertex
 10
486.375875
 20
1689.648796
 30
0.0
 70
32
  0
VERTEX
  5
427
330
3E7
100
AcDbEntity
  8
Close_hull
100
AcDbVertex
100
AcDb3dPolylineVertex
 10
483.238212
 20
1670.525869
 30
0.0
 70
32
  0
VERTEX
  5
428
330
3E7
100
AcDbEntity
  8
Close_hull
100
AcDbVertex
100
AcDb3dPolylineVertex
 10
480.100548
 20
1651.402943
 30
0.0
 70
32
  0
VERTEX
  5
429
330
3E7
100
AcDbEntity
  8
Close_hull
100
AcDbVertex
100
AcDb3dPolylineVertex
 10
420.096422
 20
1645.192676
 30
0.0
 70
32
  0
VERTEX
  5
42A
330
3E7
100
AcDbEntity
  8
Close_hull
100
AcDbVertex
100
AcDb3dPolylineVertex
 10
360.092297
 20
1638.982409
 30
0.0
 70
32
  0
VERTEX
  5
42B
330
3E7
100
AcDbEntity
  8
Close_hull
100
AcDbVertex
100
AcDb3dPolylineVertex
 10
300.088171
 20
1632.772141
 30
0.0
 70
32
  0
VERTEX
  5
42C
330
3E7
100
AcDbEntity
  8
Close_hull
100
AcDbVertex
100
AcDb3dPolylineVertex
 10
240.084046
 20
1626.561874
 30
0.0
 70
32
  0
VERTEX
  5
42D
330
3E7
100
AcDbEntity
  8
Close_hull
100
AcDbVertex
100
AcDb3dPolylineVertex
 10
180.07992
 20
1620.351607
 30
0.0
 70
32
  0
VERTEX
  5
42E
330
3E7
100
AcDbEntity
  8
Close_hull
100
AcDbVertex
100
AcDb3dPolylineVertex
 10
120.075795
 20
1614.14134
 30
0.0
 70
32
  0
VERTEX
  5
42F
330
3E7
100
AcDbEntity
  8
Close_hull
100
AcDbVertex
100
AcDb3dPolylineVertex
 10
60.071669
 20
1607.931073
 30
0.0
 70
32
  0
VERTEX
  5
430
330
3E7
100
AcDbEntity
  8
Close_hull
100
AcDbVertex
100
AcDb3dPolylineVertex
 10
0.067544
 20
1601.720806
 30
0.0
 70
32
  0
VERTEX
  5
431
330
3E7
100
AcDbEntity
  8
Close_hull
100
AcDbVertex
100
AcDb3dPolylineVertex
 10
0.059101
 20
1588.970808
 30
0.0
 70
32
  0
VERTEX
  5
432
330
3E7
100
AcDbEntity
  8
Close_hull
100
AcDbVertex
100
AcDb3dPolylineVertex
 10
0.050658
 20
1576.220811
 30
0.0
 70
32
  0
VERTEX
  5
433
330
3E7
100
AcDbEntity
  8
Close_hull
100
AcDbVertex
100
AcDb3dPolylineVertex
 10
0.042215
 20
1563.470814
 30
0.0
 70
32
  0
VERTEX
  5
434
330
3E7
100
AcDbEntity
  8
Close_hull
100
AcDbVertex
100
AcDb3dPolylineVertex
 10
0.033772
 20
1550.720817
 30
0.0
 70
32
  0
VERTEX
  5
435
330
3E7
100
AcDbEntity
  8
Close_hull
100
AcDbVertex
100
AcDb3dPolylineVertex
 10
0.025329
 20
1537.97082
 30
0.0
 70
32
  0
VERTEX
  5
436
330
3E7
100
AcDbEntity
  8
Close_hull
100
AcDbVertex
100
AcDb3dPolylineVertex
 10
0.016886
 20
1525.220822
 30
0.0
 70
32
  0
VERTEX
  5
437
330
3E7
100
AcDbEntity
  8
Close_hull
100
AcDbVertex
100
AcDb3dPolylineVertex
 10
0.008443
 20
1512.470825
 30
0.0
 70
32
  0
VERTEX
  5
438
330
3E7
100
AcDbEntity
  8
Close_hull
100
AcDbVertex
100
AcDb3dPolylineVertex
 10
0.0
 20
1499.720828
 30
0.0
 70
32
  0
SEQEND
  5
439
330
3E7
100
AcDbEntity
  8
0
  0
POLYLINE
  5
43B
100
AcDbEntity
  8
Strake_1
100
AcDb3dPolyline
 66
1
 10
0.0
 20
0.0
 30
0.0
 70
8
  0
VERTEX
  5
43C
330
43B
100
AcDbEntity
  8
Strake_1
100
AcDbVertex
100
AcDb3dPolylineVertex
 10
0.003006
 20
-289.042401
 30
0.0
 70
32
  0
VERTEX
  5
43D
330
43B
100
AcDbEntity
  8
Strake_1
100
AcDbVertex
100
AcDb3dPolylineVertex
 10
0.003006
 20
-306.542401
 30
0.0
 70
32
  0
VERTEX
  5
43E
330
43B
100
AcDbEntity
  8
Strake_1
100
AcDbVertex
100
AcDb3dPolylineVertex
 10
0.003006
 20
-324.042401
 30
0.0
 70
32
  0
VERTEX
  5
43F
330
43B
100
AcDbEntity
  8
Strake_1
100
AcDbVertex
100
AcDb3dPolylineVertex
 10
155.233489
 20
-325.651485
 30
0.0
 70
32
  0
VERTEX
  5
440
330
43B
100
AcDbEntity
  8
Strake_1
100
AcDbVertex
100
AcDb3dPolylineVertex
 10
310.181726
 20
-327.162841
 30
0.0
 70
32
  0
VERTEX
  5
441
330
43B
100
AcDbEntity
  8
Strake_1
100
AcDbVertex
100
AcDb3dPolylineVertex
 10
464.567421
 20
-328.478732
 30
0.0
 70
32
  0
VERTEX
  5
442
330
43B
100
AcDbEntity
  8
Strake_1
100
AcDbVertex
100
AcDb3dPolylineVertex
 10
618.11423
 20
-329.501408
 30
0.0
 70
32
  0
VERTEX
  5
443
330
43B
100
AcDbEntity
  8
Strake_1
100
AcDbVertex
100
AcDb3dPolylineVertex
 10
770.55187
 20
-330.133109
 30
0.0
 70
32
  0
VERTEX
  5
444
330
43B
100
AcDbEntity
  8
Strake_1
100
AcDbVertex
100
AcDb3dPolylineVertex
 10
921.618402
 20
-330.276065
 30
0.0
 70
32
  0
VERTEX
  5
445
330
43B
100
AcDbEntity
  8
Strake_1
100
AcDbVertex
100
AcDb3dPolylineVertex
 10
1071.06274
 20
-329.832493
 30
0.0
 70
32
  0
VERTEX
  5
446
330
43B
100
AcDbEntity
  8
Strake_1
100
AcDbVertex
100
AcDb3dPolylineVertex
 10
1218.647468
 20
-328.704596
 30
0.0
 70
32
  0
VERTEX
  5
447
330
43B
100
AcDbEntity
  8
Strake_1
100
AcDbVertex
100
AcDb3dPolylineVertex
 10
1364.09043
 20
-326.801456
 30
0.0
 70
32
  0
VERTEX
  5
448
330
43B
100
AcDbEntity
  8
Strake_1
100
AcDbVertex
100
AcDb3dPolylineVertex
 10
1506.869452
 20
-324.059781
 30
0.0
 70
32
  0
VERTEX
  5
449
330
43B
100
AcDbEntity
  8
Strake_1
100
AcDbVertex
100
AcDb3dPolylineVertex
 10
1646.389899
 20
-320.423242
 30
0.0
 70
32
  0
VERTEX
  5
44A
330
43B
100
AcDbEntity
  8
Strake_1
100
AcDbVertex
100
AcDb3dPolylineVertex
 10
1782.046107
 20
-315.835535
 30
0.0
 70
32
  0
VERTEX
  5
44B
330
43B
100
AcDbEntity
  8
Strake_1
100
AcDbVertex
100
AcDb3dPolylineVertex
 10
1913.222886
 20
-310.240346
 30
0.0
 70
32
  0
VERTEX
  5
44C
330
43B
100
AcDbEntity
  8
Strake_1
100
AcDbVertex
100
AcDb3dPolylineVertex
 10
2039.296794
 20
-303.581324
 30
0.0
 70
32
  0
VERTEX
  5
44D
330
43B
100
AcDbEntity
  8
Strake_1
100
AcDbVertex
100
AcDb3dPolylineVertex
 10
2159.637222
 20
-295.802059
 30
0.0
 70
32
  0
VERTEX
  5
44E
330
43B
100
AcDbEntity
  8
Strake_1
100
AcDbVertex
100
AcDb3dPolylineVertex
 10
2273.60733
 20
-286.846127
 30
0.0
 70
32
  0
VERTEX
  5
44F
330
43B
100
AcDbEntity
  8
Strake_1
100
AcDbVertex
100
AcDb3dPolylineVertex
 10
2380.819868
 20
-276.69138
 30
0.0
 70
32
  0
VERTEX
  5
450
330
43B
100
AcDbEntity
  8
Strake_1
100
AcDbVertex
100
AcDb3dPolylineVertex
 10
2481.903817
 20
-265.456627
 30
0.0
 70
32
  0
VERTEX
  5
451
330
43B
100
AcDbEntity
  8
Strake_1
100
AcDbVertex
100
AcDb3dPolylineVertex
 10
2577.741003
 20
-253.296221
 30
0.0
 70
32
  0
VERTEX
  5
452
330
43B
100
AcDbEntity
  8
Strake_1
100
AcDbVertex
100
AcDb3dPolylineVertex
 10
2669.211129
 20
-240.364488
 30
0.0
 70
32
  0
VERTEX
  5
453
330
43B
100
AcDbEntity
  8
Strake_1
100
AcDbVertex
100
AcDb3dPolylineVertex
 10
2757.191533
 20
-226.815728
 30
0.0
 70
32
  0
VERTEX
  5
454
330
43B
100
AcDbEntity
  8
Strake_1
100
AcDbVertex
100
AcDb3dPolylineVertex
 10
2842.557194
 20
-212.804226
 30
0.0
 70
32
  0
VERTEX
  5
455
330
43B
100
AcDbEntity
  8
Strake_1
100
AcDbVertex
100
AcDb3dPolylineVertex
 10
2926.18099
 20
-198.484253
 30
0.0
 70
32
  0
VERTEX
  5
456
330
43B
100
AcDbEntity
  8
Strake_1
100
AcDbVertex
100
AcDb3dPolylineVertex
 10
3008.933749
 20
-184.010102
 30
0.0
 70
32
  0
VERTEX
  5
457
330
43B
100
AcDbEntity
  8
Strake_1
100
AcDbVertex
100
AcDb3dPolylineVertex
 10
2925.680632
 20
-184.013386
 30
0.0
 70
32
  0
VERTEX
  5
458
330
43B
100
AcDbEntity
  8
Strake_1
100
AcDbVertex
100
AcDb3dPolylineVertex
 10
2841.568554
 20
-184.016657
 30
0.0
 70
32
  0
VERTEX
  5
459
330
43B
100
AcDbEntity
  8
Strake_1
100
AcDbVertex
100
AcDb3dPolylineVertex
 10
2755.73769
 20
-184.019821
 30
0.0
 70
32
  0
VERTEX
  5
45A
330
43B
100
AcDbEntity
  8
Strake_1
100
AcDbVertex
100
AcDb3dPolylineVertex
 10
2667.326612
 20
-184.022793
 30
0.0
 70
32
  0
VERTEX
  5
45B
330
43B
100
AcDbEntity
  8
Strake_1
100
AcDbVertex
100
AcDb3dPolylineVertex
 10
2575.471775
 20
-184.025476
 30
0.0
 70
32
  0
VERTEX
  5
45C
330
43B
100
AcDbEntity
  8
Strake_1
100
AcDbVertex
100
AcDb3dPolylineVertex
 10
2479.307249
 20
-184.027755
 30
0.0
 70
32
  0
VERTEX
  5
45D
330
43B
100
AcDbEntity
  8
Strake_1
100
AcDbVertex
100
AcDb3dPolylineVertex
 10
2377.964716
 20
-184.029488
 30
0.0
 70
32
  0
VERTEX
  5
45E
330
43B
100
AcDbEntity
  8
Strake_1
100
AcDbVertex
100
AcDb3dPolylineVertex
 10
2270.573651
 20
-184.030417
 30
0.0
 70
32
  0
VERTEX
  5
45F
330
43B
100
AcDbEntity
  8
Strake_1
100
AcDbVertex
100
AcDb3dPolylineVertex
 10
2156.512696
 20
-184.031112
 30
0.0
 70
32
  0
VERTEX
  5
460
330
43B
100
AcDbEntity
  8
Strake_1
100
AcDbVertex
100
AcDb3dPolylineVertex
 10
2036.161814
 20
-184.032039
 30
0.0
 70
32
  0
VERTEX
  5
461
330
43B
100
AcDbEntity
  8
Strake_1
100
AcDbVertex
100
AcDb3dPolylineVertex
 10
1910.146843
 20
-184.033269
 30
0.0
 70
32
  0
VERTEX
  5
462
330
43B
100
AcDbEntity
  8
Strake_1
100
AcDbVertex
100
AcDb3dPolylineVertex
 10
1779.087455
 20
-184.034747
 30
0.0
 70
32
  0
VERTEX
  5
463
330
43B
100
AcDbEntity
  8
Strake_1
100
AcDbVertex
100
AcDb3dPolylineVertex
 10
1643.596239
 20
-184.03636
 30
0.0
 70
32
  0
VERTEX
  5
464
330
43B
100
AcDbEntity
  8
Strake_1
100
AcDbVertex
100
AcDb3dPolylineVertex
 10
1504.277639
 20
-184.037961
 30
0.0
 70
32
  0
VERTEX
  5
465
330
43B
100
AcDbEntity
  8
Strake_1
100
AcDbVertex
100
AcDb3dPolylineVertex
 10
1361.726704
 20
-184.039391
 30
0.0
 70
32
  0
VERTEX
  5
466
330
43B
100
AcDbEntity
  8
Strake_1
100
AcDbVertex
100
AcDb3dPolylineVertex
 10
1216.527626
 20
-184.04052
 30
0.0
 70
32
  0
VERTEX
  5
467
330
43B
100
AcDbEntity
  8
Strake_1
100
AcDbVertex
100
AcDb3dPolylineVertex
 10
1069.193979
 20
-184.041302
 30
0.0
 70
32
  0
VERTEX
  5
468
330
43B
100
AcDbEntity
  8
Strake_1
100
AcDbVertex
100
AcDb3dPolylineVertex
 10
920.005929
 20
-184.041809
 30
0.0
 70
32
  0
VERTEX
  5
469
330
43B
100
AcDbEntity
  8
Strake_1
100
AcDbVertex
100
AcDb3dPolylineVertex
 10
769.200407
 20
-184.042117
 30
0.0
 70
32
  0
VERTEX
  5
46A
330
43B
100
AcDbEntity
  8
Strake_1
100
AcDbVertex
100
AcDb3dPolylineVertex
 10
617.027886
 20
-184.042286
 30
0.0
 70
32
  0
VERTEX
  5
46B
330
43B
100
AcDbEntity
  8
Strake_1
100
AcDbVertex
100
AcDb3dPolylineVertex
 10
463.749595
 20
-184.042366
 30
0.0
 70
32
  0
VERTEX
  5
46C
330
43B
100
AcDbEntity
  8
Strake_1
100
AcDbVertex
100
AcDb3dPolylineVertex
 10
309.635029
 20
-184.042395
 30
0.0
 70
32
  0
VERTEX
  5
46D
330
43B
100
AcDbEntity
  8
Strake_1
100
AcDbVertex
100
AcDb3dPolylineVertex
 10
154.959693
 20
-184.042401
 30
0.0
 70
32
  0
VERTEX
  5
46E
330
43B
100
AcDbEntity
  8
Strake_1
100
AcDbVertex
100
AcDb3dPolylineVertex
 10
0.003006
 20
-184.042401
 30
0.0
 70
32
  0
VERTEX
  5
46F
330
43B
100
AcDbEntity
  8
Strake_1
100
AcDbVertex
100
AcDb3dPolylineVertex
 10
0.003006
 20
-201.542401
 30
0.0
 70
32
  0
VERTEX
  5
470
330
43B
100
AcDbEntity
  8
Strake_1
100
AcDbVertex
100
AcDb3dPolylineVertex
 10
0.003006
 20
-219.042401
 30
0.0
 70
32
  0
VERTEX
  5
471
330
43B
100
AcDbEntity
  8
Strake_1
100
AcDbVertex
100
AcDb3dPolylineVertex
 10
0.003006
 20
-236.542401
 30
0.0
 70
32
  0
VERTEX
  5
472
330
43B
100
AcDbEntity
  8
Strake_1
100
AcDbVertex
100
AcDb3dPolylineVertex
 10
0.003006
 20
-254.042401
 30
0.0
 70
32
  0
VERTEX
  5
473
330
43B
100
AcDbEntity
  8
Strake_1
100
AcDbVertex
100
AcDb3dPolylineVertex
 10
0.003006
 20
-271.542401
 30
0.0
 70
32
  0
VERTEX
  5
474
330
43B
100
AcDbEntity
  8
Strake_1
100
AcDbVertex
100
AcDb3dPolylineVertex
 10
0.003006
 20
-289.042401
 30
0.0
 70
32
  0
SEQEND
  5
475
330
43B
100
AcDbEntity
  8
0
  0
POLYLINE
  5
476
100
AcDbEntity
  8
Strake_1
100
AcDb3dPolyline
 66
1
 10
0.0
 20
0.0
 30
0.0
 70
8
  0
VERTEX
  5
477
330
476
100
AcDbEntity
  8
Strake_1
100
AcDbVertex
100
AcDb3dPolylineVertex
 10
0.000751
 20
-79.042401
 30
0.0
 70
32
  0
VERTEX
  5
478
330
476
100
AcDbEntity
  8
Strake_1
100
AcDbVertex
100
AcDb3dPolylineVertex
 10
0.000376
 20
-61.542401
 30
0.0
 70
32
  0
VERTEX
  5
479
330
476
100
AcDbEntity
  8
Strake_1
100
AcDbVertex
100
AcDb3dPolylineVertex
 10
0.0
 20
-44.042401
 30
0.0
 70
32
  0
VERTEX
  5
47A
330
476
100
AcDbEntity
  8
Strake_1
100
AcDbVertex
100
AcDb3dPolylineVertex
 10
155.230448
 20
-42.429985
 30
0.0
 70
32
  0
VERTEX
  5
47B
330
476
100
AcDbEntity
  8
Strake_1
100
AcDbVertex
100
AcDb3dPolylineVertex
 10
310.178653
 20
-40.915302
 30
0.0
 70
32
  0
VERTEX
  5
47C
330
476
100
AcDbEntity
  8
Strake_1
100
AcDbVertex
100
AcDb3dPolylineVertex
 10
464.56432
 20
-39.596096
 30
0.0
 70
32
  0
VERTEX
  5
47D
330
476
100
AcDbEntity
  8
Strake_1
100
AcDbVertex
100
AcDb3dPolylineVertex
 10
618.111107
 20
-38.570124
 30
0.0
 70
32
  0
VERTEX
  5
47E
330
476
100
AcDbEntity
  8
Strake_1
100
AcDbVertex
100
AcDb3dPolylineVertex
 10
770.548733
 20
-37.935151
 30
0.0
 70
32
  0
VERTEX
  5
47F
330
476
100
AcDbEntity
  8
Strake_1
100
AcDbVertex
100
AcDb3dPolylineVertex
 10
921.615262
 20
-37.788951
 30
0.0
 70
32
  0
VERTEX
  5
480
330
476
100
AcDbEntity
  8
Strake_1
100
AcDbVertex
100
AcDb3dPolylineVertex
 10
1071.05961
 20
-38.229314
 30
0.0
 70
32
  0
VERTEX
  5
481
330
476
100
AcDbEntity
  8
Strake_1
100
AcDbVertex
100
AcDb3dPolylineVertex
 10
1218.644362
 20
-39.354044
 30
0.0
 70
32
  0
VERTEX
  5
482
330
476
100
AcDbEntity
  8
Strake_1
100
AcDbVertex
100
AcDb3dPolylineVertex
 10
1364.087365
 20
-41.254061
 30
0.0
 70
32
  0
VERTEX
  5
483
330
476
100
AcDbEntity
  8
Strake_1
100
AcDbVertex
100
AcDb3dPolylineVertex
 10
1506.866446
 20
-43.99267
 30
0.0
 70
32
  0
VERTEX
  5
484
330
476
100
AcDbEntity
  8
Strake_1
100
AcDbVertex
100
AcDb3dPolylineVertex
 10
1646.386971
 20
-47.626214
 30
0.0
 70
32
  0
VERTEX
  5
485
330
476
100
AcDbEntity
  8
Strake_1
100
AcDbVertex
100
AcDb3dPolylineVertex
 10
1782.043277
 20
-52.211008
 30
0.0
 70
32
  0
VERTEX
  5
486
330
476
100
AcDbEntity
  8
Strake_1
100
AcDbVertex
100
AcDb3dPolylineVertex
 10
1913.220176
 20
-57.803381
 30
0.0
 70
32
  0
VERTEX
  5
487
330
476
100
AcDbEntity
  8
Strake_1
100
AcDbVertex
100
AcDb3dPolylineVertex
 10
2039.294227
 20
-64.459697
 30
0.0
 70
32
  0
VERTEX
  5
488
330
476
100
AcDbEntity
  8
Strake_1
100
AcDbVertex
100
AcDb3dPolylineVertex
 10
2159.634822
 20
-72.236379
 30
0.0
 70
32
  0
VERTEX
  5
489
330
476
100
AcDbEntity
  8
Strake_1
100
AcDbVertex
100
AcDb3dPolylineVertex
 10
2273.605123
 20
-81.189864
 30
0.0
 70
32
  0
VERTEX
  5
48A
330
476
100
AcDbEntity
  8
Strake_1
100
AcDbVertex
100
AcDb3dPolylineVertex
 10
2380.817878
 20
-91.342309
 30
0.0
 70
32
  0
VERTEX
  5
48B
330
476
100
AcDbEntity
  8
Strake_1
100
AcDbVertex
100
AcDb3dPolylineVertex
 10
2481.902068
 20
-102.574891
 30
0.0
 70
32
  0
VERTEX
  5
48C
330
476
100
AcDbEntity
  8
Strake_1
100
AcDbVertex
100
AcDb3dPolylineVertex
 10
2577.739516
 20
-114.73324
 30
0.0
 70
32
  0
VERTEX
  5
48D
330
476
100
AcDbEntity
  8
Strake_1
100
AcDbVertex
100
AcDb3dPolylineVertex
 10
2669.209919
 20
-127.663009
 30
0.0
 70
32
  0
VERTEX
  5
48E
330
476
100
AcDbEntity
  8
Strake_1
100
AcDbVertex
100
AcDb3dPolylineVertex
 10
2757.190614
 20
-141.20988
 30
0.0
 70
32
  0
VERTEX
  5
48F
330
476
100
AcDbEntity
  8
Strake_1
100
AcDbVertex
100
AcDb3dPolylineVertex
 10
2842.556576
 20
-155.219549
 30
0.0
 70
32
  0
VERTEX
  5
490
330
476
100
AcDbEntity
  8
Strake_1
100
AcDbVertex
100
AcDb3dPolylineVertex
 10
2926.180679
 20
-169.537728
 30
0.0
 70
32
  0
VERTEX
  5
491
330
476
100
AcDbEntity
  8
Strake_1
100
AcDbVertex
100
AcDb3dPolylineVertex
 10
3008.933749
 20
-184.010102
 30
0.0
 70
32
  0
VERTEX
  5
492
330
476
100
AcDbEntity
  8
Strake_1
100
AcDbVertex
100
AcDb3dPolylineVertex
 10
2925.680632
 20
-184.008605
 30
0.0
 70
32
  0
VERTEX
  5
493
330
476
100
AcDbEntity
  8
Strake_1
100
AcDbVertex
100
AcDb3dPolylineVertex
 10
2841.568554
 20
-184.00714
 30
0.0
 70
32
  0
VERTEX
  5
494
330
476
100
AcDbEntity
  8
Strake_1
100
AcDbVertex
100
AcDb3dPolylineVertex
 10
2755.73769
 20
-184.005819
 30
0.0
 70
32
  0
VERTEX
  5
495
330
476
100
AcDbEntity
  8
Strake_1
100
AcDbVertex
100
AcDb3dPolylineVertex
 10
2667.326612
 20
-184.004745
 30
0.0
 70
32
  0
VERTEX
  5
496
330
476
100
AcDbEntity
  8
Strake_1
100
AcDbVertex
100
AcDb3dPolylineVertex
 10
2575.471774
 20
-184.004034
 30
0.0
 70
32
  0
VERTEX
  5
497
330
476
100
AcDbEntity
  8
Strake_1
100
AcDbVertex
100
AcDb3dPolylineVertex
 10
2479.307248
 20
-184.003819
 30
0.0
 70
32
  0
VERTEX
  5
498
330
476
100
AcDbEntity
  8
Strake_1
100
AcDbVertex
100
AcDb3dPolylineVertex
 10
2377.964716
 20
-184.004262
 30
0.0
 70
32
  0
VERTEX
  5
499
330
476
100
AcDbEntity
  8
Strake_1
100
AcDbVertex
100
AcDb3dPolylineVertex
 10
2270.57365
 20
-184.005638
 30
0.0
 70
32
  0
VERTEX
  5
49A
330
476
100
AcDbEntity
  8
Strake_1
100
AcDbVertex
100
AcDb3dPolylineVertex
 10
2156.512695
 20
-184.007392
 30
0.0
 70
32
  0
VERTEX
  5
49B
330
476
100
AcDbEntity
  8
Strake_1
100
AcDbVertex
100
AcDb3dPolylineVertex
 10
2036.161813
 20
-184.009049
 30
0.0
 70
32
  0
VERTEX
  5
49C
330
476
100
AcDbEntity
  8
Strake_1
100
AcDbVertex
100
AcDb3dPolylineVertex
 10
1910.146843
 20
-184.010525
 30
0.0
 70
32
  0
VERTEX
  5
49D
330
476
100
AcDbEntity
  8
Strake_1
100
AcDbVertex
100
AcDb3dPolylineVertex
 10
1779.087455
 20
-184.011861
 30
0.0
 70
32
  0
VERTEX
  5
49E
330
476
100
AcDbEntity
  8
Strake_1
100
AcDbVertex
100
AcDb3dPolylineVertex
 10
1643.596239
 20
-184.013156
 30
0.0
 70
32
  0
VERTEX
  5
49F
330
476
100
AcDbEntity
  8
Strake_1
100
AcDbVertex
100
AcDb3dPolylineVertex
 10
1504.277638
 20
-184.014546
 30
0.0
 70
32
  0
VERTEX
  5
4A0
330
476
100
AcDbEntity
  8
Strake_1
100
AcDbVertex
100
AcDb3dPolylineVertex
 10
1361.726704
 20
-184.016176
 30
0.0
 70
32
  0
VERTEX
  5
4A1
330
476
100
AcDbEntity
  8
Strake_1
100
AcDbVertex
100
AcDb3dPolylineVertex
 10
1216.527625
 20
-184.018165
 30
0.0
 70
32
  0
VERTEX
  5
4A2
330
476
100
AcDbEntity
  8
Strake_1
100
AcDbVertex
100
AcDb3dPolylineVertex
 10
1069.193979
 20
-184.020546
 30
0.0
 70
32
  0
VERTEX
  5
4A3
330
476
100
AcDbEntity
  8
Strake_1
100
AcDbVertex
100
AcDb3dPolylineVertex
 10
920.005929
 20
-184.023242
 30
0.0
 70
32
  0
VERTEX
  5
4A4
330
476
100
AcDbEntity
  8
Strake_1
100
AcDbVertex
100
AcDb3dPolylineVertex
 10
769.200407
 20
-184.026172
 30
0.0
 70
32
  0
VERTEX
  5
4A5
330
476
100
AcDbEntity
  8
Strake_1
100
AcDbVertex
100
AcDb3dPolylineVertex
 10
617.027886
 20
-184.029269
 30
0.0
 70
32
  0
VERTEX
  5
4A6
330
476
100
AcDbEntity
  8
Strake_1
100
AcDbVertex
100
AcDb3dPolylineVertex
 10
463.749595
 20
-184.03248
 30
0.0
 70
32
  0
VERTEX
  5
4A7
330
476
100
AcDbEntity
  8
Strake_1
100
AcDbVertex
100
AcDb3dPolylineVertex
 10
309.635029
 20
-184.03576
 30
0.0
 70
32
  0
VERTEX
  5
4A8
330
476
100
AcDbEntity
  8
Strake_1
100
AcDbVertex
100
AcDb3dPolylineVertex
 10
154.959693
 20
-184.039074
 30
0.0
 70
32
  0
VERTEX
  5
4A9
330
476
100
AcDbEntity
  8
Strake_1
100
AcDbVertex
100
AcDb3dPolylineVertex
 10
0.003006
 20
-184.042401
 30
0.0
 70
32
  0
VERTEX
  5
4AA
330
476
100
AcDbEntity
  8
Strake_1
100
AcDbVertex
100
AcDb3dPolylineVertex
 10
0.00263
 20
-166.542401
 30
0.0
 70
32
  0
VERTEX
  5
4AB
330
476
100
AcDbEntity
  8
Strake_1
100
AcDbVertex
100
AcDb3dPolylineVertex
 10
0.002254
 20
-149.042401
 30
0.0
 70
32
  0
VERTEX
  5
4AC
330
476
100
AcDbEntity
  8
Strake_1
100
AcDbVertex
100
AcDb3dPolylineVertex
 10
0.001879
 20
-131.542401
 30
0.0
 70
32
  0
VERTEX
  5
4AD
330
476
100
AcDbEntity
  8
Strake_1
100
AcDbVertex
100
AcDb3dPolylineVertex
 10
0.001503
 20
-114.042401
 30
0.0
 70
32
  0
VERTEX
  5
4AE
330
476
100
AcDbEntity
  8
Strake_1
100
AcDbVertex
100
AcDb3dPolylineVertex
 10
0.001127
 20
-96.542401
 30
0.0
 70
32
  0
VERTEX
  5
4AF
330
476
100
AcDbEntity
  8
Strake_1
100
AcDbVertex
100
AcDb3dPolylineVertex
 10
0.000751
 20
-79.042401
 30
0.0
 70
32
  0
SEQEND
  5
4B0
330
476
100
AcDbEntity
  8
0
  0
ENDSEC
  0
SECTION
  2
OBJECTS
  0
DICTIONARY
  5
C
330
0
100
AcDbDictionary
281
1
  3
ACAD_COLOR
350
73
  3
ACAD_DETAILVIEWSTYLE
350
122
  3
ACAD_GROUP
350
D
  3
ACAD_IMAGE_VARS
350
DC
  3
ACAD_LAYOUT
350
1A
  3
ACAD_MATERIAL
350
72
  3
ACAD_MLEADERSTYLE
350
B5
  3
ACAD_MLINESTYLE
350
17
  3
ACAD_PLOTSETTINGS
350
19
  3
ACAD_PLOTSTYLENAME
350
E
  3
ACAD_SCALELIST
350
B6
  3
ACAD_SECTIONVIEWSTYLE
350
123
  3
ACAD_TABLESTYLE
350
86
  3
ACAD_VISUALSTYLE
350
99
  3
ACDB_RECOMPOSE_DATA
350
130
  3
AcDbVariableDictionary
350
66
  3
APPDATA
350
E1
  0
DICTIONARY
  5
73
102
{ACAD_REACTORS
330
C
102
}
330
C
100
AcDbDictionary
281
1
  0
DICTIONARY
  5
122
102
{ACAD_REACTORS
330
C
102
}
330
C
100
AcDbDictionary
281
1
  0
DICTIONARY
  5
D
102
{ACAD_REACTORS
330
C
102
}
330
C
100
AcDbDictionary
281
1
  0
RASTERVARIABLES
  5
DC
102
{ACAD_REACTORS
330
C
102
}
330
C
100
AcDbRasterVariables
 90
0
 70
1
 71
1
 72
5
  0
DICTIONARY
  5
1A
102
{ACAD_REACTORS
330
C
102
}
330
C
100
AcDbDictionary
281
1
  3
Model
350
22
  3
Sheet1
350
59
  3
Sheet2
350
5E
  0
DICTIONARY
  5
72
102
{ACAD_REACTORS
330
C
102
}
330
C
100
AcDbDictionary
281
1
  3
ByBlock
350
E2
  3
ByLayer
350
96
  3
Global
350
98
  0
DICTIONARY
  5
B5
102
{ACAD_REACTORS
330
C
102
}
330
C
100
AcDbDictionary
281
1
  0
DICTIONARY
  5
17
102
{ACAD_REACTORS
330
C
102
}
330
C
100
AcDbDictionary
281
1
  3
Standard
350
18
  0
DICTIONARY
  5
19
102
{ACAD_REACTORS
330
C
102
}
330
C
100
AcDbDictionary
281
1
  0
ACDBDICTIONARYWDFLT
  5
E
102
{ACAD_REACTORS
330
C
102
}
330
C
100
AcDbDictionary
281
1
  3
Normal
350
F
100
AcDbDictionaryWithDefault
340
F
  0
DICTIONARY
  5
B6
102
{ACAD_REACTORS
330
C
102
}
330
C
100
AcDbDictionary
281
1
  3
A0
350
B7
  3
A1
350
B8
  3
A2
350
B9
  3
A3
350
BA
  3
A4
350
BB
  3
A5
350
BC
  3
A6
350
BD
  3
A7
350
BE
  3
A8
350
BF
  3
A9
350
C0
  3
B0
350
C1
  3
B1
350
C2
  3
B2
350
C3
  3
B3
350
C4
  3
B4
350
C5
  3
B5
350
C6
  3
B6
350
C7
  3
B7
350
C8
  3
B8
350
C9
  3
B9
350
CA
  3
C0
350
CB
  3
C1
350
CC
  3
C2
350
CD
  3
C3
350
CE
  3
C4
350
CF
  3
C5
350
D0
  3
C6
350
D1
  3
C7
350
D2
  3
C8
350
D3
  3
C9
350
D4
  3
D0
350
D5
  3
D1
350
D6
  3
D2
350
D7
  0
DICTIONARY
  5
123
102
{ACAD_REACTORS
330
C
102
}
330
C
100
AcDbDictionary
281
1
  0
DICTIONARY
  5
86
102
{ACAD_REACTORS
330
C
102
}
330
C
100
AcDbDictionary
281
1
  3
Standard
350
87
  0
DICTIONARY
  5
99
102
{ACAD_REACTORS
330
C
102
}
330
C
100
AcDbDictionary
281
1
  3
2dWireframe
350
9F
  3
3D Hidden
350
A1
  3
3dWireframe
350
A0
  3
Basic
350
9E
  3
Brighten
350
A5
  3
ColorChange
350
A9
  3
Conceptual
350
A2
  3
Dim
350
A4
  3
EdgeColorOff
350
E7
  3
Facepattern
350
A8
  3
Flat
350
9A
  3
FlatWithEdges
350
9B
  3
Gouraud
350
9C
  3
GouraudWithEdges
350
9D
  3
Hidden
350
E4
  3
JitterOff
350
E5
  3
Linepattern
350
A7
  3
OverhangOff
350
E6
  3
Realistic
350
A3
  3
Shaded
350
EC
  3
Shaded with edges
350
EB
  3
Shades of Gray
350
E8
  3
Sketchy
350
E9
  3
Thicken
350
A6
  3
Wireframe
350
E3
  3
X-Ray
350
EA
  0
XRECORD
350
130
102
{ACAD_REACTORS
330
C
102
}
330
C
100
AcDbXrecord
280
1
 90
1
330
87
  0
DICTIONARY
  5
66
102
{ACAD_REACTORS
330
C
102
}
330
C
100
AcDbDictionary
281
1
  3
CANNOSCALE
350
D8
  3
CTABLESTYLE
350
89
  3
DIMASSOC
350
67
  3
HIDETEXT
350
6B
  3
LIGHTSINBLOCKS
350
DF
  3
XCLIPFRAME
350
E0
  0
DICTIONARY
  5
E1
102
{ACAD_REACTORS
330
C
102
}
330
C
100
AcDbDictionary
281
1
  0
LAYOUT
  5
22
102
{ACAD_REACTORS
330
1A
102
}
330
1A
100
AcDbPlotSettings
  1

  2
none_device
  4
ANSI_A_(8.50_x_11.00_Inches)
  6

 40
6.35
 41
19.05
 42
6.35
 43
19.05
 44
215.9
 45
279.4
 46
11.11250000000003
 47
0.0000000000000142
 48
0.0
 49
0.0
140
0.0
141
0.0
142
1.0
143
1.263157894736842
 70
11444
 72
0
 73
1
 74
1
  7
monochrome.ctb
 75
0
 76
0
 77
2
 78
300
147
0.7916666666666665
148
-702.8076765758875
149
-496.2830551296954
100
AcDbLayout
  1
Model
 70
1
 71
0
 10
0.0
 20
0.0
 11
12.0
 21
9.0
 12
0.0
 22
0.0
 32
0.0
 14
0.0
 24
0.0
 34
0.0
 15
0.0
 25
0.0
 35
0.0
146
0.0
 13
0.0
 23
0.0
 33
0.0
 16
1.0
 26
0.0
 36
0.0
 17
0.0
 27
1.0
 37
0.0
 76
0
330
1F
331
94
  0
LAYOUT
  5
59
102
{ACAD_REACTORS
330
1A
102
}
330
1A
100
AcDbPlotSettings
  1

  2
None
  4

  6

 40
0.0
 41
0.0
 42
0.0
 43
0.0
 44
0.0
 45
0.0
 46
0.0
 47
0.0
 48
0.0
 49
0.0
140
0.0
141
0.0
142
1.0
143
1.0
 70
688
 72
0
 73
0
 74
5
  7

 75
16
 76
0
 77
2
 78
300
147
1.0
148
0.0
149
0.0
100
AcDbLayout
  1
Sheet1
 70
1
 71
1
 10
0.0
 20
0.0
 11
12.0
 21
9.0
 12
0.0
 22
0.0
 32
0.0
 14
0.0
 24
0.0
 34
0.0
 15
0.0
 25
0.0
 35
0.0
146
0.0
 13
0.0
 23
0.0
 33
0.0
 16
1.0
 26
0.0
 36
0.0
 17
0.0
 27
1.0
 37
0.0
 76
0
330
58
  0
LAYOUT
  5
5E
102
{ACAD_REACTORS
330
1A
102
}
330
1A
100
AcDbPlotSettings
  1

  2
None
  4

  6

 40
0.0
 41
0.0
 42
0.0
 43
0.0
 44
0.0
 45
0.0
 46
0.0
 47
0.0
 48
0.0
 49
0.0
140
0.0
141
0.0
142
1.0
143
1.0
 70
688
 72
0
 73
0
 74
5
  7

 75
16
 76
0
 77
2
 78
300
147
1.0
148
0.0
149
0.0
100
AcDbLayout
  1
Sheet2
 70
1
 71
2
 10
0.0
 20
0.0
 11
12.0
 21
9.0
 12
0.0
 22
0.0
 32
0.0
 14
0.0
 24
0.0
 34
0.0
 15
0.0
 25
0.0
 35
0.0
146
0.0
 13
0.0
 23
0.0
 33
0.0
 16
1.0
 26
0.0
 36
0.0
 17
0.0
 27
1.0
 37
0.0
 76
0
330
5D
  0
MATERIAL
  5
E2
102
{ACAD_REACTORS
330
72
102
}
330
72
100
AcDbMaterial
  1
ByBlock
 72
1
 94
127
  0
MATERIAL
  5
96
102
{ACAD_REACTORS
330
72
102
}
330
72
100
AcDbMaterial
  1
ByLayer
 72
1
 94
63
  0
MATERIAL
  5
98
102
{ACAD_REACTORS
330
72
102
}
330
72
100
AcDbMaterial
  1
Global
 72
1
 94
63
  0
MLINESTYLE
  5
18
102
{ACAD_REACTORS
330
17
102
}
330
17
100
AcDbMlineStyle
  2
STANDARD
 70
0
  3

 62
256
 51
90.0
 52
90.0
 71
2
 49
0.5
 62
256
  6
BYLAYER
 49
-0.5
 62
256
  6
BYLAYER
  0
ACDBPLACEHOLDER
  5
F
102
{ACAD_REACTORS
330
E
102
}
330
E
  0
SCALE
  5
B7
102
{ACAD_REACTORS
330
B6
102
}
330
B6
100
AcDbScale
 70
0
300
1:1
140
1.0
141
1.0
290
1
  0
SCALE
  5
B8
102
{ACAD_REACTORS
330
B6
102
}
330
B6
100
AcDbScale
 70
0
300
1:2
140
1.0
141
2.0
290
0
  0
SCALE
  5
B9
102
{ACAD_REACTORS
330
B6
102
}
330
B6
100
AcDbScale
 70
0
300
1:4
140
1.0
141
4.0
290
0
  0
SCALE
  5
BA
102
{ACAD_REACTORS
330
B6
102
}
330
B6
100
AcDbScale
 70
0
300
1:5
140
1.0
141
5.0
290
0
  0
SCALE
  5
BB
102
{ACAD_REACTORS
330
B6
102
}
330
B6
100
AcDbScale
 70
0
300
1:8
140
1.0
141
8.0
290
0
  0
SCALE
  5
BC
102
{ACAD_REACTORS
330
B6
102
}
330
B6
100
AcDbScale
 70
0
300
1:10
140
1.0
141
10.0
290
0
  0
SCALE
  5
BD
102
{ACAD_REACTORS
330
B6
102
}
330
B6
100
AcDbScale
 70
0
300
1:16
140
1.0
141
16.0
290
0
  0
SCALE
  5
BE
102
{ACAD_REACTORS
330
B6
102
}
330
B6
100
AcDbScale
 70
0
300
1:20
140
1.0
141
20.0
290
0
  0
SCALE
  5
BF
102
{ACAD_REACTORS
330
B6
102
}
330
B6
100
AcDbScale
 70
0
300
1:30
140
1.0
141
30.0
290
0
  0
SCALE
  5
C0
102
{ACAD_REACTORS
330
B6
102
}
330
B6
100
AcDbScale
 70
0
300
1:40
140
1.0
141
40.0
290
0
  0
SCALE
  5
C1
102
{ACAD_REACTORS
330
B6
102
}
330
B6
100
AcDbScale
 70
0
300
1:50
140
1.0
141
50.0
290
0
  0
SCALE
  5
C2
102
{ACAD_REACTORS
330
B6
102
}
330
B6
100
AcDbScale
 70
0
300
1:100
140
1.0
141
100.0
290
0
  0
SCALE
  5
C3
102
{ACAD_REACTORS
330
B6
102
}
330
B6
100
AcDbScale
 70
0
300
2:1
140
2.0
141
1.0
290
0
  0
SCALE
  5
C4
102
{ACAD_REACTORS
330
B6
102
}
330
B6
100
AcDbScale
 70
0
300
4:1
140
4.0
141
1.0
290
0
  0
SCALE
  5
C5
102
{ACAD_REACTORS
330
B6
102
}
330
B6
100
AcDbScale
 70
0
300
8:1
140
8.0
141
1.0
290
0
  0
SCALE
  5
C6
102
{ACAD_REACTORS
330
B6
102
}
330
B6
100
AcDbScale
 70
0
300
10:1
140
10.0
141
1.0
290
0
  0
SCALE
  5
C7
102
{ACAD_REACTORS
330
B6
102
}
330
B6
100
AcDbScale
 70
0
300
100:1
140
100.0
141
1.0
290
0
  0
SCALE
  5
C8
102
{ACAD_REACTORS
330
B6
102
}
330
B6
100
AcDbScale
 70
0
300
1/128" = 1'-0"
140
0.0078125
141
12.0
290
0
  0
SCALE
  5
C9
102
{ACAD_REACTORS
330
B6
102
}
330
B6
100
AcDbScale
 70
0
300
1/64" = 1'-0"
140
0.015625
141
12.0
290
0
  0
SCALE
  5
CA
102
{ACAD_REACTORS
330
B6
102
}
330
B6
100
AcDbScale
 70
0
300
1/32" = 1'-0"
140
0.03125
141
12.0
290
0
  0
SCALE
  5
CB
102
{ACAD_REACTORS
330
B6
102
}
330
B6
100
AcDbScale
 70
0
300
1/16" = 1'-0"
140
0.0625
141
12.0
290
0
  0
SCALE
  5
CC
102
{ACAD_REACTORS
330
B6
102
}
330
B6
100
AcDbScale
 70
0
300
3/32" = 1'-0"
140
0.09375
141
12.0
290
0
  0
SCALE
  5
CD
102
{ACAD_REACTORS
330
B6
102
}
330
B6
100
AcDbScale
 70
0
300
1/8" = 1'-0"
140
0.125
141
12.0
290
0
  0
SCALE
  5
CE
102
{ACAD_REACTORS
330
B6
102
}
330
B6
100
AcDbScale
 70
0
300
3/16" = 1'-0"
140
0.1875
141
12.0
290
0
  0
SCALE
  5
CF
102
{ACAD_REACTORS
330
B6
102
}
330
B6
100
AcDbScale
 70
0
300
1/4" = 1'-0"
140
0.25
141
12.0
290
0
  0
SCALE
  5
D0
102
{ACAD_REACTORS
330
B6
102
}
330
B6
100
AcDbScale
 70
0
300
3/8" = 1'-0"
140
0.375
141
12.0
290
0
  0
SCALE
  5
D1
102
{ACAD_REACTORS
330
B6
102
}
330
B6
100
AcDbScale
 70
0
300
1/2" = 1'-0"
140
0.5
141
12.0
290
0
  0
SCALE
  5
D2
102
{ACAD_REACTORS
330
B6
102
}
330
B6
100
AcDbScale
 70
0
300
3/4" = 1'-0"
140
0.75
141
12.0
290
0
  0
SCALE
  5
D3
102
{ACAD_REACTORS
330
B6
102
}
330
B6
100
AcDbScale
 70
0
300
1" = 1'-0"
140
1.0
141
12.0
290
0
  0
SCALE
  5
D4
102
{ACAD_REACTORS
330
B6
102
}
330
B6
100
AcDbScale
 70
0
300
1-1/2" = 1'-0"
140
1.5
141
12.0
290
0
  0
SCALE
  5
D5
102
{ACAD_REACTORS
330
B6
102
}
330
B6
100
AcDbScale
 70
0
300
3" = 1'-0"
140
3.0
141
12.0
290
0
  0
SCALE
  5
D6
102
{ACAD_REACTORS
330
B6
102
}
330
B6
100
AcDbScale
 70
0
300
6" = 1'-0"
140
6.0
141
12.0
290
0
  0
SCALE
  5
D7
102
{ACAD_REACTORS
330
B6
102
}
330
B6
100
AcDbScale
 70
0
300
1'-0" = 1'-0"
140
12.0
141
12.0
290
0
  0
TABLESTYLE
  5
87
102
{ACAD_REACTORS
330
86
102
}
102
{ACAD_XDICTIONARY
360
12E
102
}
330
86
100
AcDbTableStyle
  3
Standard
 70
0
 71
0
 40
0.06
 41
0.06
280
0
281
0
  7
Standard
140
0.18
170
2
 62
0
 63
257
283
0
 90
512
 91
0
  1

274
-2
284
1
 64
0
275
-2
285
1
 65
0
276
-2
286
1
 66
0
277
-2
287
1
 67
0
278
-2
288
1
 68
0
279
-2
289
1
 69
0
  7
Standard
140
0.25
170
5
 62
0
 63
257
283
0
 90
512
 91
0
  1

274
-2
284
1
 64
0
275
-2
285
1
 65
0
276
-2
286
1
 66
0
277
-2
287
1
 67
0
278
-2
288
1
 68
0
279
-2
289
1
 69
0
  7
Standard
140
0.18
170
5
 62
0
 63
257
283
0
 90
512
 91
0
  1

274
-2
284
1
 64
0
275
-2
285
1
 65
0
276
-2
286
1
 66
0
277
-2
287
1
 67
0
278
-2
288
1
 68
0
279
-2
289
1
 69
0
  0
VISUALSTYLE
  5
9F
102
{ACAD_REACTORS
330
99
102
}
330
99
100
AcDbVisualStyle
  2
2dWireframe
 70
4
177
2
291
0
 71
0
176
1
 72
0
176
1
 73
0
176
1
 90
0
176
1
 40
-0.6
176
1
 41
-30.0
176
1
 62
5
 63
7
421
16777215
 74
0
176
1
 74
4
176
1
 64
7
176
1
 65
257
176
1
 75
1
176
1
175
1
176
1
 42
1.0
176
1
 92
0
176
1
 66
257
176
1
 43
1.0
176
1
 76
1
176
1
 77
6
176
1
 78
2
176
1
 67
7
176
1
 79
5
176
1
170
0
176
1
171
0
176
1
290
0
176
1
174
0
176
1
 93
1
176
1
 44
0.0
176
1
173
0
176
1
  0
VISUALSTYLE
  5
A1
102
{ACAD_REACTORS
330
99
102
}
330
99
100
AcDbVisualStyle
  2
3D Hidden
 70
6
177
2
291
0
 71
1
176
1
 72
1
176
1
 73
1
176
1
 90
0
176
1
 40
-0.6
176
1
 41
-30.0
176
1
 62
5
 63
7
421
16777215
 74
1
176
1
 74
2
176
1
 64
7
176
1
 65
257
176
1
 75
2
176
1
175
1
176
1
 42
40.0
176
1
 92
0
176
1
 66
257
176
1
 43
1.0
176
1
 76
1
176
1
 77
6
176
1
 78
2
176
1
 67
7
176
1
 79
3
176
1
170
0
176
1
171
0
176
1
290
0
176
1
174
0
176
1
 93
1
176
1
 44
0.0
176
1
173
0
176
1
  0
VISUALSTYLE
  5
A0
102
{ACAD_REACTORS
330
99
102
}
330
99
100
AcDbVisualStyle
  2
3dWireframe
 70
5
177
2
291
0
 71
0
176
1
 72
0
176
1
 73
0
176
1
 90
0
176
1
 40
-0.6
176
1
 41
-30.0
176
1
 62
5
 63
7
421
16777215
 74
0
176
1
 74
4
176
1
 64
7
176
1
 65
257
176
1
 75
1
176
1
175
1
176
1
 42
1.0
176
1
 92
0
176
1
 66
257
176
1
 43
1.0
176
1
 76
1
176
1
 77
6
176
1
 78
2
176
1
 67
7
176
1
 79
5
176
1
170
0
176
1
171
0
176
1
290
0
176
1
174
0
176
1
 93
1
176
1
 44
0.0
176
1
173
0
176
1
  0
VISUALSTYLE
  5
9E
102
{ACAD_REACTORS
330
99
102
}
330
99
100
AcDbVisualStyle
  2
Basic
 70
7
177
2
291
0
 71
1
176
1
 72
1
176
1
 73
1
176
1
 90
0
176
1
 40
-0.6
176
1
 41
-30.0
176
1
 62
5
 63
7
421
16777215
 74
1
176
1
 74
4
176
1
 64
7
176
1
 65
257
176
1
 75
1
176
1
175
1
176
1
 42
1.0
176
1
 92
8
176
1
 66
7
176
1
 43
1.0
176
1
 76
1
176
1
 77
6
176
1
 78
2
176
1
 67
7
176
1
 79
5
176
1
170
0
176
1
171
0
176
1
290
0
176
1
174
0
176
1
 93
1
176
1
 44
0.0
176
1
173
0
176
1
  0
VISUALSTYLE
  5
A5
102
{ACAD_REACTORS
330
99
102
}
330
99
100
AcDbVisualStyle
  2
Brighten
 70
12
177
2
291
0
 71
2
176
1
 72
2
176
1
 73
2
176
1
 90
0
176
1
 40
-0.6
176
1
 41
-30.0
176
1
 62
5
 63
7
421
16777215
 74
2
176
1
 74
4
176
1
 64
7
176
1
 65
257
176
1
 75
1
176
1
175
1
176
1
 42
1.0
176
1
 92
8
176
1
 66
7
176
1
 43
1.0
176
1
 76
1
176
1
 77
6
176
1
 78
2
176
1
 67
7
176
1
 79
5
176
1
170
0
176
1
171
0
176
1
290
0
176
1
174
0
176
1
 93
1
176
1
 44
50.0
176
1
173
0
176
1
  0
VISUALSTYLE
  5
A9
102
{ACAD_REACTORS
330
99
102
}
330
99
100
AcDbVisualStyle
  2
ColorChange
 70
16
177
2
291
0
 71
2
176
1
 72
2
176
1
 73
2
176
1
 90
0
176
1
 40
-0.6
176
1
 41
-30.0
176
1
 62
5
 63
8
421
8421504
 74
2
176
1
 74
4
176
1
 64
7
176
1
 65
257
176
1
 75
1
176
1
175
1
176
1
 42
1.0
176
1
 92
8
176
1
 66
8
176
1
 43
1.0
176
1
 76
1
176
1
 77
6
176
1
 78
2
176
1
 67
7
176
1
 79
5
176
1
170
0
176
1
171
0
176
1
290
0
176
1
174
0
176
1
 93
1
176
1
 44
0.0
176
1
173
0
176
1
  0
VISUALSTYLE
  5
A2
102
{ACAD_REACTORS
330
99
102
}
330
99
100
AcDbVisualStyle
  2
Conceptual
 70
9
177
2
291
0
 71
3
176
1
 72
3
176
1
 73
3
176
1
 90
0
176
1
 40
-0.6
176
1
 41
-30.0
176
1
 62
5
 63
7
421
16777215
 74
3
176
1
 74
2
176
1
 64
7
176
1
 65
257
176
1
 75
1
176
1
175
1
176
1
 42
40.0
176
1
 92
8
176
1
 66
7
176
1
 43
1.0
176
1
 76
1
176
1
 77
6
176
1
 78
2
176
1
 67
7
176
1
 79
3
176
1
170
0
176
1
171
0
176
1
290
0
176
1
174
0
176
1
 93
1
176
1
 44
0.0
176
1
173
0
176
1
  0
VISUALSTYLE
  5
A4
102
{ACAD_REACTORS
330
99
102
}
330
99
100
AcDbVisualStyle
  2
Dim
 70
11
177
2
291
0
 71
2
176
1
 72
2
176
1
 73
2
176
1
 90
0
176
1
 40
-0.6
176
1
 41
-30.0
176
1
 62
5
 63
7
421
16777215
 74
2
176
1
 74
4
176
1
 64
7
176
1
 65
257
176
1
 75
1
176
1
175
1
176
1
 42
1.0
176
1
 92
8
176
1
 66
7
176
1
 43
1.0
176
1
 76
1
176
1
 77
6
176
1
 78
2
176
1
 67
7
176
1
 79
5
176
1
170
0
176
1
171
0
176
1
290
0
176
1
174
0
176
1
 93
1
176
1
 44
-50.0
176
1
173
0
176
1
  0
VISUALSTYLE
  5
E7
102
{ACAD_REACTORS
330
99
102
}
330
99
100
AcDbVisualStyle
  2
EdgeColorOff
 70
22
177
2
291
0
 71
2
176
1
 72
2
176
1
 73
2
176
1
 90
0
176
1
 40
-0.6
176
1
 41
30.0
176
1
 62
5
 63
7
421
16777215
 74
2
176
1
 74
4
176
1
 64
7
176
1
 65
257
176
1
 75
1
176
1
175
1
176
1
 42
1.0
176
1
 92
8
176
1
 66
7
176
1
 43
1.0
176
1
 76
1
176
1
 77
6
176
1
 78
2
176
1
 67
7
176
1
 79
5
176
1
170
0
176
1
171
0
176
1
290
0
176
1
174
0
176
1
 93
1
176
1
 44
0.0
176
1
173
0
176
1
  0
VISUALSTYLE
  5
A8
102
{ACAD_REACTORS
330
99
102
}
330
99
100
AcDbVisualStyle
  2
Facepattern
 70
15
177
2
291
0
 71
2
176
1
 72
2
176
1
 73
2
176
1
 90
0
176
1
 40
-0.6
176
1
 41
-30.0
176
1
 62
5
 63
7
421
16777215
 74
2
176
1
 74
4
176
1
 64
7
176
1
 65
257
176
1
 75
1
176
1
175
1
176
1
 42
1.0
176
1
 92
8
176
1
 66
7
176
1
 43
1.0
176
1
 76
1
176
1
 77
6
176
1
 78
2
176
1
 67
7
176
1
 79
5
176
1
170
0
176
1
171
0
176
1
290
0
176
1
174
0
176
1
 93
1
176
1
 44
0.0
176
1
173
0
176
1
  0
VISUALSTYLE
  5
9A
102
{ACAD_REACTORS
330
99
102
}
330
99
100
AcDbVisualStyle
  2
Flat
 70
0
177
2
291
0
 71
2
176
1
 72
2
176
1
 73
2
176
1
 90
2
176
1
 40
-0.6
176
1
 41
30.0
176
1
 62
5
 63
7
421
16777215
 74
2
176
1
 74
4
176
1
 64
7
176
1
 65
257
176
1
 75
1
176
1
175
1
176
1
 42
1.0
176
1
 92
8
176
1
 66
7
176
1
 43
1.0
176
1
 76
1
176
1
 77
6
176
1
 78
2
176
1
 67
7
176
1
 79
5
176
1
170
0
176
1
171
0
176
1
290
0
176
1
174
0
176
1
 93
1
176
1
 44
0.0
176
1
173
0
176
1
  0
VISUALSTYLE
  5
9B
102
{ACAD_REACTORS
330
99
102
}
330
99
100
AcDbVisualStyle
  2
FlatWithEdges
 70
1
177
2
291
0
 71
2
176
1
 72
2
176
1
 73
2
176
1
 90
2
176
1
 40
-0.6
176
1
 41
30.0
176
1
 62
5
 63
7
421
16777215
 74
2
176
1
 74
4
176
1
 64
7
176
1
 65
257
176
1
 75
1
176
1
175
1
176
1
 42
1.0
176
1
 92
0
176
1
 66
257
176
1
 43
1.0
176
1
 76
1
176
1
 77
6
176
1
 78
2
176
1
 67
7
176
1
 79
5
176
1
170
0
176
1
171
0
176
1
290
0
176
1
174
0
176
1
 93
1
176
1
 44
0.0
176
1
173
0
176
1
  0
VISUALSTYLE
  5
9C
102
{ACAD_REACTORS
330
99
102
}
330
99
100
AcDbVisualStyle
  2
Gouraud
 70
2
177
2
291
0
 71
2
176
1
 72
2
176
1
 73
2
176
1
 90
2
176
1
 40
-0.6
176
1
 41
30.0
176
1
 62
5
 63
7
421
16777215
 74
2
176
1
 74
4
176
1
 64
7
176
1
 65
257
176
1
 75
1
176
1
175
1
176
1
 42
1.0
176
1
 92
0
176
1
 66
7
176
1
 43
1.0
176
1
 76
1
176
1
 77
6
176
1
 78
2
176
1
 67
7
176
1
 79
5
176
1
170
0
176
1
171
0
176
1
290
0
176
1
174
0
176
1
 93
1
176
1
 44
0.0
176
1
173
0
176
1
  0
VISUALSTYLE
  5
9D
102
{ACAD_REACTORS
330
99
102
}
330
99
100
AcDbVisualStyle
  2
GouraudWithEdges
 70
3
177
2
291
0
 71
2
176
1
 72
2
176
1
 73
2
176
1
 90
2
176
1
 40
-0.6
176
1
 41
30.0
176
1
 62
5
 63
7
421
16777215
 74
2
176
1
 74
4
176
1
 64
7
176
1
 65
257
176
1
 75
1
176
1
175
1
176
1
 42
1.0
176
1
 92
0
176
1
 66
257
176
1
 43
1.0
176
1
 76
1
176
1
 77
6
176
1
 78
2
176
1
 67
7
176
1
 79
5
176
1
170
0
176
1
171
0
176
1
290
0
176
1
174
0
176
1
 93
1
176
1
 44
0.0
176
1
173
0
176
1
  0
VISUALSTYLE
  5
E4
102
{ACAD_REACTORS
330
99
102
}
330
99
100
AcDbVisualStyle
  2
Hidden
 70
6
177
2
291
0
 71
1
176
1
 72
1
176
1
 73
1
176
1
 90
0
176
1
 40
0.6
176
1
 41
30.0
176
1
 62
5
 63
7
421
16777215
 74
1
176
1
 74
2
176
1
 64
7
176
1
 65
257
176
1
 75
2
176
1
175
1
176
1
 42
40.0
176
1
 92
0
176
1
 66
257
176
1
 43
1.0
176
1
 76
1
176
1
 77
6
176
1
 78
2
176
1
 67
7
176
1
 79
3
176
1
170
0
176
1
171
0
176
1
290
0
176
1
174
0
176
1
 93
1
176
1
 44
0.0
176
1
173
0
176
1
  0
VISUALSTYLE
  5
E5
102
{ACAD_REACTORS
330
99
102
}
330
99
100
AcDbVisualStyle
  2
JitterOff
 70
20
177
2
291
0
 71
2
176
1
 72
2
176
1
 73
2
176
1
 90
0
176
1
 40
0.6
176
1
 41
30.0
176
1
 62
5
 63
7
421
16777215
 74
2
176
1
 74
4
176
1
 64
7
176
1
 65
257
176
1
 75
1
176
1
175
1
176
1
 42
1.0
176
1
 92
10
176
1
 66
7
176
1
 43
1.0
176
1
 76
1
176
1
 77
6
176
1
 78
2
176
1
 67
7
176
1
 79
5
176
1
170
0
176
1
171
0
176
1
290
0
176
1
174
0
176
1
 93
1
176
1
 44
0.0
176
1
173
0
176
1
  0
VISUALSTYLE
  5
A7
102
{ACAD_REACTORS
330
99
102
}
330
99
100
AcDbVisualStyle
  2
Linepattern
 70
14
177
2
291
0
 71
2
176
1
 72
2
176
1
 73
2
176
1
 90
0
176
1
 40
-0.6
176
1
 41
-30.0
176
1
 62
5
 63
7
421
16777215
 74
2
176
1
 74
4
176
1
 64
7
176
1
 65
257
176
1
 75
7
176
1
175
1
176
1
 42
1.0
176
1
 92
8
176
1
 66
7
176
1
 43
1.0
176
1
 76
1
176
1
 77
6
176
1
 78
2
176
1
 67
7
176
1
 79
5
176
1
170
0
176
1
171
0
176
1
290
0
176
1
174
0
176
1
 93
1
176
1
 44
0.0
176
1
173
0
176
1
  0
VISUALSTYLE
  5
E6
102
{ACAD_REACTORS
330
99
102
}
330
99
100
AcDbVisualStyle
  2
OverhangOff
 70
21
177
2
291
0
 71
2
176
1
 72
2
176
1
 73
2
176
1
 90
0
176
1
 40
0.6
176
1
 41
30.0
176
1
 62
5
 63
7
421
16777215
 74
2
176
1
 74
4
176
1
 64
7
176
1
 65
257
176
1
 75
1
176
1
175
1
176
1
 42
1.0
176
1
 92
9
176
1
 66
7
176
1
 43
1.0
176
1
 76
1
176
1
 77
6
176
1
 78
2
176
1
 67
7
176
1
 79
5
176
1
170
0
176
1
171
0
176
1
290
0
176
1
174
0
176
1
 93
1
176
1
 44
0.0
176
1
173
0
176
1
  0
VISUALSTYLE
  5
A3
102
{ACAD_REACTORS
330
99
102
}
330
99
100
AcDbVisualStyle
  2
Realistic
 70
8
177
2
291
0
 71
2
176
1
 72
2
176
1
 73
2
176
1
 90
0
176
1
 40
-0.6
176
1
 41
-30.0
176
1
 62
5
 63
7
421
16777215
 74
2
176
1
 74
0
176
1
 64
7
176
1
 65
257
176
1
 75
1
176
1
175
1
176
1
 42
1.0
176
1
 92
8
176
1
 66
8
176
1
 43
1.0
176
1
 76
1
176
1
 77
6
176
1
 78
2
176
1
 67
7
176
1
 79
5
176
1
170
0
176
1
171
0
176
1
290
0
176
1
174
0
176
1
 93
1
176
1
 44
0.0
176
1
173
0
176
1
  0
VISUALSTYLE
  5
EC
102
{ACAD_REACTORS
330
99
102
}
330
99
100
AcDbVisualStyle
  2
Shaded
 70
27
177
2
291
0
 71
2
176
1
 72
2
176
1
 73
2
176
1
 90
2
176
1
 40
0.6
176
1
 41
30.0
176
1
 62
5
 63
7
421
16777215
 74
2
176
1
 74
4
176
1
 64
7
176
1
 65
257
176
1
 75
1
176
1
175
1
176
1
 42
1.0
176
1
 92
8
176
1
 66
257
176
1
 43
1.0
176
1
 76
1
176
1
 77
6
176
1
 78
2
176
1
 67
8
176
1
 79
3
176
1
170
0
176
1
171
0
176
1
290
0
176
1
174
0
176
1
 93
1
176
1
 44
0.0
176
1
173
0
176
1
  0
VISUALSTYLE
  5
EB
102
{ACAD_REACTORS
330
99
102
}
330
99
100
AcDbVisualStyle
  2
Shaded with edges
 70
26
177
2
291
0
 71
2
176
1
 72
2
176
1
 73
2
176
1
 90
2
176
1
 40
0.6
176
1
 41
30.0
176
1
 62
5
 63
7
421
16777215
 74
2
176
1
 74
10
176
1
 64
7
176
1
 65
257
176
1
 75
2
176
1
175
1
176
1
 42
1.0
176
1
 92
8
176
1
 66
257
176
1
 43
1.0
176
1
 76
1
176
1
 77
6
176
1
 78
2
176
1
 67
7
176
1
 79
3
176
1
170
0
176
1
171
0
176
1
290
0
176
1
174
0
176
1
 93
1
176
1
 44
0.0
176
1
173
0
176
1
  0
VISUALSTYLE
  5
E8
102
{ACAD_REACTORS
330
99
102
}
330
99
100
AcDbVisualStyle
  2
Shades of Gray
 70
23
177
2
291
0
 71
2
176
1
 72
2
176
1
 73
2
176
1
 90
0
176
1
 40
0.6
176
1
 41
30.0
176
1
 62
5
 63
7
421
16777215
 74
2
176
1
 74
2
176
1
 64
7
176
1
 65
65
176
1
 75
1
176
1
175
1
176
1
 42
40.0
176
1
 92
8
176
1
 66
7
176
1
 43
1.0
176
1
 76
1
176
1
 77
6
176
1
 78
2
176
1
 67
7
176
1
 79
3
176
1
170
0
176
1
171
0
176
1
290
0
176
1
174
0
176
1
 93
1
176
1
 44
0.0
176
1
173
0
176
1
  0
VISUALSTYLE
  5
E9
102
{ACAD_REACTORS
330
99
102
}
330
99
100
AcDbVisualStyle
  2
Sketchy
 70
24
177
2
291
0
 71
1
176
1
 72
1
176
1
 73
1
176
1
 90
0
176
1
 40
0.6
176
1
 41
30.0
176
1
 62
5
 63
7
421
16777215
 74
1
176
1
 74
2
176
1
 64
7
176
1
 65
7
176
1
 75
1
176
1
175
1
176
1
 42
40.0
176
1
 92
11
176
1
 66
7
176
1
 43
1.0
176
1
 76
1
176
1
 77
6
176
1
 78
2
176
1
 67
7
176
1
 79
6
176
1
170
0
176
1
171
0
176
1
290
0
176
1
174
0
176
1
 93
1
176
1
 44
0.0
176
1
173
0
176
1
  0
VISUALSTYLE
  5
A6
102
{ACAD_REACTORS
330
99
102
}
330
99
100
AcDbVisualStyle
  2
Thicken
 70
13
177
2
291
0
 71
2
176
1
 72
2
176
1
 73
2
176
1
 90
0
176
1
 40
-0.6
176
1
 41
-30.0
176
1
 62
5
 63
7
421
16777215
 74
2
176
1
 74
4
176
1
 64
7
176
1
 65
257
176
1
 75
1
176
1
175
1
176
1
 42
1.0
176
1
 92
12
176
1
 66
7
176
1
 43
1.0
176
1
 76
1
176
1
 77
6
176
1
 78
2
176
1
 67
7
176
1
 79
5
176
1
170
0
176
1
171
0
176
1
290
0
176
1
174
0
176
1
 93
1
176
1
 44
0.0
176
1
173
0
176
1
  0
VISUALSTYLE
  5
E3
102
{ACAD_REACTORS
330
99
102
}
330
99
100
AcDbVisualStyle
  2
Wireframe
 70
5
177
2
291
0
 71
0
176
1
 72
0
176
1
 73
0
176
1
 90
0
176
1
 40
0.6
176
1
 41
30.0
176
1
 62
5
 63
7
421
16777215
 74
0
176
1
 74
4
176
1
 64
7
176
1
 65
257
176
1
 75
1
176
1
175
1
176
1
 42
1.0
176
1
 92
0
176
1
 66
257
176
1
 43
1.0
176
1
 76
1
176
1
 77
6
176
1
 78
2
176
1
 67
7
176
1
 79
3
176
1
170
0
176
1
171
0
176
1
290
0
176
1
174
0
176
1
 93
1
176
1
 44
0.0
176
1
173
0
176
1
  0
VISUALSTYLE
  5
EA
102
{ACAD_REACTORS
330
99
102
}
330
99
100
AcDbVisualStyle
  2
X-Ray
 70
25
177
2
291
0
 71
2
176
1
 72
2
176
1
 73
2
176
1
 90
1
176
1
 40
0.5
176
1
 41
30.0
176
1
 62
5
 63
7
421
16777215
 74
2
176
1
 74
0
176
1
 64
7
176
1
 65
257
176
1
 75
1
176
1
175
1
176
1
 42
1.0
176
1
 92
8
176
1
 66
7
176
1
 43
1.0
176
1
 76
1
176
1
 77
6
176
1
 78
2
176
1
 67
7
176
1
 79
3
176
1
170
0
176
1
171
0
176
1
290
0
176
1
174
0
176
1
 93
1
176
1
 44
0.0
176
1
173
0
176
1
  0
DICTIONARYVAR
  5
D8
102
{ACAD_REACTORS
330
66
102
}
330
66
100
DictionaryVariables
280
0
  1
1:1
  0
DICTIONARYVAR
  5
89
102
{ACAD_REACTORS
330
66
102
}
330
66
100
DictionaryVariables
280
0
  1
Standard
  0
DICTIONARYVAR
  5
67
102
{ACAD_REACTORS
330
66
102
}
330
66
100
DictionaryVariables
280
0
  1
2
  0
DICTIONARYVAR
  5
6B
102
{ACAD_REACTORS
330
66
102
}
330
66
100
DictionaryVariables
280
0
  1
1
  0
DICTIONARYVAR
  5
DF
102
{ACAD_REACTORS
330
66
102
}
330
66
100
DictionaryVariables
280
0
  1
0
  0
DICTIONARYVAR
  5
E0
102
{ACAD_REACTORS
330
66
102
}
330
66
100
DictionaryVariables
280
0
  1
0
  0
DICTIONARY
  5
12E
330
87
100
AcDbDictionary
280
1
281
1
  3
ACAD_ROUNDTRIP_2008_TABLESTYLE_CELLSTYLEMAP
360
12F
  0
CELLSTYLEMAP
  5
12F
102
{ACAD_REACTORS
330
12E
102
}
330
12E
100
AcDbCellStyleMap
 90
3
300
CELLSTYLE
  1
TABLEFORMAT_BEGIN
 90
5
170
1
 91
0
 92
32768
 62
257
 93
1
300
CONTENTFORMAT
  1
CONTENTFORMAT_BEGIN
 90
0
 91
0
 92
512
 93
0
300

 40
0.0
140
1.0
 94
5
 62
0
340
11
144
0.25
309
CONTENTFORMAT_END
171
0
 94
6
 95
1
302
GRIDFORMAT
  1
GRIDFORMAT_BEGIN
 90
0
 91
1
 62
0
 92
-2
340
0
 93
0
 40
0.045
309
GRIDFORMAT_END
 95
2
302
GRIDFORMAT
  1
GRIDFORMAT_BEGIN
 90
0
 91
1
 62
0
 92
-2
340
0
 93
0
 40
0.045
309
GRIDFORMAT_END
 95
4
302
GRIDFORMAT
  1
GRIDFORMAT_BEGIN
 90
0
 91
1
 62
0
 92
-2
340
0
 93
0
 40
0.045
309
GRIDFORMAT_END
 95
8
302
GRIDFORMAT
  1
GRIDFORMAT_BEGIN
 90
0
 91
1
 62
0
 92
-2
340
0
 93
0
 40
0.045
309
GRIDFORMAT_END
 95
16
302
GRIDFORMAT
  1
GRIDFORMAT_BEGIN
 90
0
 91
1
 62
0
 92
-2
340
0
 93
0
 40
0.045
309
GRIDFORMAT_END
 95
32
302
GRIDFORMAT
  1
GRIDFORMAT_BEGIN
 90
0
 91
1
 62
0
 92
-2
340
0
 93
0
 40
0.045
309
GRIDFORMAT_END
309
TABLEFORMAT_END
  1
CELLSTYLE_BEGIN
 90
1
 91
1
300
_TITLE
309
CELLSTYLE_END
300
CELLSTYLE
  1
TABLEFORMAT_BEGIN
 90
5
170
1
 91
0
 92
0
 62
257
 93
1
300
CONTENTFORMAT
  1
CONTENTFORMAT_BEGIN
 90
0
 91
0
 92
512
 93
0
300

 40
0.0
140
1.0
 94
5
 62
0
340
11
144
0.18
309
CONTENTFORMAT_END
171
0
 94
6
 95
1
302
GRIDFORMAT
  1
GRIDFORMAT_BEGIN
 90
0
 91
1
 62
0
 92
-2
340
0
 93
0
 40
0.045
309
GRIDFORMAT_END
 95
2
302
GRIDFORMAT
  1
GRIDFORMAT_BEGIN
 90
0
 91
1
 62
0
 92
-2
340
0
 93
0
 40
0.045
309
GRIDFORMAT_END
 95
4
302
GRIDFORMAT
  1
GRIDFORMAT_BEGIN
 90
0
 91
1
 62
0
 92
-2
340
0
 93
0
 40
0.045
309
GRIDFORMAT_END
 95
8
302
GRIDFORMAT
  1
GRIDFORMAT_BEGIN
 90
0
 91
1
 62
0
 92
-2
340
0
 93
0
 40
0.045
309
GRIDFORMAT_END
 95
16
302
GRIDFORMAT
  1
GRIDFORMAT_BEGIN
 90
0
 91
1
 62
0
 92
-2
340
0
 93
0
 40
0.045
309
GRIDFORMAT_END
 95
32
302
GRIDFORMAT
  1
GRIDFORMAT_BEGIN
 90
0
 91
1
 62
0
 92
-2
340
0
 93
0
 40
0.045
309
GRIDFORMAT_END
309
TABLEFORMAT_END
  1
CELLSTYLE_BEGIN
 90
2
 91
1
300
_HEADER
309
CELLSTYLE_END
300
CELLSTYLE
  1
TABLEFORMAT_BEGIN
 90
5
170
1
 91
0
 92
0
 62
257
 93
1
300
CONTENTFORMAT
  1
CONTENTFORMAT_BEGIN
 90
0
 91
0
 92
512
 93
0
300

 40
0.0
140
1.0
 94
2
 62
0
340
11
144
0.18
309
CONTENTFORMAT_END
171
0
 94
6
 95
1
302
GRIDFORMAT
  1
GRIDFORMAT_BEGIN
 90
0
 91
1
 62
0
 92
-2
340
0
 93
0
 40
0.045
309
GRIDFORMAT_END
 95
2
302
GRIDFORMAT
  1
GRIDFORMAT_BEGIN
 90
0
 91
1
 62
0
 92
-2
340
0
 93
0
 40
0.045
309
GRIDFORMAT_END
 95
4
302
GRIDFORMAT
  1
GRIDFORMAT_BEGIN
 90
0
 91
1
 62
0
 92
-2
340
0
 93
0
 40
0.045
309
GRIDFORMAT_END
 95
8
302
GRIDFORMAT
  1
GRIDFORMAT_BEGIN
 90
0
 91
1
 62
0
 92
-2
340
0
 93
0
 40
0.045
309
GRIDFORMAT_END
 95
16
302
GRIDFORMAT
  1
GRIDFORMAT_BEGIN
 90
0
 91
1
 62
0
 92
-2
340
0
 93
0
 40
0.045
309
GRIDFORMAT_END
 95
32
302
GRIDFORMAT
  1
GRIDFORMAT_BEGIN
 90
0
 91
1
 62
0
 92
-2
340
0
 93
0
 40
0.045
309
GRIDFORMAT_END
309
TABLEFORMAT_END
  1
CELLSTYLE_BEGIN
 90
3
 91
2
300
_DATA
309
CELLSTYLE_END
  0
ENDSEC
  0
EOF
