999
dxfrw 0.6.3
  0
SECTION
  2
HEADER
  9
$ACADVER
  1
AC1021
  9
$DWGCODEPAGE
  3
ANSI_1252
  9
$INSBASE
 10
0
 20
0
 30
0
  9
$EXTMIN
 10
10000000000
 20
10000000000
 30
0
  9
$EXTMAX
 10
-10000000000
 20
-10000000000
 30
0
  9
$LIMMIN
 10
0
 20
0
  9
$LIMMAX
 10
420
 20
297
  9
$ORTHOMODE
 70
    0
  9
$REGENMODE
 70
    1
  9
$FILLMODE
 70
    1
  9
$QTEXTMODE
 70
    0
  9
$MIRRTEXT
 70
    0
  9
$LTSCALE
 40
1
  9
$ATTMODE
 70
    0
  9
$TEXTSIZE
 40
2.5
  9
$TRACEWID
 40
15.68
  9
$TEXTSTYLE
  7
STANDARD
  9
$CLAYER
  8
hatch
  9
$CELTYPE
  6
BYLAYER
  9
$CECOLOR
 62
  256
  9
$CELTSCALE
 40
1
  9
$DISPSILH
 70
    0
  9
$DIMSCALE
 40
2.5
  9
$DIMASZ
 40
0.1
  9
$DIMEXO
 40
0.025
  9
$DIMDLI
 40
3.75
  9
$DIMRND
 40
0
  9
$DIMDLE
 40
0
  9
$DIMEXE
 40
0.05
  9
$DIMTP
 40
0
  9
$DIMTM
 40
0
  9
$DIMTXT
 40
0.1
  9
$DIMCEN
 40
2.5
  9
$DIMTSZ
 40
0
  9
$DIMTOL
 70
    0
  9
$DIMLIM
 70
    0
  9
$DIMTIH
 70
    0
  9
$DIMTOH
 70
    0
  9
$DIMSE1
 70
    0
  9
$DIMSE2
 70
    0
  9
$DIMTAD
 70
    1
  9
$DIMZIN
 70
    1
  9
$DIMBLK
  1

  9
$DIMASO
 70
    1
  9
$DIMSHO
 70
    1
  9
$DIMPOST
  1

  9
$DIMAPOST
  1

  9
$DIMALT
 70
    0
  9
$DIMALTD
 70
    3
  9
$DIMALTF
 40
0.03937
  9
$DIMLFAC
 40
1
  9
$DIMTOFL
 70
    1
  9
$DIMTVP
 40
0
  9
$DIMTIX
 70
    0
  9
$DIMSOXD
 70
    0
  9
$DIMSAH
 70
    0
  9
$DIMBLK1
  1

  9
$DIMBLK2
  1

  9
$DIMSTYLE
  2
STANDARD
  9
$DIMCLRD
 70
    0
  9
$DIMCLRE
 70
    0
  9
$DIMCLRT
 70
    0
  9
$DIMTFAC
 40
1
  9
$DIMGAP
 40
0.025
  9
$DIMJUST
 70
    0
  9
$DIMSD1
 70
    0
  9
$DIMSD2
 70
    0
  9
$DIMTOLJ
 70
    0
  9
$DIMTZIN
 70
    8
  9
$DIMALTZ
 70
    0
  9
$DIMALTTZ
 70
    0
  9
$DIMUPT
 70
    0
  9
$DIMDEC
 70
    4
  9
$DIMTDEC
 70
    2
  9
$DIMALTU
 70
    2
  9
$DIMALTTD
 70
    3
  9
$DIMTXSTY
  7
standard
  9
$DIMAUNIT
 70
    0
  9
$DIMADEC
 70
    2
  9
$DIMALTRND
 40
0
  9
$DIMAZIN
 70
    0
  9
$DIMDSEP
 70
   44
  9
$DIMATFIT
 70
    3
  9
$DIMFRAC
 70
    0
  9
$DIMLDRBLK
  1
STANDARD
  9
$DIMLUNIT
 70
    2
  9
$DIMLWD
 70
   -2
  9
$DIMLWE
 70
   -2
  9
$DIMTMOVE
 70
    0
  9
$DIMFXL
 40
0.04
  9
$DIMFXLON
 70
    0
  9
$DIMJOGANG
 40
0.7854
  9
$DIMTFILL
 70
    0
  9
$DIMTFILLCLR
 70
    0
  9
$DIMARCSYM
 70
    0
  9
$DIMLTYPE
  6

  9
$DIMLTEX1
  6

  9
$DIMLTEX2
  6

  9
$LUNITS
 70
    2
  9
$LUPREC
 70
    4
  9
$SKETCHINC
 40
1
  9
$FILLETRAD
 40
0
  9
$AUNITS
 70
    0
  9
$AUPREC
 70
    2
  9
$MENU
  1
.
  9
$ELEVATION
 40
0
  9
$PELEVATION
 40
0
  9
$THICKNESS
 40
0
  9
$LIMCHECK
 70
    0
  9
$CHAMFERA
 40
0
  9
$CHAMFERB
 40
0
  9
$CHAMFERC
 40
0
  9
$CHAMFERD
 40
0
  9
$SKPOLY
 70
    0
  9
$USRTIMER
 70
    1
  9
$ANGBASE
 50
0
  9
$ANGDIR
 70
    0
  9
$PDMODE
 70
   34
  9
$PDSIZE
 40
0
  9
$PLINEWID
 40
0
  9
$SPLFRAME
 70
    0
  9
$SPLINETYPE
 70
    2
  9
$SPLINESEGS
 70
    8
  9
$HANDSEED
  5
20000
  9
$SURFTAB1
 70
    6
  9
$SURFTAB2
 70
    6
  9
$SURFTYPE
 70
    6
  9
$SURFU
 70
    6
  9
$SURFV
 70
    6
  9
$UCSBASE
  2

  9
$UCSNAME
  2

  9
$UCSORG
 10
0
 20
0
 30
0
  9
$UCSXDIR
 10
1
 20
0
 30
0
  9
$UCSYDIR
 10
0
 20
1
 30
0
  9
$UCSORTHOREF
  2

  9
$UCSORTHOVIEW
 70
    0
  9
$UCSORGTOP
 10
0
 20
0
 30
0
  9
$UCSORGBOTTOM
 10
0
 20
0
 30
0
  9
$UCSORGLEFT
 10
0
 20
0
 30
0
  9
$UCSORGRIGHT
 10
0
 20
0
 30
0
  9
$UCSORGFRONT
 10
0
 20
0
 30
0
  9
$UCSORGBACK
 10
0
 20
0
 30
0
  9
$PUCSBASE
  2

  9
$PUCSNAME
  2

  9
$PUCSORG
 10
0
 20
0
 30
0
  9
$PUCSXDIR
 10
1
 20
0
 30
0
  9
$PUCSYDIR
 10
0
 20
1
 30
0
  9
$PUCSORTHOREF
  2

  9
$PUCSORTHOVIEW
 70
    0
  9
$PUCSORGTOP
 10
0
 20
0
 30
0
  9
$PUCSORGBOTTOM
 10
0
 20
0
 30
0
  9
$PUCSORGLEFT
 10
0
 20
0
 30
0
  9
$PUCSORGRIGHT
 10
0
 20
0
 30
0
  9
$PUCSORGFRONT
 10
0
 20
0
 30
0
  9
$PUCSORGBACK
 10
0
 20
0
 30
0
  9
$USERI1
 70
    0
  9
$USERI2
 70
    0
  9
$USERI3
 70
    0
  9
$USERI4
 70
    0
  9
$USERI5
 70
    0
  9
$USERR1
 40
0
  9
$USERR2
 40
0
  9
$USERR3
 40
0
  9
$USERR4
 40
0
  9
$USERR5
 40
0
  9
$WORLDVIEW
 70
    1
  9
$SHADEDGE
 70
    3
  9
$SHADEDIF
 70
   70
  9
$TILEMODE
 70
    1
  9
$MAXACTVP
 70
   64
  9
$PINSBASE
 10
0
 20
0
 30
0
  9
$PLIMCHECK
 70
    0
  9
$PEXTMIN
 10
0
 20
0
 30
0
  9
$PEXTMAX
 10
0
 20
0
 30
0
  9
$GRIDMODE
 70
    1
  9
$SNAPSTYLE
 70
    0
  9
$GRIDUNIT
 10
0.25
 20
0.25
  9
$PLIMMIN
 10
0
 20
0
  9
$PLIMMAX
 10
0
 20
0
  9
$UNITMODE
 70
    0
  9
$VISRETAIN
 70
    1
  9
$PLINEGEN
 70
    0
  9
$PSLTSCALE
 70
    1
  9
$TREEDEPTH
 70
 3020
  9
$CMLSTYLE
  2
Standard
  9
$CMLJUST
 70
    0
  9
$CMLSCALE
 40
20
  9
$PROXYGRAPHICS
 70
    1
  9
$MEASUREMENT
 70
    1
  9
$CELWEIGHT
370
   -1
  9
$ENDCAPS
280
    0
  9
$JOINSTYLE
280
    0
  9
$LWDISPLAY
290
    0
  9
$INSUNITS
 70
    1
  9
$HYPERLINKBASE
  1

  9
$STYLESHEET
  1

  9
$XEDIT
290
    1
  9
$CEPSNTYPE
380
    0
  9
$PSTYLEMODE
290
    1
  9
$EXTNAMES
290
    1
  9
$PSVPSCALE
 40
1
  9
$OLESTARTUP
290
    0
  9
$SORTENTS
280
  127
  9
$INDEXCTL
280
    0
  9
$HIDETEXT
280
    1
  9
$XCLIPFRAME
290
    0
  9
$HALOGAP
280
    0
  9
$OBSCOLOR
 70
  257
  9
$OBSLTYPE
280
    0
  9
$INTERSECTIONDISPLAY
280
    0
  9
$INTERSECTIONCOLOR
 70
  257
  9
$DIMASSOC
280
    1
  9
$PROJECTNAME
  1

  9
$CAMERADISPLAY
290
    0
  9
$LENSLENGTH
 40
50
  9
$CAMERAHEIGHT
 40
0
  9
$STEPSPERSEC
 40
2
  9
$STEPSIZE
 40
50
  9
$3DDWFPREC
 40
2
  9
$PSOLWIDTH
 40
5
  9
$PSOLHEIGHT
 40
80
  9
$LOFTANG1
 40
1.570796326794897
  9
$LOFTANG2
 40
1.570796326794897
  9
$LOFTMAG1
 40
0
  9
$LOFTMAG2
 40
0
  9
$LOFTPARAM
 70
    7
  9
$LOFTNORMALS
280
    1
  9
$LATITUDE
 40
1
  9
$LONGITUDE
 40
1
  9
$NORTHDIRECTION
 40
0
  9
$TIMEZONE
 70
-8000
  9
$LIGHTGLYPHDISPLAY
280
    1
  9
$TILEMODELIGHTSYNCH
280
    1
  9
$SOLIDHIST
280
    1
  9
$SHOWHIST
280
    1
  9
$DWFFRAME
280
    2
  9
$DGNFRAME
280
    0
  9
$REALWORLDSCALE
290
    1
  9
$INTERFERECOLOR
 62
    1
  9
$CSHADOW
280
    0
  9
$SHADOWPLANELOCATION
 40
0
  0
ENDSEC
  0
SECTION
  2
CLASSES
  0
ENDSEC
  0
SECTION
  2
TABLES
  0
TABLE
  2
VPORT
  5
8
330
0
100
AcDbSymbolTable
 70
    1
  0
VPORT
  5
31
330
2
100
AcDbSymbolTableRecord
100
AcDbViewportTableRecord
  2
*ACTIVE
 70
    0
 10
0
 20
0
 11
1
 21
1
 12
6.750140359144956
 22
5.076033930550651
 13
0
 23
0
 14
10
 24
10
 15
0.25
 25
0.25
 16
0
 26
0
 36
1
 17
0
 27
0
 37
0
 40
13.35704166557596
 41
1.269436997319035
 42
50
 43
0
 44
0
 50
0
 51
0
 71
    0
 72
  100
 73
    1
 74
    3
 75
    0
 76
    1
 77
    0
 78
    0
281
    0
 65
    1
110
0
120
0
130
0
111
1
121
0
131
0
112
0
122
1
132
0
 79
    0
146
0
348
10020
 60
    3
 61
    5
292
1
282
    1
141
0
142
0
 63
  250
421
3358443
  0
ENDTAB
  0
TABLE
  2
LTYPE
  5
5
330
0
100
AcDbSymbolTable
 70
    4
  0
LTYPE
  5
14
330
5
100
AcDbSymbolTableRecord
100
AcDbLinetypeTableRecord
  2
ByBlock
 70
    0
  3

 72
   65
 73
    0
 40
0
  0
LTYPE
  5
15
330
5
100
AcDbSymbolTableRecord
100
AcDbLinetypeTableRecord
  2
ByLayer
 70
    0
  3

 72
   65
 73
    0
 40
0
  0
LTYPE
  5
16
330
5
100
AcDbSymbolTableRecord
100
AcDbLinetypeTableRecord
  2
Continuous
 70
    0
  3
Solid line
 72
   65
 73
    0
 40
0
  0
LTYPE
  5
32
330
5
100
AcDbSymbolTableRecord
100
AcDbLinetypeTableRecord
  2
DOT
 70
    0
  3
Dot . . . . . . . . . . . . . . . . . . . . . .
 72
   65
 73
    2
 40
6.35
 49
0
 74
    0
 49
-6.35
 74
    0
  0
LTYPE
  5
33
330
5
100
AcDbSymbolTableRecord
100
AcDbLinetypeTableRecord
  2
DOTTINY
 70
    0
  3
Dot (.15x) .....................................
 72
   65
 73
    2
 40
0.9525
 49
0
 74
    0
 49
-0.9525
 74
    0
  0
LTYPE
  5
34
330
5
100
AcDbSymbolTableRecord
100
AcDbLinetypeTableRecord
  2
DOT2
 70
    0
  3
Dot (.5x) .....................................
 72
   65
 73
    2
 40
3.175
 49
0
 74
    0
 49
-3.175
 74
    0
  0
LTYPE
  5
35
330
5
100
AcDbSymbolTableRecord
100
AcDbLinetypeTableRecord
  2
DOTX2
 70
    0
  3
Dot (2x) .  .  .  .  .  .  .  .  .  .  .  .  .
 72
   65
 73
    2
 40
12.7
 49
0
 74
    0
 49
-12.7
 74
    0
  0
LTYPE
  5
36
330
5
100
AcDbSymbolTableRecord
100
AcDbLinetypeTableRecord
  2
DASHED
 70
    0
  3
Dashed _ _ _ _ _ _ _ _ _ _ _ _ _ _ _ _ _
 72
   65
 73
    2
 40
19.05
 49
12.7
 74
    0
 49
-6.35
 74
    0
  0
LTYPE
  5
37
330
5
100
AcDbSymbolTableRecord
100
AcDbLinetypeTableRecord
  2
DASHEDTINY
 70
    0
  3
Dashed (.15x) _ _ _ _ _ _ _ _ _ _ _ _ _ _ _ _ _
 72
   65
 73
    2
 40
2.8575
 49
1.905
 74
    0
 49
-0.9525
 74
    0
  0
LTYPE
  5
38
330
5
100
AcDbSymbolTableRecord
100
AcDbLinetypeTableRecord
  2
DASHED2
 70
    0
  3
Dashed (.5x) _ _ _ _ _ _ _ _ _ _ _ _ _ _ _ _ _
 72
   65
 73
    2
 40
9.524999999999999
 49
6.35
 74
    0
 49
-3.175
 74
    0
  0
LTYPE
  5
39
330
5
100
AcDbSymbolTableRecord
100
AcDbLinetypeTableRecord
  2
DASHEDX2
 70
    0
  3
Dashed (2x) ____  ____  ____  ____  ____  ___
 72
   65
 73
    2
 40
38.09999999999999
 49
25.4
 74
    0
 49
-12.7
 74
    0
  0
LTYPE
  5
3A
330
5
100
AcDbSymbolTableRecord
100
AcDbLinetypeTableRecord
  2
DASHDOT
 70
    0
  3
Dash dot __ . __ . __ . __ . __ . __ . __ . __
 72
   65
 73
    4
 40
25.4
 49
12.7
 74
    0
 49
-6.35
 74
    0
 49
0
 74
    0
 49
-6.35
 74
    0
  0
LTYPE
  5
3B
330
5
100
AcDbSymbolTableRecord
100
AcDbLinetypeTableRecord
  2
DASHDOTTINY
 70
    0
  3
Dash dot (.15x) _._._._._._._._._._._._._._._.
 72
   65
 73
    4
 40
3.81
 49
1.905
 74
    0
 49
-0.9525
 74
    0
 49
0
 74
    0
 49
-0.9525
 74
    0
  0
LTYPE
  5
3C
330
5
100
AcDbSymbolTableRecord
100
AcDbLinetypeTableRecord
  2
DASHDOT2
 70
    0
  3
Dash dot (.5x) _._._._._._._._._._._._._._._.
 72
   65
 73
    4
 40
12.7
 49
6.35
 74
    0
 49
-3.175
 74
    0
 49
0
 74
    0
 49
-3.175
 74
    0
  0
LTYPE
  5
3D
330
5
100
AcDbSymbolTableRecord
100
AcDbLinetypeTableRecord
  2
DASHDOTX2
 70
    0
  3
Dash dot (2x) ____  .  ____  .  ____  .  ___
 72
   65
 73
    4
 40
50.8
 49
25.4
 74
    0
 49
-12.7
 74
    0
 49
0
 74
    0
 49
-12.7
 74
    0
  0
LTYPE
  5
3E
330
5
100
AcDbSymbolTableRecord
100
AcDbLinetypeTableRecord
  2
DIVIDE
 70
    0
  3
Divide ____ . . ____ . . ____ . . ____ . . ____
 72
   65
 73
    6
 40
31.75
 49
12.7
 74
    0
 49
-6.35
 74
    0
 49
0
 74
    0
 49
-6.35
 74
    0
 49
0
 74
    0
 49
-6.35
 74
    0
  0
LTYPE
  5
3F
330
5
100
AcDbSymbolTableRecord
100
AcDbLinetypeTableRecord
  2
DIVIDETINY
 70
    0
  3
Divide (.15x) __..__..__..__..__..__..__..__.._
 72
   65
 73
    6
 40
4.7625
 49
1.905
 74
    0
 49
-0.9525
 74
    0
 49
0
 74
    0
 49
-0.9525
 74
    0
 49
0
 74
    0
 49
-0.9525
 74
    0
  0
LTYPE
  5
40
330
5
100
AcDbSymbolTableRecord
100
AcDbLinetypeTableRecord
  2
DIVIDE2
 70
    0
  3
Divide (.5x) __..__..__..__..__..__..__..__.._
 72
   65
 73
    6
 40
15.875
 49
6.35
 74
    0
 49
-3.175
 74
    0
 49
0
 74
    0
 49
-3.175
 74
    0
 49
0
 74
    0
 49
-3.175
 74
    0
  0
LTYPE
  5
41
330
5
100
AcDbSymbolTableRecord
100
AcDbLinetypeTableRecord
  2
DIVIDEX2
 70
    0
  3
Divide (2x) ________  .  .  ________  .  .  _
 72
   65
 73
    6
 40
63.5
 49
25.4
 74
    0
 49
-12.7
 74
    0
 49
0
 74
    0
 49
-12.7
 74
    0
 49
0
 74
    0
 49
-12.7
 74
    0
  0
LTYPE
  5
42
330
5
100
AcDbSymbolTableRecord
100
AcDbLinetypeTableRecord
  2
BORDER
 70
    0
  3
Border __ __ . __ __ . __ __ . __ __ . __ __ .
 72
   65
 73
    6
 40
44.45
 49
12.7
 74
    0
 49
-6.35
 74
    0
 49
12.7
 74
    0
 49
-6.35
 74
    0
 49
0
 74
    0
 49
-6.35
 74
    0
  0
LTYPE
  5
43
330
5
100
AcDbSymbolTableRecord
100
AcDbLinetypeTableRecord
  2
BORDERTINY
 70
    0
  3
Border (.15x) __.__.__.__.__.__.__.__.__.__.__.
 72
   65
 73
    6
 40
6.6675
 49
1.905
 74
    0
 49
-0.9525
 74
    0
 49
1.905
 74
    0
 49
-0.9525
 74
    0
 49
0
 74
    0
 49
-0.9525
 74
    0
  0
LTYPE
  5
44
330
5
100
AcDbSymbolTableRecord
100
AcDbLinetypeTableRecord
  2
BORDER2
 70
    0
  3
Border (.5x) __.__.__.__.__.__.__.__.__.__.__.
 72
   65
 73
    6
 40
22.225
 49
6.35
 74
    0
 49
-3.175
 74
    0
 49
6.35
 74
    0
 49
-3.175
 74
    0
 49
0
 74
    0
 49
-3.175
 74
    0
  0
LTYPE
  5
45
330
5
100
AcDbSymbolTableRecord
100
AcDbLinetypeTableRecord
  2
BORDERX2
 70
    0
  3
Border (2x) ____  ____  .  ____  ____  .  ___
 72
   65
 73
    6
 40
88.89999999999999
 49
25.4
 74
    0
 49
-12.7
 74
    0
 49
25.4
 74
    0
 49
-12.7
 74
    0
 49
0
 74
    0
 49
-12.7
 74
    0
  0
LTYPE
  5
46
330
5
100
AcDbSymbolTableRecord
100
AcDbLinetypeTableRecord
  2
CENTER
 70
    0
  3
Center ____ _ ____ _ ____ _ ____ _ ____ _ ____
 72
   65
 73
    4
 40
50.8
 49
31.75
 74
    0
 49
-6.35
 74
    0
 49
6.35
 74
    0
 49
-6.35
 74
    0
  0
LTYPE
  5
47
330
5
100
AcDbSymbolTableRecord
100
AcDbLinetypeTableRecord
  2
CENTERTINY
 70
    0
  3
Center (.15x) ___ _ ___ _ ___ _ ___ _ ___ _ ___
 72
   65
 73
    4
 40
7.62
 49
4.7625
 74
    0
 49
-0.9525
 74
    0
 49
0.9525
 74
    0
 49
-0.9525
 74
    0
  0
LTYPE
  5
48
330
5
100
AcDbSymbolTableRecord
100
AcDbLinetypeTableRecord
  2
CENTER2
 70
    0
  3
Center (.5x) ___ _ ___ _ ___ _ ___ _ ___ _ ___
 72
   65
 73
    4
 40
28.575
 49
19.05
 74
    0
 49
-3.175
 74
    0
 49
3.175
 74
    0
 49
-3.175
 74
    0
  0
LTYPE
  5
49
330
5
100
AcDbSymbolTableRecord
100
AcDbLinetypeTableRecord
  2
CENTERX2
 70
    0
  3
Center (2x) ________  __  ________  __  _____
 72
   65
 73
    4
 40
101.6
 49
63.5
 74
    0
 49
-12.7
 74
    0
 49
12.7
 74
    0
 49
-12.7
 74
    0
  0
ENDTAB
  0
TABLE
  2
LAYER
  5
2
330
0
100
AcDbSymbolTable
 70
    1
  0
LAYER
  5
10
330
2
100
AcDbSymbolTableRecord
100
AcDbLayerTableRecord
  2
0
 70
    0
 62
    7
  6
CONTINUOUS
370
    0
390
F
  0
LAYER
  5
4A
330
2
100
AcDbSymbolTableRecord
100
AcDbLayerTableRecord
  2
hatch
 70
    0
 62
   56
420
8421376
  6
CONTINUOUS
370
    0
390
F
  0
ENDTAB
  0
TABLE
  2
STYLE
  5
3
330
0
100
AcDbSymbolTable
 70
    3
  0
STYLE
  5
4B
330
2
100
AcDbSymbolTableRecord
100
AcDbTextStyleTableRecord
  2
Standard
 70
    0
 40
0
 41
1
 50
0
 71
    0
 42
1
  3
txt
  4

  0
ENDTAB
  0
TABLE
  2
VIEW
  5
6
330
0
100
AcDbSymbolTable
 70
    0
  0
ENDTAB
  0
TABLE
  2
UCS
  5
7
330
0
100
AcDbSymbolTable
 70
    0
  0
ENDTAB
  0
TABLE
  2
APPID
  5
9
330
0
100
AcDbSymbolTable
 70
    1
  0
APPID
  5
12
330
9
100
AcDbSymbolTableRecord
100
AcDbRegAppTableRecord
  2
ACAD
 70
    0
  0
APPID
  5
4C
330
9
100
AcDbSymbolTableRecord
100
AcDbRegAppTableRecord
  2
LibreCad
 70
    0
  0
ENDTAB
  0
TABLE
  2
DIMSTYLE
  5
A
330
0
100
AcDbSymbolTable
 70
    1
100
AcDbDimStyleTable
 71
    1
  0
DIMSTYLE
105
4D
330
A
100
AcDbSymbolTableRecord
100
AcDbDimStyleTableRecord
  2
Standard
 70
    0
 40
2.5
 41
0.1
 42
0.025
 43
0.38
 44
0.05
 45
0
 46
0
 47
0
 48
0
 49
0.04
140
0.1
141
0.09
142
0
143
25.4
144
1
145
0
146
1
147
0.025
148
0
 71
    0
 72
    0
 73
    0
 74
    1
 75
    0
 76
    0
 77
    0
 78
    1
 79
    0
170
    0
171
    2
172
    0
173
    0
174
    0
175
    0
176
    0
177
    0
178
    0
179
    2
271
    4
272
    4
273
    2
274
    2
275
    0
276
    0
277
    2
278
   44
279
    0
280
    0
281
    0
282
    0
283
    1
284
    0
285
    0
286
    0
288
    0
289
    3
340
standard
341

371
   -2
372
   -2
  0
ENDTAB
  0
TABLE
  2
BLOCK_RECORD
  5
1
330
0
100
AcDbSymbolTable
 70
    2
  0
BLOCK_RECORD
  5
1F
330
1
100
AcDbSymbolTableRecord
100
AcDbBlockTableRecord
  2
*Model_Space
 70
    0
280
    1
281
    0
  0
BLOCK_RECORD
  5
1E
330
1
100
AcDbSymbolTableRecord
100
AcDbBlockTableRecord
  2
*Paper_Space
 70
    0
280
    1
281
    0
  0
ENDTAB
  0
ENDSEC
  0
SECTION
  2
BLOCKS
  0
BLOCK
  5
20
330
1F
100
AcDbEntity
  8
0
100
AcDbBlockBegin
  2
*Model_Space
 70
    0
 10
0
 20
0
 30
0
  3
*Model_Space
  1

  0
ENDBLK
  5
21
330
1F
100
AcDbEntity
  8
0
100
AcDbBlockEnd
  0
BLOCK
  5
1C
330
1B
100
AcDbEntity
  8
0
100
AcDbBlockBegin
  2
*Paper_Space
 70
    0
 10
0
 20
0
 30
0
  3
*Paper_Space
  1

  0
ENDBLK
  5
1D
330
1F
100
AcDbEntity
  8
0
100
AcDbBlockEnd
  0
ENDSEC
  0
SECTION
  2
ENTITIES
  0
ARC
  5
4E
100
AcDbEntity
  8
hatch
  6
ByLayer
 62
  256
370
   -1
100
AcDbCircle
 10
0
 20
10
 40
0.5
100
AcDbArc
 50
270
 51
360
  0
ARC
  5
4F
100
AcDbEntity
  8
hatch
  6
ByLayer
 62
  256
370
   -1
100
AcDbCircle
 10
0
 20
0
 40
0.5
100
AcDbArc
 50
0
 51
90
  0
ARC
  5
50
100
AcDbEntity
  8
hatch
  6
ByLayer
 62
  256
370
   -1
100
AcDbCircle
 10
10
 20
0
 40
0.5
100
AcDbArc
 50
90
 51
180
  0
ARC
  5
51
100
AcDbEntity
  8
hatch
  6
ByLayer
 62
  256
370
   -1
100
AcDbCircle
 10
10
 20
10
 40
0.5
100
AcDbArc
 50
180
 51
270
  0
ARC
  5
52
100
AcDbEntity
  8
hatch
  6
ByLayer
 62
  256
370
   -1
100
AcDbCircle
 10
-0.5
 20
6
 40
0.7071067811865476
100
AcDbArc
 50
315
 51
405
  0
ARC
  5
53
100
AcDbEntity
  8
hatch
  6
ByLayer
 62
  256
370
   -1
100
AcDbCircle
 10
0
 20
8.5
 40
0.7071067811865476
100
AcDbArc
 50
270
 51
272.0654410093566
  0
ARC
  5
54
100
AcDbEntity
  8
hatch
  6
ByLayer
 62
  256
370
   -1
100
AcDbCircle
 10
0
 20
8.5
 40
0.7071067811865476
100
AcDbArc
 50
272.0654410093567
 51
90.00000000000001
  0
ARC
  5
55
100
AcDbEntity
  8
hatch
  6
ByLayer
 62
  256
370
   -1
100
AcDbCircle
 10
10
 20
8.5
 40
0.7071067811865476
100
AcDbArc
 50
90
 51
270.0000000000002
  0
ARC
  5
56
100
AcDbEntity
  8
hatch
  6
ByLayer
 62
  256
370
   -1
100
AcDbCircle
 10
9.5
 20
6
 40
0.7071067811865476
100
AcDbArc
 50
45
 51
314.9999999999981
  0
ARC
  5
57
100
AcDbEntity
  8
hatch
  6
ByLayer
 62
  256
370
   -1
100
AcDbCircle
 10
-0.25
 20
7.25
 40
0.5
100
AcDbArc
 50
300.0000000000009
 51
419.999999999999
  0
ARC
  5
58
100
AcDbEntity
  8
hatch
  6
ByLayer
 62
  256
370
   -1
100
AcDbCircle
 10
9.75
 20
7.25
 40
0.5
100
AcDbArc
 50
59.99999999999659
 51
300.0000000000031
  0
CIRCLE
  5
59
100
AcDbEntity
  8
hatch
  6
ByLayer
 62
  256
370
   -1
100
AcDbCircle
 10
0.9345848836096009
 20
8.686141859430409
 40
0.1791984712086392
  0
CIRCLE
  5
5A
100
AcDbEntity
  8
hatch
  6
ByLayer
 62
  256
370
   -1
100
AcDbCircle
 10
1.044536046387201
 20
9.689446219776009
 40
0
  0
ARC
  5
5B
100
AcDbEntity
  8
hatch
  6
ByLayer
 62
  256
370
   -1
100
AcDbCircle
 10
1.085767732428801
 20
10.10176308019201
 40
0.473317088163249
100
AcDbArc
 50
192.4155156829476
 51
347.5844843170524
  0
ARC
  5
5C
100
AcDbEntity
  8
hatch
  6
ByLayer
 62
  256
370
   -1
100
AcDbCircle
 10
4.233119766937604
 20
9.510775580262409
 40
0.6805657239678296
100
AcDbArc
 50
134.0404146390738
 51
45.95958536092645
  0
ARC
  5
5D
100
AcDbEntity
  8
hatch
  6
ByLayer
 62
  256
370
   -1
100
AcDbCircle
 10
6.803228196864007
 20
9.77190959185921
 40
0.5375954136259194
100
AcDbArc
 50
154.8949692837467
 51
25.1050307162534
  0
ARC
  5
5E
100
AcDbEntity
  8
hatch
  6
ByLayer
 62
  256
370
   -1
100
AcDbCircle
 10
7.724069185126408
 20
9.758165696512009
 40
0.3301396953179556
100
AcDbArc
 50
132.9018320234378
 51
47.09816797656251
  0
ARC
  5
5F
100
AcDbEntity
  8
hatch
  6
ByLayer
 62
  256
370
   -1
100
AcDbCircle
 10
8.658654068736009
 20
10.21171424296961
 40
0.6061353911192283
100
AcDbArc
 50
200.443613265431
 51
339.5563867345688
  0
ARC
  5
60
100
AcDbEntity
  8
hatch
  6
ByLayer
 62
  256
370
   -1
100
AcDbCircle
 10
1.085767732428801
 20
0.1017630801920095
 40
0.473317088163249
100
AcDbArc
 50
347.5844843170524
 51
552.4155156829477
  0
ARC
  5
61
100
AcDbEntity
  8
hatch
  6
ByLayer
 62
  256
370
   -1
100
AcDbCircle
 10
4.233119766937604
 20
-0.4892244197375906
 40
0.6805657239678296
100
AcDbArc
 50
45.95958536092645
 51
134.0404146390738
  0
ARC
  5
62
100
AcDbEntity
  8
hatch
  6
ByLayer
 62
  256
370
   -1
100
AcDbCircle
 10
6.803228196864007
 20
-0.2280904081407904
 40
0.5375954136259194
100
AcDbArc
 50
25.1050307162534
 51
154.8949692837467
  0
ARC
  5
63
100
AcDbEntity
  8
hatch
  6
ByLayer
 62
  256
370
   -1
100
AcDbCircle
 10
7.724069185126408
 20
-0.2418343034879911
 40
0.3301396953179556
100
AcDbArc
 50
47.09816797656251
 51
132.9018320234379
  0
ARC
  5
64
100
AcDbEntity
  8
hatch
  6
ByLayer
 62
  256
370
   -1
100
AcDbCircle
 10
8.658654068736009
 20
0.2117142429696095
 40
0.6061353911192283
100
AcDbArc
 50
339.5563867345688
 51
560.4436132654309
  0
ARC
  5
65
100
AcDbEntity
  8
hatch
  6
ByLayer
 62
  256
370
   -1
100
AcDbCircle
 10
-0.5222680231936006
 20
3.600900580966404
 40
0.6393497030242506
100
AcDbArc
 50
324.7730628228481
 51
395.2269371771519
  0
ARC
  5
66
100
AcDbEntity
  8
hatch
  6
ByLayer
 62
  256
370
   -1
100
AcDbCircle
 10
0.2336462209024002
 20
2.721291278745603
 40
0.4723183170815657
100
AcDbArc
 50
240.3513771112117
 51
479.6486228887883
  0
ARC
  5
67
100
AcDbEntity
  8
hatch
  6
ByLayer
 62
  256
370
   -1
100
AcDbCircle
 10
-0.2886218022912003
 20
1.992864825344002
 40
0.40794141105841
100
AcDbArc
 50
315.0325174754917
 51
404.9674825245083
  0
ARC
  5
68
100
AcDbEntity
  8
hatch
  6
ByLayer
 62
  256
370
   -1
100
AcDbCircle
 10
0.4123168604160004
 20
1.003304360345601
 40
0.5695016506064647
100
AcDbArc
 50
223.6146174279014
 51
496.3853825720985
  0
ARC
  5
69
100
AcDbEntity
  8
hatch
  6
ByLayer
 62
  256
370
   -1
100
AcDbCircle
 10
10.4535485464576
 20
4.672924418048004
 40
0.7347522958941053
100
AcDbArc
 50
128.1178409475517
 51
231.8821590524483
  0
ARC
  5
6A
100
AcDbEntity
  8
hatch
  6
ByLayer
 62
  256
370
   -1
100
AcDbCircle
 10
9.4777319768064
 20
3.600900580966404
 40
0.6393497030242506
100
AcDbArc
 50
35.22693717715189
 51
324.7730628228481
  0
ARC
  5
6B
100
AcDbEntity
  8
hatch
  6
ByLayer
 62
  256
370
   -1
100
AcDbCircle
 10
10.2336462209024
 20
2.721291278745603
 40
0.4723183170815657
100
AcDbArc
 50
119.6486228887883
 51
240.3513771112117
  0
ARC
  5
6C
100
AcDbEntity
  8
hatch
  6
ByLayer
 62
  256
370
   -1
100
AcDbCircle
 10
9.7113781977088
 20
1.992864825344002
 40
0.40794141105841
100
AcDbArc
 50
44.9674825245083
 51
315.0325174754917
  0
ARC
  5
6D
100
AcDbEntity
  8
hatch
  6
ByLayer
 62
  256
370
   -1
100
AcDbCircle
 10
10.412316860416
 20
1.003304360345601
 40
0.5695016506064647
100
AcDbArc
 50
136.3853825720986
 51
223.6146174279014
  0
ARC
  5
6E
100
AcDbEntity
  8
hatch
  6
ByLayer
 62
  256
370
   -1
100
AcDbCircle
 10
0.6459630813184006
 20
9.359592731443209
 40
0.3446951416962538
100
AcDbArc
 50
10.12096689100687
 51
190.2303454436584
  0
ARC
  5
6F
100
AcDbEntity
  8
hatch
  6
ByLayer
 62
  256
370
   -1
100
AcDbCircle
 10
0.6459630813184006
 20
9.359592731443209
 40
0.3446951416962538
100
AcDbArc
 50
190.2303454436584
 51
370.1209668910069
  0
ARC
  5
70
100
AcDbEntity
  8
hatch
  6
ByLayer
 62
  256
370
   -1
100
AcDbCircle
 10
1.319413953331201
 20
9.084714824499208
 40
0.2654387084138554
100
AcDbArc
 50
138.6729225973644
 51
319.3840082677152
  0
ARC
  5
71
100
AcDbEntity
  8
hatch
  6
ByLayer
 62
  256
370
   -1
100
AcDbCircle
 10
1.319413953331201
 20
9.084714824499208
 40
0.2654387084138554
100
AcDbArc
 50
319.3840082677152
 51
498.6729225973644
  0
ARC
  5
72
100
AcDbEntity
  8
hatch
  6
ByLayer
 62
  256
370
   -1
100
AcDbCircle
 10
2
 20
9.5
 40
0.5
100
AcDbArc
 50
162.1370476313778
 51
320.0401591802547
  0
ARC
  5
73
100
AcDbEntity
  8
hatch
  6
ByLayer
 62
  256
370
   -1
100
AcDbCircle
 10
2
 20
9.5
 40
0.5
100
AcDbArc
 50
320.0401591802547
 51
522.1370476313778
  0
ARC
  5
74
100
AcDbEntity
  8
hatch
  6
ByLayer
 62
  256
370
   -1
100
AcDbCircle
 10
2.171535464857602
 20
8.644910173388809
 40
0.209340777110028
100
AcDbArc
 50
91.2987679633118
 51
162.0517623989073
  0
ARC
  5
75
100
AcDbEntity
  8
hatch
  6
ByLayer
 62
  256
370
   -1
100
AcDbCircle
 10
2.171535464857602
 20
8.644910173388809
 40
0.209340777110028
100
AcDbArc
 50
162.0517623989073
 51
451.2987679633118
  0
ARC
  5
76
100
AcDbEntity
  8
hatch
  6
ByLayer
 62
  256
370
   -1
100
AcDbCircle
 10
1.470596802150401
 20
8.108898254848008
 40
0.559631436879591
100
AcDbArc
 50
26.4281101781605
 51
181.9930152946594
  0
ARC
  5
77
100
AcDbEntity
  8
hatch
  6
ByLayer
 62
  256
370
   -1
100
AcDbCircle
 10
1.470596802150401
 20
8.108898254848008
 40
0.559631436879591
100
AcDbArc
 50
181.9930152946594
 51
386.4281101781605
  0
ARC
  5
78
100
AcDbEntity
  8
hatch
  6
ByLayer
 62
  256
370
   -1
100
AcDbCircle
 10
0.6184752906240006
 20
7.517910754918407
 40
0.3753870214176704
100
AcDbArc
 50
86.93793152834465
 51
313.4356568036112
  0
ARC
  5
79
100
AcDbEntity
  8
hatch
  6
ByLayer
 62
  256
370
   -1
100
AcDbCircle
 10
0.6184752906240006
 20
7.517910754918407
 40
0.3753870214176704
100
AcDbArc
 50
313.4356568036112
 51
446.9379315283447
  0
ARC
  5
7A
100
AcDbEntity
  8
hatch
  6
ByLayer
 62
  256
370
   -1
100
AcDbCircle
 10
1.195718895206401
 20
7.407959592140807
 40
0.1749312287986211
100
AcDbArc
 50
223.1330747459197
 51
101.1557461413915
  0
ARC
  5
7B
100
AcDbEntity
  8
hatch
  6
ByLayer
 62
  256
370
   -1
100
AcDbCircle
 10
1.195718895206401
 20
7.407959592140807
 40
0.1749312287986211
100
AcDbArc
 50
101.1557461413915
 51
223.1330747459197
  0
ARC
  5
7C
100
AcDbEntity
  8
hatch
  6
ByLayer
 62
  256
370
   -1
100
AcDbCircle
 10
2.446413371801603
 20
7.435447382835207
 40
0.3985729650688007
100
AcDbArc
 50
130.3802439296034
 51
13.88750608256013
  0
ARC
  5
7D
100
AcDbEntity
  8
hatch
  6
ByLayer
 62
  256
370
   -1
100
AcDbCircle
 10
2.446413371801603
 20
7.435447382835207
 40
0.3985729650688007
100
AcDbArc
 50
13.88750608256013
 51
130.3802439296034
  0
ARC
  5
7E
100
AcDbEntity
  8
hatch
  6
ByLayer
 62
  256
370
   -1
100
AcDbCircle
 10
2.776266860134402
 20
8.328800580403207
 40
0.4432273070190715
100
AcDbArc
 50
239.6039289809725
 51
129.2559921068564
  0
ARC
  5
7F
100
AcDbEntity
  8
hatch
  6
ByLayer
 62
  256
370
   -1
100
AcDbCircle
 10
2.776266860134402
 20
8.328800580403207
 40
0.4432273070190715
100
AcDbArc
 50
129.2559921068564
 51
239.6039289809725
  0
ARC
  5
80
100
AcDbEntity
  8
hatch
  6
ByLayer
 62
  256
370
   -1
100
AcDbCircle
 10
2.707547383398403
 20
9.015995347763209
 40
0.2254166439189381
100
AcDbArc
 50
82.32896831733662
 51
212.0853154123319
  0
ARC
  5
81
100
AcDbEntity
  8
hatch
  6
ByLayer
 62
  256
370
   -1
100
AcDbCircle
 10
2.707547383398403
 20
9.015995347763209
 40
0.2254166439189381
100
AcDbArc
 50
212.0853154123319
 51
442.3289683173366
  0
ARC
  5
82
100
AcDbEntity
  8
hatch
  6
ByLayer
 62
  256
370
   -1
100
AcDbCircle
 10
2.762522964787203
 20
9.66195842908161
 40
0.210241171704449
100
AcDbArc
 50
17.780035567319
 51
253.4447971579452
  0
ARC
  5
83
100
AcDbEntity
  8
hatch
  6
ByLayer
 62
  256
370
   -1
100
AcDbCircle
 10
2.762522964787203
 20
9.66195842908161
 40
0.210241171704449
100
AcDbArc
 50
253.4447971579452
 51
377.780035567319
  0
ARC
  5
84
100
AcDbEntity
  8
hatch
  6
ByLayer
 62
  256
370
   -1
100
AcDbCircle
 10
3.229815406592003
 20
9.345848836096009
 40
0.3164082322520017
100
AcDbArc
 50
175.4440737343708
 51
327.4403968549616
  0
ARC
  5
85
100
AcDbEntity
  8
hatch
  6
ByLayer
 62
  256
370
   -1
100
AcDbCircle
 10
3.229815406592003
 20
9.345848836096009
 40
0.3164082322520017
100
AcDbArc
 50
327.4403968549616
 51
535.4440737343708
  0
ARC
  5
86
100
AcDbEntity
  8
hatch
  6
ByLayer
 62
  256
370
   -1
100
AcDbCircle
 10
3.257303197286403
 20
8.782349126860808
 40
0.1567045172001186
100
AcDbArc
 50
42.94550857987422
 51
270.0823423434896
  0
ARC
  5
87
100
AcDbEntity
  8
hatch
  6
ByLayer
 62
  256
370
   -1
100
AcDbCircle
 10
3.257303197286403
 20
8.782349126860808
 40
0.1567045172001186
100
AcDbArc
 50
270.0823423434896
 51
402.9455085798742
  0
ARC
  5
88
100
AcDbEntity
  8
hatch
  6
ByLayer
 62
  256
370
   -1
100
AcDbCircle
 10
3.697107848396803
 20
8.562446801305608
 40
0.3355312458648411
100
AcDbArc
 50
74.31526841415939
 51
304.8644784600032
  0
ARC
  5
89
100
AcDbEntity
  8
hatch
  6
ByLayer
 62
  256
370
   -1
100
AcDbCircle
 10
3.697107848396803
 20
8.562446801305608
 40
0.3355312458648411
100
AcDbArc
 50
304.8644784600032
 51
434.3152684141594
  0
ARC
  5
8A
100
AcDbEntity
  8
hatch
  6
ByLayer
 62
  256
370
   -1
100
AcDbCircle
 10
3.642132267008003
 20
7.572886336307207
 40
0.5215441586417123
100
AcDbArc
 50
57.58101572460109
 51
174.1830616273573
  0
ARC
  5
8B
100
AcDbEntity
  8
hatch
  6
ByLayer
 62
  256
370
   -1
100
AcDbCircle
 10
3.642132267008003
 20
7.572886336307207
 40
0.5215441586417123
100
AcDbArc
 50
174.1830616273573
 51
417.5810157246011
  0
ARC
  5
8C
100
AcDbEntity
  8
hatch
  6
ByLayer
 62
  256
370
   -1
100
AcDbCircle
 10
4.411790406451204
 20
7.820276452556808
 40
0.2447030996999983
100
AcDbArc
 50
55.10646894917987
 51
241.0219981484757
  0
ARC
  5
8D
100
AcDbEntity
  8
hatch
  6
ByLayer
 62
  256
370
   -1
100
AcDbCircle
 10
4.411790406451204
 20
7.820276452556808
 40
0.2447030996999983
100
AcDbArc
 50
241.0219981484757
 51
415.1064689491799
  0
ARC
  5
8E
100
AcDbEntity
  8
hatch
  6
ByLayer
 62
  256
370
   -1
100
AcDbCircle
 10
4.356814825062404
 20
8.383776161792008
 40
0.2473901162495995
100
AcDbArc
 50
229.2471385828535
 51
20.73650954937438
  0
ARC
  5
8F
100
AcDbEntity
  8
hatch
  6
ByLayer
 62
  256
370
   -1
100
AcDbCircle
 10
4.356814825062404
 20
8.383776161792008
 40
0.2473901162495995
100
AcDbArc
 50
20.73650954937438
 51
229.2471385828536
  0
ARC
  5
90
100
AcDbEntity
  8
hatch
  6
ByLayer
 62
  256
370
   -1
100
AcDbCircle
 10
5.153960755200005
 20
8.507471219916809
 40
0.4978250626686025
100
AcDbArc
 50
140.7490161438988
 51
272.3796703413043
  0
ARC
  5
91
100
AcDbEntity
  8
hatch
  6
ByLayer
 62
  256
370
   -1
100
AcDbCircle
 10
5.153960755200005
 20
8.507471219916809
 40
0.4978250626686025
100
AcDbArc
 50
272.3796703413043
 51
500.7490161438988
  0
ARC
  5
92
100
AcDbEntity
  8
hatch
  6
ByLayer
 62
  256
370
   -1
100
AcDbCircle
 10
4.989034011033604
 20
7.160569475891207
 40
0.634604927225691
100
AcDbArc
 50
70.17995493955681
 51
174.0708050725846
  0
ARC
  5
93
100
AcDbEntity
  8
hatch
  6
ByLayer
 62
  256
370
   -1
100
AcDbCircle
 10
4.989034011033604
 20
7.160569475891207
 40
0.634604927225691
100
AcDbArc
 50
174.0708050725846
 51
430.1799549395568
  0
ARC
  5
94
100
AcDbEntity
  8
hatch
  6
ByLayer
 62
  256
370
   -1
100
AcDbCircle
 10
5.291399708672005
 20
9.55200726630401
 40
0.3134090344002367
100
AcDbArc
 50
274.3348364802154
 51
55.42711409330485
  0
ARC
  5
95
100
AcDbEntity
  8
hatch
  6
ByLayer
 62
  256
370
   -1
100
AcDbCircle
 10
5.291399708672005
 20
9.55200726630401
 40
0.3134090344002367
100
AcDbArc
 50
55.42711409330485
 51
274.3348364802154
  0
ARC
  5
96
100
AcDbEntity
  8
hatch
  6
ByLayer
 62
  256
370
   -1
100
AcDbCircle
 10
5.964850580684806
 20
9.153434301235208
 40
0.4143733163671866
100
AcDbArc
 50
74.50850685527504
 51
285.7793442260881
  0
ARC
  5
97
100
AcDbEntity
  8
hatch
  6
ByLayer
 62
  256
370
   -1
100
AcDbCircle
 10
5.964850580684806
 20
9.153434301235208
 40
0.4143733163671866
100
AcDbArc
 50
285.7793442260881
 51
434.5085068552751
  0
ARC
  5
98
100
AcDbEntity
  8
hatch
  6
ByLayer
 62
  256
370
   -1
100
AcDbCircle
 10
6.280960173670406
 20
8.534959010611209
 40
0.1914303108367855
100
AcDbArc
 50
64.25374493011837
 51
307.6015062461101
  0
ARC
  5
99
100
AcDbEntity
  8
hatch
  6
ByLayer
 62
  256
370
   -1
100
AcDbCircle
 10
6.280960173670406
 20
8.534959010611209
 40
0.1914303108367855
100
AcDbArc
 50
307.6015062461101
 51
424.2537449301184
  0
ARC
  5
9A
100
AcDbEntity
  8
hatch
  6
ByLayer
 62
  256
370
   -1
100
AcDbCircle
 10
6.047313952768006
 20
8.260081103667208
 40
0.1786706395136011
100
AcDbArc
 50
338.3834149677695
 51
127.7442399278597
  0
ARC
  5
9B
100
AcDbEntity
  8
hatch
  6
ByLayer
 62
  256
370
   -1
100
AcDbCircle
 10
6.047313952768006
 20
8.260081103667208
 40
0.1786706395136011
100
AcDbArc
 50
127.7442399278597
 51
338.3834149677696
  0
ARC
  5
9C
100
AcDbEntity
  8
hatch
  6
ByLayer
 62
  256
370
   -1
100
AcDbCircle
 10
5.744948255129605
 20
7.888995929292808
 40
0.2582243496228032
100
AcDbArc
 50
95.74701113699498
 51
249.739508869748
  0
ARC
  5
9D
100
AcDbEntity
  8
hatch
  6
ByLayer
 62
  256
370
   -1
100
AcDbCircle
 10
5.744948255129605
 20
7.888995929292808
 40
0.2582243496228032
100
AcDbArc
 50
249.739508869748
 51
455.747011136995
  0
ARC
  5
9E
100
AcDbEntity
  8
hatch
  6
ByLayer
 62
  256
370
   -1
100
AcDbCircle
 10
6.184752906240006
 20
7.490422964224007
 40
0.3100764125037991
100
AcDbArc
 50
221.1823361552014
 51
336.1912346114492
  0
ARC
  5
9F
100
AcDbEntity
  8
hatch
  6
ByLayer
 62
  256
370
   -1
100
AcDbCircle
 10
6.184752906240006
 20
7.490422964224007
 40
0.3100764125037991
100
AcDbArc
 50
336.1912346114492
 51
581.1823361552014
  0
ARC
  5
A0
100
AcDbEntity
  8
hatch
  6
ByLayer
 62
  256
370
   -1
100
AcDbCircle
 10
6.995642731724807
 20
7.806532557209608
 40
0.5388238036379102
100
AcDbArc
 50
149.2832146452509
 51
347.244348875322
  0
ARC
  5
A1
100
AcDbEntity
  8
hatch
  6
ByLayer
 62
  256
370
   -1
100
AcDbCircle
 10
6.995642731724807
 20
7.806532557209608
 40
0.5388238036379102
100
AcDbArc
 50
347.244348875322
 51
509.2832146452509
  0
ARC
  5
A2
100
AcDbEntity
  8
hatch
  6
ByLayer
 62
  256
370
   -1
100
AcDbCircle
 10
7.600374127001608
 20
8.672397964083208
 40
0.3369357360806155
100
AcDbArc
 50
358.9723595865594
 51
148.1450989819729
  0
ARC
  5
A3
100
AcDbEntity
  8
hatch
  6
ByLayer
 62
  256
370
   -1
100
AcDbCircle
 10
7.600374127001608
 20
8.672397964083208
 40
0.3369357360806155
100
AcDbArc
 50
148.1450989819729
 51
358.9723595865593
  0
ARC
  5
A4
100
AcDbEntity
  8
hatch
  6
ByLayer
 62
  256
370
   -1
100
AcDbCircle
 10
7.380471801446407
 20
9.208409882624009
 40
0.1869371872400868
100
AcDbArc
 50
146.9911223810505
 51
357.0048966786599
  0
ARC
  5
A5
100
AcDbEntity
  8
hatch
  6
ByLayer
 62
  256
370
   -1
100
AcDbCircle
 10
7.380471801446407
 20
9.208409882624009
 40
0.1869371872400868
100
AcDbArc
 50
357.0048966786599
 51
506.9911223810505
  0
ARC
  5
A6
100
AcDbEntity
  8
hatch
  6
ByLayer
 62
  256
370
   -1
100
AcDbCircle
 10
8.205105522278409
 20
9.359592731443209
 40
0.2820011552662944
100
AcDbArc
 50
216.6482126547656
 51
354.46049155113
  0
ARC
  5
A7
100
AcDbEntity
  8
hatch
  6
ByLayer
 62
  256
370
   -1
100
AcDbCircle
 10
8.205105522278409
 20
9.359592731443209
 40
0.2820011552662944
100
AcDbArc
 50
354.46049155113
 51
576.6482126547655
  0
ARC
  5
A8
100
AcDbEntity
  8
hatch
  6
ByLayer
 62
  256
370
   -1
100
AcDbCircle
 10
9.194665987276808
 20
9.33210494074881
 40
0.3700657076834052
100
AcDbArc
 50
164.0805645823677
 51
4.941684700546836
  0
ARC
  5
A9
100
AcDbEntity
  8
hatch
  6
ByLayer
 62
  256
370
   -1
100
AcDbCircle
 10
9.194665987276808
 20
9.33210494074881
 40
0.3700657076834052
100
AcDbArc
 50
4.941684700546836
 51
164.0805645823678
  0
ARC
  5
AA
100
AcDbEntity
  8
hatch
  6
ByLayer
 62
  256
370
   -1
100
AcDbCircle
 10
8.603678487347208
 20
8.658654068736009
 40
0.474512838501999
100
AcDbArc
 50
14.43594868648487
 51
199.5738677424959
  0
ARC
  5
AB
100
AcDbEntity
  8
hatch
  6
ByLayer
 62
  256
370
   -1
100
AcDbCircle
 10
8.603678487347208
 20
8.658654068736009
 40
0.474512838501999
100
AcDbArc
 50
199.5738677424959
 51
374.4359486864849
  0
ARC
  5
AC
100
AcDbEntity
  8
hatch
  6
ByLayer
 62
  256
370
   -1
100
AcDbCircle
 10
9.015995347763209
 20
7.847764243251207
 40
0.3498624575972428
100
AcDbArc
 50
120.4653608540799
 51
351.0174028006477
  0
ARC
  5
AD
100
AcDbEntity
  8
hatch
  6
ByLayer
 62
  256
370
   -1
100
AcDbCircle
 10
9.015995347763209
 20
7.847764243251207
 40
0.3498624575972428
100
AcDbArc
 50
351.0174028006477
 51
480.4653608540797
  0
ARC
  5
AE
100
AcDbEntity
  8
hatch
  6
ByLayer
 62
  256
370
   -1
100
AcDbCircle
 10
8.370032266444808
 20
7.971459301376008
 40
0.1738480528805702
100
AcDbArc
 50
212.3556500311843
 51
17.73944658109779
  0
ARC
  5
AF
100
AcDbEntity
  8
hatch
  6
ByLayer
 62
  256
370
   -1
100
AcDbCircle
 10
8.370032266444808
 20
7.971459301376008
 40
0.1738480528805702
100
AcDbArc
 50
17.73944658109779
 51
212.3556500311844
  0
ARC
  5
B0
100
AcDbEntity
  8
hatch
  6
ByLayer
 62
  256
370
   -1
100
AcDbCircle
 10
7.902739824640007
 20
8.040178778112008
 40
0.2216136535095363
100
AcDbArc
 50
58.79440165865249
 51
311.9572408614899
  0
ARC
  5
B1
100
AcDbEntity
  8
hatch
  6
ByLayer
 62
  256
370
   -1
100
AcDbCircle
 10
7.902739824640007
 20
8.040178778112008
 40
0.2216136535095363
100
AcDbArc
 50
311.9572408614899
 51
418.7944016586525
  0
ARC
  5
B2
100
AcDbEntity
  8
hatch
  6
ByLayer
 62
  256
370
   -1
100
AcDbCircle
 10
8.411263952486408
 20
7.380471801446407
 40
0.2859919360459356
100
AcDbArc
 50
122.7504688514957
 51
343.5451320966686
  0
ARC
  5
B3
100
AcDbEntity
  8
hatch
  6
ByLayer
 62
  256
370
   -1
100
AcDbCircle
 10
8.411263952486408
 20
7.380471801446407
 40
0.2859919360459356
100
AcDbArc
 50
343.5451320966686
 51
482.7504688514956
  0
ARC
  5
B4
100
AcDbEntity
  8
hatch
  6
ByLayer
 62
  256
370
   -1
100
AcDbCircle
 10
8.892300289638408
 20
6.913179359641607
 40
0.2960525661467251
100
AcDbArc
 50
143.5908616349624
 51
6.227108908842498
  0
ARC
  5
B5
100
AcDbEntity
  8
hatch
  6
ByLayer
 62
  256
370
   -1
100
AcDbCircle
 10
8.892300289638408
 20
6.913179359641607
 40
0.2960525661467251
100
AcDbArc
 50
6.227108908842498
 51
143.5908616349624
  0
ARC
  5
B6
100
AcDbEntity
  8
hatch
  6
ByLayer
 62
  256
370
   -1
100
AcDbCircle
 10
8.507471219916809
 20
5.978594476032006
 40
0.2654387084138543
100
AcDbArc
 50
45.63986534469109
 51
309.4089706640586
  0
ARC
  5
B7
100
AcDbEntity
  8
hatch
  6
ByLayer
 62
  256
370
   -1
100
AcDbCircle
 10
8.507471219916809
 20
5.978594476032006
 40
0.2654387084138543
100
AcDbArc
 50
309.4089706640586
 51
405.6398653446911
  0
ARC
  5
B8
100
AcDbEntity
  8
hatch
  6
ByLayer
 62
  256
370
   -1
100
AcDbCircle
 10
8.589934592000008
 20
5.360119185408005
 40
0.1536614213599124
100
AcDbArc
 50
50.39298151580572
 51
148.8799644790315
  0
ARC
  5
B9
100
AcDbEntity
  8
hatch
  6
ByLayer
 62
  256
370
   -1
100
AcDbCircle
 10
8.589934592000008
 20
5.360119185408005
 40
0.1536614213599124
100
AcDbArc
 50
148.8799644790315
 51
410.3929815158057
  0
ARC
  5
BA
100
AcDbEntity
  8
hatch
  6
ByLayer
 62
  256
370
   -1
100
AcDbCircle
 10
9.057227033804809
 20
4.769131685478404
 40
0.5471727652341046
100
AcDbArc
 50
179.9741008318082
 51
19.74987825992326
  0
ARC
  5
BB
100
AcDbEntity
  8
hatch
  6
ByLayer
 62
  256
370
   -1
100
AcDbCircle
 10
9.057227033804809
 20
4.769131685478404
 40
0.5471727652341046
100
AcDbArc
 50
19.74987825992326
 51
179.9741008318082
  0
ARC
  5
BC
100
AcDbEntity
  8
hatch
  6
ByLayer
 62
  256
370
   -1
100
AcDbCircle
 10
7.861508138598408
 20
4.549229359923205
 40
0.5948106395287452
100
AcDbArc
 50
15.86940119250563
 51
160.0475910974756
  0
ARC
  5
BD
100
AcDbEntity
  8
hatch
  6
ByLayer
 62
  256
370
   -1
100
AcDbCircle
 10
7.861508138598408
 20
4.549229359923205
 40
0.5948106395287452
100
AcDbArc
 50
160.0475910974756
 51
375.8694011925056
  0
ARC
  5
BE
100
AcDbEntity
  8
hatch
  6
ByLayer
 62
  256
370
   -1
100
AcDbCircle
 10
7.407959592140807
 20
5.786179941171206
 40
0.1672017032765764
100
AcDbArc
 50
171.8286495546547
 51
3.714473001152622
  0
ARC
  5
BF
100
AcDbEntity
  8
hatch
  6
ByLayer
 62
  256
370
   -1
100
AcDbCircle
 10
7.407959592140807
 20
5.786179941171206
 40
0.1672017032765764
100
AcDbArc
 50
3.714473001152622
 51
171.8286495546547
  0
ARC
  5
C0
100
AcDbEntity
  8
hatch
  6
ByLayer
 62
  256
370
   -1
100
AcDbCircle
 10
6.473374708531206
 20
5.621253197004806
 40
0.7488846663576445
100
AcDbArc
 50
42.1137794956797
 51
204.9103235871033
  0
ARC
  5
C1
100
AcDbEntity
  8
hatch
  6
ByLayer
 62
  256
370
   -1
100
AcDbCircle
 10
6.473374708531206
 20
5.621253197004806
 40
0.7488846663576445
100
AcDbArc
 50
204.9103235871033
 51
402.1137794956797
  0
ARC
  5
C2
100
AcDbEntity
  8
hatch
  6
ByLayer
 62
  256
370
   -1
100
AcDbCircle
 10
5.937362789990406
 20
6.761996510822406
 40
0.3504019528407499
100
AcDbArc
 50
236.8979944902875
 51
69.14005528101285
  0
ARC
  5
C3
100
AcDbEntity
  8
hatch
  6
ByLayer
 62
  256
370
   -1
100
AcDbCircle
 10
5.937362789990406
 20
6.761996510822406
 40
0.3504019528407499
100
AcDbArc
 50
69.14005528101285
 51
236.8979944902875
  0
ARC
  5
C4
100
AcDbEntity
  8
hatch
  6
ByLayer
 62
  256
370
   -1
100
AcDbCircle
 10
6.775740406169606
 20
6.816972092211206
 40
0.3628492490586215
100
AcDbArc
 50
38.27050891032634
 51
398.2705089103263
  0
ARC
  5
C5
100
AcDbEntity
  8
hatch
  6
ByLayer
 62
  256
370
   -1
100
AcDbCircle
 10
5.483814243532805
 20
5.208936336588805
 40
0.2372564192509995
100
AcDbArc
 50
106.70542364351
 51
317.3421018267939
  0
ARC
  5
C6
100
AcDbEntity
  8
hatch
  6
ByLayer
 62
  256
370
   -1
100
AcDbCircle
 10
5.483814243532805
 20
5.208936336588805
 40
0.2372564192509995
100
AcDbArc
 50
317.3421018267939
 51
466.7054236435101
  0
ARC
  5
C7
100
AcDbEntity
  8
hatch
  6
ByLayer
 62
  256
370
   -1
100
AcDbCircle
 10
4.741643894784005
 20
5.332631394713605
 40
0.4233922905412096
100
AcDbArc
 50
20.06800286868942
 51
171.6781846435315
  0
ARC
  5
C8
100
AcDbEntity
  8
hatch
  6
ByLayer
 62
  256
370
   -1
100
AcDbCircle
 10
4.741643894784005
 20
5.332631394713605
 40
0.4233922905412096
100
AcDbArc
 50
171.6781846435315
 51
380.0680028686894
  0
ARC
  5
C9
100
AcDbEntity
  8
hatch
  6
ByLayer
 62
  256
370
   -1
100
AcDbCircle
 10
4.810363371520005
 20
6.267216278323206
 40
0.2372564192510004
100
AcDbArc
 50
142.5886192092707
 51
267.7531596646856
  0
ARC
  5
CA
100
AcDbEntity
  8
hatch
  6
ByLayer
 62
  256
370
   -1
100
AcDbCircle
 10
4.810363371520005
 20
6.267216278323206
 40
0.2372564192510004
100
AcDbArc
 50
267.7531596646856
 51
502.5886192092707
  0
ARC
  5
CB
100
AcDbEntity
  8
hatch
  6
ByLayer
 62
  256
370
   -1
100
AcDbCircle
 10
4.068193022771204
 20
6.816972092211206
 40
0.2765905584478411
100
AcDbArc
 50
46.48726149821054
 51
189.6199208064107
  0
ARC
  5
CC
100
AcDbEntity
  8
hatch
  6
ByLayer
 62
  256
370
   -1
100
AcDbCircle
 10
4.068193022771204
 20
6.816972092211206
 40
0.2765905584478411
100
AcDbArc
 50
189.6199208064107
 51
215.3870864132964
  0
ARC
  5
CD
100
AcDbEntity
  8
hatch
  6
ByLayer
 62
  256
370
   -1
100
AcDbCircle
 10
4.068193022771204
 20
6.816972092211206
 40
0.2765905584478411
100
AcDbArc
 50
215.3870864132964
 51
301.5543267764098
  0
ARC
  5
CE
100
AcDbEntity
  8
hatch
  6
ByLayer
 62
  256
370
   -1
100
AcDbCircle
 10
4.068193022771204
 20
6.816972092211206
 40
0.2765905584478411
100
AcDbArc
 50
301.5543267764098
 51
406.4872614982105
  0
ARC
  5
CF
100
AcDbEntity
  8
hatch
  6
ByLayer
 62
  256
370
   -1
100
AcDbCircle
 10
4.178144185548804
 20
6.061057848115206
 40
0.4267252647540968
100
AcDbArc
 50
139.2969893948927
 51
341.1519543680665
  0
ARC
  5
D0
100
AcDbEntity
  8
hatch
  6
ByLayer
 62
  256
370
   -1
100
AcDbCircle
 10
4.178144185548804
 20
6.061057848115206
 40
0.4267252647540968
100
AcDbArc
 50
341.1519543680665
 51
499.2969893948929
  0
ARC
  5
D1
100
AcDbEntity
  8
hatch
  6
ByLayer
 62
  256
370
   -1
100
AcDbCircle
 10
3.669620057702403
 20
5.250168022630405
 40
0.4745128385019999
100
AcDbArc
 50
101.3340592144125
 51
238.8435301700451
  0
ARC
  5
D2
100
AcDbEntity
  8
hatch
  6
ByLayer
 62
  256
370
   -1
100
AcDbCircle
 10
3.669620057702403
 20
5.250168022630405
 40
0.4745128385019999
100
AcDbArc
 50
238.8435301700451
 51
461.3340592144125
  0
ARC
  5
D3
100
AcDbEntity
  8
hatch
  6
ByLayer
 62
  256
370
   -1
100
AcDbCircle
 10
3.064888662425603
 20
5.799923836518405
 40
0.2830041263824072
100
AcDbArc
 50
18.70903499868738
 51
222.9798762772266
  0
ARC
  5
D4
100
AcDbEntity
  8
hatch
  6
ByLayer
 62
  256
370
   -1
100
AcDbCircle
 10
3.064888662425603
 20
5.799923836518405
 40
0.2830041263824072
100
AcDbArc
 50
222.9798762772266
 51
378.7090349986873
  0
ARC
  5
D5
100
AcDbEntity
  8
hatch
  6
ByLayer
 62
  256
370
   -1
100
AcDbCircle
 10
3.106120348467203
 20
6.665789243392006
 40
0.5151669596715946
100
AcDbArc
 50
154.6100715276781
 51
331.3674110669204
  0
ARC
  5
D6
100
AcDbEntity
  8
hatch
  6
ByLayer
 62
  256
370
   -1
100
AcDbCircle
 10
3.106120348467203
 20
6.665789243392006
 40
0.5151669596715946
100
AcDbArc
 50
331.3674110669204
 51
514.6100715276781
  0
ARC
  5
D7
100
AcDbEntity
  8
hatch
  6
ByLayer
 62
  256
370
   -1
100
AcDbCircle
 10
2.185279360204802
 20
5.909874999296005
 40
0.5739619202046309
100
AcDbArc
 50
61.41818878130839
 51
211.0362330080099
  0
ARC
  5
D8
100
AcDbEntity
  8
hatch
  6
ByLayer
 62
  256
370
   -1
100
AcDbCircle
 10
2.185279360204802
 20
5.909874999296005
 40
0.5739619202046309
100
AcDbArc
 50
211.0362330080099
 51
421.4181887813084
  0
ARC
  5
D9
100
AcDbEntity
  8
hatch
  6
ByLayer
 62
  256
370
   -1
100
AcDbCircle
 10
2.377693895065602
 20
4.934058429644804
 40
0.3504019528407499
100
AcDbArc
 50
149.685778321126
 51
48.93045628427556
  0
ARC
  5
DA
100
AcDbEntity
  8
hatch
  6
ByLayer
 62
  256
370
   -1
100
AcDbCircle
 10
2.377693895065602
 20
4.934058429644804
 40
0.3504019528407499
100
AcDbArc
 50
48.93045628427556
 51
149.685778321126
  0
ARC
  5
DB
100
AcDbEntity
  8
hatch
  6
ByLayer
 62
  256
370
   -1
100
AcDbCircle
 10
2.913705813606403
 20
5.044009592422405
 40
0.1738480528805707
100
AcDbArc
 50
76.20262218999125
 51
313.5724703730386
  0
ARC
  5
DC
100
AcDbEntity
  8
hatch
  6
ByLayer
 62
  256
370
   -1
100
AcDbCircle
 10
2.913705813606403
 20
5.044009592422405
 40
0.1738480528805707
100
AcDbArc
 50
313.5724703730386
 51
436.2026221899912
  0
ARC
  5
DD
100
AcDbEntity
  8
hatch
  6
ByLayer
 62
  256
370
   -1
100
AcDbCircle
 10
1.539316278886401
 20
5.126472964505605
 40
0.3026778977191287
100
AcDbArc
 50
0.2233202620061757
 51
198.4024913740448
  0
ARC
  5
DE
100
AcDbEntity
  8
hatch
  6
ByLayer
 62
  256
370
   -1
100
AcDbCircle
 10
1.539316278886401
 20
5.126472964505605
 40
0.3026778977191287
100
AcDbArc
 50
198.4024913740448
 51
360.2233202620062
  0
ARC
  5
DF
100
AcDbEntity
  8
hatch
  6
ByLayer
 62
  256
370
   -1
100
AcDbCircle
 10
1.003304360345601
 20
5.882387208601606
 40
0.4568682507494239
100
AcDbArc
 50
320.8647171901413
 51
113.961744834889
  0
ARC
  5
E0
100
AcDbEntity
  8
hatch
  6
ByLayer
 62
  256
370
   -1
100
AcDbCircle
 10
1.003304360345601
 20
5.882387208601606
 40
0.4568682507494239
100
AcDbArc
 50
113.961744834889
 51
320.8647171901413
  0
ARC
  5
E1
100
AcDbEntity
  8
hatch
  6
ByLayer
 62
  256
370
   -1
100
AcDbCircle
 10
0.7971459301376008
 20
6.885691568947207
 40
0.217310066100714
100
AcDbArc
 50
1.041941297483197
 51
202.2417922948048
  0
ARC
  5
E2
100
AcDbEntity
  8
hatch
  6
ByLayer
 62
  256
370
   -1
100
AcDbCircle
 10
0.7971459301376008
 20
6.885691568947207
 40
0.217310066100714
100
AcDbArc
 50
202.2417922948048
 51
361.0419412974832
  0
ARC
  5
E3
100
AcDbEntity
  8
hatch
  6
ByLayer
 62
  256
370
   -1
100
AcDbCircle
 10
0.3161095929856003
 20
6.638301452697607
 40
0.247771596994703
100
AcDbArc
 50
27.45325435216329
 51
312.2260302779603
  0
ARC
  5
E4
100
AcDbEntity
  8
hatch
  6
ByLayer
 62
  256
370
   -1
100
AcDbCircle
 10
0.3161095929856003
 20
6.638301452697607
 40
0.247771596994703
100
AcDbArc
 50
312.2260302779603
 51
387.4532543521633
  0
ARC
  5
E5
100
AcDbEntity
  8
hatch
  6
ByLayer
 62
  256
370
   -1
100
AcDbCircle
 10
0.4535485464576005
 20
4.672924418048004
 40
0.7347522958941053
100
AcDbArc
 50
231.8821590524483
 51
64.25091537624326
  0
ARC
  5
E6
100
AcDbEntity
  8
hatch
  6
ByLayer
 62
  256
370
   -1
100
AcDbCircle
 10
0.4535485464576005
 20
4.672924418048004
 40
0.7347522958941053
100
AcDbArc
 50
64.25091537624326
 51
128.1178409475519
  0
ARC
  5
E7
100
AcDbEntity
  8
hatch
  6
ByLayer
 62
  256
370
   -1
100
AcDbCircle
 10
5.360119185408005
 20
6.019826162073606
 40
0.3266886629695835
100
AcDbArc
 50
36.31364541876325
 51
272.9551520193423
  0
ARC
  5
E8
100
AcDbEntity
  8
hatch
  6
ByLayer
 62
  256
370
   -1
100
AcDbCircle
 10
5.360119185408005
 20
6.019826162073606
 40
0.3266886629695835
100
AcDbArc
 50
272.9551520193423
 51
396.3136454187633
  0
ARC
  5
E9
100
AcDbEntity
  8
hatch
  6
ByLayer
 62
  256
370
   -1
100
AcDbCircle
 10
1.704243023052802
 20
6.926923254988806
 40
0.4880534452249526
100
AcDbArc
 50
83.17988628099025
 51
246.995858572216
  0
ARC
  5
EA
100
AcDbEntity
  8
hatch
  6
ByLayer
 62
  256
370
   -1
100
AcDbCircle
 10
1.704243023052802
 20
6.926923254988806
 40
0.4880534452249526
100
AcDbArc
 50
246.995858572216
 51
443.1798862809903
  0
ARC
  5
EB
100
AcDbEntity
  8
hatch
  6
ByLayer
 62
  256
370
   -1
100
AcDbCircle
 10
7.806532557209608
 20
6.652045348044807
 40
0.6393497030242504
100
AcDbArc
 50
92.72392362002445
 51
241.0975736062567
  0
ARC
  5
EC
100
AcDbEntity
  8
hatch
  6
ByLayer
 62
  256
370
   -1
100
AcDbCircle
 10
7.806532557209608
 20
6.652045348044807
 40
0.6393497030242504
100
AcDbArc
 50
241.0975736062567
 51
452.7239236200244
  0
ARC
  5
ED
100
AcDbEntity
  8
hatch
  6
ByLayer
 62
  256
370
   -1
100
AcDbCircle
 10
7.971459301376008
 20
5.566277615616006
 40
0.3850744182130343
100
AcDbArc
 50
76.43403087825057
 51
208.5633250063801
  0
ARC
  5
EE
100
AcDbEntity
  8
hatch
  6
ByLayer
 62
  256
370
   -1
100
AcDbCircle
 10
7.971459301376008
 20
5.566277615616006
 40
0.3850744182130343
100
AcDbArc
 50
208.5633250063801
 51
436.4340308782506
  0
ARC
  5
EF
100
AcDbEntity
  8
hatch
  6
ByLayer
 62
  256
370
   -1
100
AcDbCircle
 10
1.608035755622402
 20
4.535485464576005
 40
0.2523043800433971
100
AcDbArc
 50
185.9430243743268
 51
8.615464237857555
  0
ARC
  5
F0
100
AcDbEntity
  8
hatch
  6
ByLayer
 62
  256
370
   -1
100
AcDbCircle
 10
1.608035755622402
 20
4.535485464576005
 40
0.2523043800433971
100
AcDbArc
 50
8.615464237857555
 51
185.9430243743267
  0
ARC
  5
F1
100
AcDbEntity
  8
hatch
  6
ByLayer
 62
  256
370
   -1
100
AcDbCircle
 10
1.415621220761601
 20
3.848290697216004
 40
0.3911581189812843
100
AcDbArc
 50
23.5377990223831
 51
179.7902252488853
  0
ARC
  5
F2
100
AcDbEntity
  8
hatch
  6
ByLayer
 62
  256
370
   -1
100
AcDbCircle
 10
1.415621220761601
 20
3.848290697216004
 40
0.3911581189812843
100
AcDbArc
 50
179.7902252488853
 51
383.5377990223831
  0
ARC
  5
F3
100
AcDbEntity
  8
hatch
  6
ByLayer
 62
  256
370
   -1
100
AcDbCircle
 10
2.611340115968003
 20
3.862034592563204
 40
0.7268688754537896
100
AcDbArc
 50
129.9961554103681
 51
12.14483258030561
  0
ARC
  5
F4
100
AcDbEntity
  8
hatch
  6
ByLayer
 62
  256
370
   -1
100
AcDbCircle
 10
2.611340115968003
 20
3.862034592563204
 40
0.7268688754537896
100
AcDbArc
 50
12.14483258030561
 51
129.9961554103681
  0
ARC
  5
F5
100
AcDbEntity
  8
hatch
  6
ByLayer
 62
  256
370
   -1
100
AcDbCircle
 10
3.380998255411203
 20
4.466765987840004
 40
0.2275019486779211
100
AcDbArc
 50
318.7597403038611
 51
117.4315024174009
  0
ARC
  5
F6
100
AcDbEntity
  8
hatch
  6
ByLayer
 62
  256
370
   -1
100
AcDbCircle
 10
3.380998255411203
 20
4.466765987840004
 40
0.2275019486779211
100
AcDbArc
 50
117.4315024174009
 51
318.7597403038611
  0
ARC
  5
F7
100
AcDbEntity
  8
hatch
  6
ByLayer
 62
  256
370
   -1
100
AcDbCircle
 10
0.5497558138880005
 20
3.504693313536003
 40
0.3161095929856002
100
AcDbArc
 50
25.14903779971847
 51
149.8101487868328
  0
ARC
  5
F8
100
AcDbEntity
  8
hatch
  6
ByLayer
 62
  256
370
   -1
100
AcDbCircle
 10
0.5497558138880005
 20
3.504693313536003
 40
0.3161095929856002
100
AcDbArc
 50
149.8101487868328
 51
385.1490377997185
  0
ARC
  5
F9
100
AcDbEntity
  8
hatch
  6
ByLayer
 62
  256
370
   -1
100
AcDbCircle
 10
1.154487209164801
 20
3.051144767078403
 40
0.3607608907127929
100
AcDbArc
 50
163.5061173858304
 51
357.5702557963752
  0
ARC
  5
FA
100
AcDbEntity
  8
hatch
  6
ByLayer
 62
  256
370
   -1
100
AcDbCircle
 10
1.154487209164801
 20
3.051144767078403
 40
0.3607608907127929
100
AcDbArc
 50
357.5702557963752
 51
523.5061173858303
  0
ARC
  5
FB
100
AcDbEntity
  8
hatch
  6
ByLayer
 62
  256
370
   -1
100
AcDbCircle
 10
1.827938081177602
 20
3.284790987980803
 40
0.2336462209024002
100
AcDbArc
 50
70.39112919527872
 51
215.47566323315
  0
ARC
  5
FC
100
AcDbEntity
  8
hatch
  6
ByLayer
 62
  256
370
   -1
100
AcDbCircle
 10
1.827938081177602
 20
3.284790987980803
 40
0.2336462209024002
100
AcDbArc
 50
215.47566323315
 51
430.3911291952787
  0
ARC
  5
FD
100
AcDbEntity
  8
hatch
  6
ByLayer
 62
  256
370
   -1
100
AcDbCircle
 10
2.418925581107203
 20
2.790010755481603
 40
0.2779530817597597
100
AcDbArc
 50
122.248064491352
 51
23.03214773548111
  0
ARC
  5
FE
100
AcDbEntity
  8
hatch
  6
ByLayer
 62
  256
370
   -1
100
AcDbCircle
 10
2.418925581107203
 20
2.790010755481603
 40
0.2779530817597597
100
AcDbArc
 50
23.03214773548111
 51
122.248064491352
  0
ARC
  5
FF
100
AcDbEntity
  8
hatch
  6
ByLayer
 62
  256
370
   -1
100
AcDbCircle
 10
1.814194185830402
 20
2.748779069440002
 40
0.2625767519219802
100
AcDbArc
 50
45.09183140129142
 51
171.0427783093895
  0
ARC
  5
100
100
AcDbEntity
  8
hatch
  6
ByLayer
 62
  256
370
   -1
100
AcDbCircle
 10
1.814194185830402
 20
2.748779069440002
 40
0.2625767519219802
100
AcDbArc
 50
171.0427783093895
 51
405.0918314012914
  0
ARC
  5
101
100
AcDbEntity
  8
hatch
  6
ByLayer
 62
  256
370
   -1
100
AcDbCircle
 10
6.816972092211206
 20
8.617422382694409
 40
0.2625767519219797
100
AcDbArc
 50
91.93535623212929
 51
334.4791137943968
  0
ARC
  5
102
100
AcDbEntity
  8
hatch
  6
ByLayer
 62
  256
370
   -1
100
AcDbCircle
 10
6.816972092211206
 20
8.617422382694409
 40
0.2625767519219797
100
AcDbArc
 50
334.4791137943968
 51
451.9353562321293
  0
ARC
  5
103
100
AcDbEntity
  8
hatch
  6
ByLayer
 62
  256
370
   -1
100
AcDbCircle
 10
4.343070929715204
 20
4.219375871590404
 40
0.5774071992022595
100
AcDbArc
 50
104.5679561011544
 51
293.0557745879107
  0
ARC
  5
104
100
AcDbEntity
  8
hatch
  6
ByLayer
 62
  256
370
   -1
100
AcDbCircle
 10
4.343070929715204
 20
4.219375871590404
 40
0.5774071992022595
100
AcDbArc
 50
293.0557745879107
 51
464.5679561011544
  0
ARC
  5
105
100
AcDbEntity
  8
hatch
  6
ByLayer
 62
  256
370
   -1
100
AcDbCircle
 10
4.301839243673604
 20
3.202327615897603
 40
0.2582243496228028
100
AcDbArc
 50
61.19429959087107
 51
206.3902464780313
  0
ARC
  5
106
100
AcDbEntity
  8
hatch
  6
ByLayer
 62
  256
370
   -1
100
AcDbCircle
 10
4.301839243673604
 20
3.202327615897603
 40
0.2582243496228028
100
AcDbArc
 50
206.3902464780313
 51
421.1942995908711
  0
ARC
  5
107
100
AcDbEntity
  8
hatch
  6
ByLayer
 62
  256
370
   -1
100
AcDbCircle
 10
5.044009592422405
 20
3.793315115827204
 40
0.1649267441664004
100
AcDbArc
 50
187.3925873479869
 51
28.445604139735
  0
ARC
  5
108
100
AcDbEntity
  8
hatch
  6
ByLayer
 62
  256
370
   -1
100
AcDbCircle
 10
5.044009592422405
 20
3.793315115827204
 40
0.1649267441664004
100
AcDbArc
 50
28.445604139735
 51
187.3925873479868
  0
ARC
  5
109
100
AcDbEntity
  8
hatch
  6
ByLayer
 62
  256
370
   -1
100
AcDbCircle
 10
5.044009592422405
 20
3.106120348467203
 40
0.4681002080806547
100
AcDbArc
 50
44.13526234991519
 51
189.5005020735822
  0
ARC
  5
10A
100
AcDbEntity
  8
hatch
  6
ByLayer
 62
  256
370
   -1
100
AcDbCircle
 10
5.044009592422405
 20
3.106120348467203
 40
0.4681002080806547
100
AcDbArc
 50
189.5005020735822
 51
404.1352623499152
  0
ARC
  5
10B
100
AcDbEntity
  8
hatch
  6
ByLayer
 62
  256
370
   -1
100
AcDbCircle
 10
4.507997673881604
 20
2.473901162496003
 40
0.3476961057611418
100
AcDbArc
 50
114.6717642908923
 51
236.8453534090705
  0
ARC
  5
10C
100
AcDbEntity
  8
hatch
  6
ByLayer
 62
  256
370
   -1
100
AcDbCircle
 10
4.507997673881604
 20
2.473901162496003
 40
0.3476961057611418
100
AcDbArc
 50
236.8453534090705
 51
474.6717642908923
  0
ARC
  5
10D
100
AcDbEntity
  8
hatch
  6
ByLayer
 62
  256
370
   -1
100
AcDbCircle
 10
6.514606394572806
 20
3.188583720550403
 40
0.7014774319356382
100
AcDbArc
 50
165.7054858625134
 51
14.27647702899125
  0
ARC
  5
10E
100
AcDbEntity
  8
hatch
  6
ByLayer
 62
  256
370
   -1
100
AcDbCircle
 10
6.514606394572806
 20
3.188583720550403
 40
0.7014774319356382
100
AcDbArc
 50
14.27647702899125
 51
165.7054858625135
  0
ARC
  5
10F
100
AcDbEntity
  8
hatch
  6
ByLayer
 62
  256
370
   -1
100
AcDbCircle
 10
7.366727906099207
 20
3.765827325132804
 40
0.2477715969947031
100
AcDbArc
 50
244.2015512704111
 51
124.9230170631695
  0
ARC
  5
110
100
AcDbEntity
  8
hatch
  6
ByLayer
 62
  256
370
   -1
100
AcDbCircle
 10
7.366727906099207
 20
3.765827325132804
 40
0.2477715969947031
100
AcDbArc
 50
124.9230170631695
 51
244.2015512704111
  0
ARC
  5
111
100
AcDbEntity
  8
hatch
  6
ByLayer
 62
  256
370
   -1
100
AcDbCircle
 10
6.707020929433607
 20
4.453022092492804
 40
0.4118584757713236
100
AcDbArc
 50
320.7621785974558
 51
52.80449786288651
  0
ARC
  5
112
100
AcDbEntity
  8
hatch
  6
ByLayer
 62
  256
370
   -1
100
AcDbCircle
 10
6.707020929433607
 20
4.453022092492804
 40
0.4118584757713236
100
AcDbArc
 50
52.80449786288651
 51
320.7621785974558
  0
ARC
  5
113
100
AcDbEntity
  8
hatch
  6
ByLayer
 62
  256
370
   -1
100
AcDbCircle
 10
5.923618894643206
 20
4.810363371520005
 40
0.2133626323770483
100
AcDbArc
 50
298.4926053366708
 51
166.5263529530987
  0
ARC
  5
114
100
AcDbEntity
  8
hatch
  6
ByLayer
 62
  256
370
   -1
100
AcDbCircle
 10
5.923618894643206
 20
4.810363371520005
 40
0.2133626323770483
100
AcDbArc
 50
166.5263529530987
 51
298.4926053366708
  0
ARC
  5
115
100
AcDbEntity
  8
hatch
  6
ByLayer
 62
  256
370
   -1
100
AcDbCircle
 10
3.655876162355204
 20
3.587156685619203
 40
0.3394491746668708
100
AcDbArc
 50
317.1970141299787
 51
106.4353881682062
  0
ARC
  5
116
100
AcDbEntity
  8
hatch
  6
ByLayer
 62
  256
370
   -1
100
AcDbCircle
 10
3.655876162355204
 20
3.587156685619203
 40
0.3394491746668708
100
AcDbArc
 50
106.4353881682062
 51
317.1970141299787
  0
ARC
  5
117
100
AcDbEntity
  8
hatch
  6
ByLayer
 62
  256
370
   -1
100
AcDbCircle
 10
3.394742150758403
 20
2.542620639232002
 40
0.7148146986782631
100
AcDbArc
 50
106.6330770715086
 51
335.0859523525913
  0
ARC
  5
118
100
AcDbEntity
  8
hatch
  6
ByLayer
 62
  256
370
   -1
100
AcDbCircle
 10
3.394742150758403
 20
2.542620639232002
 40
0.7148146986782631
100
AcDbArc
 50
335.0859523525913
 51
466.6330770715086
  0
ARC
  5
119
100
AcDbEntity
  8
hatch
  6
ByLayer
 62
  256
370
   -1
100
AcDbCircle
 10
5.153960755200005
 20
4.755387790131205
 40
0.1929047637696202
100
AcDbArc
 50
162.9186591365026
 51
6.623456413550922
  0
ARC
  5
11A
100
AcDbEntity
  8
hatch
  6
ByLayer
 62
  256
370
   -1
100
AcDbCircle
 10
5.153960755200005
 20
4.755387790131205
 40
0.1929047637696202
100
AcDbArc
 50
6.623456413550922
 51
162.9186591365026
  0
ARC
  5
11B
100
AcDbEntity
  8
hatch
  6
ByLayer
 62
  256
370
   -1
100
AcDbCircle
 10
5.538789824921605
 20
4.246863662284804
 40
0.4233922905412096
100
AcDbArc
 50
9.294360649981844
 51
184.9919038446243
  0
ARC
  5
11C
100
AcDbEntity
  8
hatch
  6
ByLayer
 62
  256
370
   -1
100
AcDbCircle
 10
5.538789824921605
 20
4.246863662284804
 40
0.4233922905412096
100
AcDbArc
 50
184.9919038446243
 51
369.2943606499819
  0
ARC
  5
11D
100
AcDbEntity
  8
hatch
  6
ByLayer
 62
  256
370
   -1
100
AcDbCircle
 10
6.171009010892806
 20
4.068193022771204
 40
0.1869371872400877
100
AcDbArc
 50
84.90098934391473
 51
235.3144378608164
  0
ARC
  5
11E
100
AcDbEntity
  8
hatch
  6
ByLayer
 62
  256
370
   -1
100
AcDbCircle
 10
6.171009010892806
 20
4.068193022771204
 40
0.1869371872400877
100
AcDbArc
 50
235.3144378608164
 51
444.9009893439147
  0
ARC
  5
11F
100
AcDbEntity
  8
hatch
  6
ByLayer
 62
  256
370
   -1
100
AcDbCircle
 10
8.163873836236808
 20
3.655876162355204
 40
0.3438721517236549
100
AcDbArc
 50
316.0372051324715
 51
183.9158918254139
  0
ARC
  5
120
100
AcDbEntity
  8
hatch
  6
ByLayer
 62
  256
370
   -1
100
AcDbCircle
 10
8.163873836236808
 20
3.655876162355204
 40
0.3438721517236549
100
AcDbArc
 50
183.9158918254139
 51
316.0372051324716
  0
ARC
  5
121
100
AcDbEntity
  8
hatch
  6
ByLayer
 62
  256
370
   -1
100
AcDbCircle
 10
8.644910173388809
 20
4.068193022771204
 40
0.2364589164256164
100
AcDbArc
 50
140.4070632413423
 51
271.2325558501773
  0
ARC
  5
122
100
AcDbEntity
  8
hatch
  6
ByLayer
 62
  256
370
   -1
100
AcDbCircle
 10
8.644910173388809
 20
4.068193022771204
 40
0.2364589164256164
100
AcDbArc
 50
271.2325558501773
 51
500.4070632413423
  0
ARC
  5
123
100
AcDbEntity
  8
hatch
  6
ByLayer
 62
  256
370
   -1
100
AcDbCircle
 10
8.631166278041608
 20
3.078632557772803
 40
0.2859919360459359
100
AcDbArc
 50
71.37599203401788
 51
255.5495422806086
  0
ARC
  5
124
100
AcDbEntity
  8
hatch
  6
ByLayer
 62
  256
370
   -1
100
AcDbCircle
 10
8.631166278041608
 20
3.078632557772803
 40
0.2859919360459359
100
AcDbArc
 50
255.5495422806086
 51
431.3759920340178
  0
ARC
  5
125
100
AcDbEntity
  8
hatch
  6
ByLayer
 62
  256
370
   -1
100
AcDbCircle
 10
7.779044766515208
 20
2.954937499648003
 40
0.3880064992675819
100
AcDbArc
 50
10.04831681788344
 51
205.5973419896218
  0
ARC
  5
126
100
AcDbEntity
  8
hatch
  6
ByLayer
 62
  256
370
   -1
100
AcDbCircle
 10
7.779044766515208
 20
2.954937499648003
 40
0.3880064992675819
100
AcDbArc
 50
205.5973419896218
 51
370.0483168178835
  0
ARC
  5
127
100
AcDbEntity
  8
hatch
  6
ByLayer
 62
  256
370
   -1
100
AcDbCircle
 10
5.621253197004806
 20
3.600900580966404
 40
0.2066160521477982
100
AcDbArc
 50
305.631998848971
 51
148.2916045752736
  0
ARC
  5
128
100
AcDbEntity
  8
hatch
  6
ByLayer
 62
  256
370
   -1
100
AcDbCircle
 10
5.621253197004806
 20
3.600900580966404
 40
0.2066160521477982
100
AcDbArc
 50
148.2916045752736
 51
305.631998848971
  0
ARC
  5
129
100
AcDbEntity
  8
hatch
  6
ByLayer
 62
  256
370
   -1
100
AcDbCircle
 10
5.538789824921605
 20
2.693803488051203
 40
0.160279985234623
100
AcDbArc
 50
18.19558311537807
 51
230.895097398898
  0
ARC
  5
12A
100
AcDbEntity
  8
hatch
  6
ByLayer
 62
  256
370
   -1
100
AcDbCircle
 10
5.538789824921605
 20
2.693803488051203
 40
0.160279985234623
100
AcDbArc
 50
230.895097398898
 51
378.195583115378
  0
ARC
  5
12B
100
AcDbEntity
  8
hatch
  6
ByLayer
 62
  256
370
   -1
100
AcDbCircle
 10
1.017048255692801
 20
2.295230522982402
 40
0.382860621673572
100
AcDbArc
 50
30.21149784365913
 51
200.3670344083842
  0
ARC
  5
12C
100
AcDbEntity
  8
hatch
  6
ByLayer
 62
  256
370
   -1
100
AcDbCircle
 10
1.017048255692801
 20
2.295230522982402
 40
0.382860621673572
100
AcDbArc
 50
200.3670344083842
 51
390.2114978436591
  0
ARC
  5
12D
100
AcDbEntity
  8
hatch
  6
ByLayer
 62
  256
370
   -1
100
AcDbCircle
 10
0.5909874999296005
 20
1.855425871872002
 40
0.1869371872400872
100
AcDbArc
 50
138.2606516666057
 51
307.0953710720628
  0
ARC
  5
12E
100
AcDbEntity
  8
hatch
  6
ByLayer
 62
  256
370
   -1
100
AcDbCircle
 10
0.5909874999296005
 20
1.855425871872002
 40
0.1869371872400872
100
AcDbArc
 50
307.0953710720628
 51
498.2606516666057
  0
ARC
  5
12F
100
AcDbEntity
  8
hatch
  6
ByLayer
 62
  256
370
   -1
100
AcDbCircle
 10
1.209462790553601
 20
1.553060174233601
 40
0.3446951416962538
100
AcDbArc
 50
151.1323311731963
 51
311.3381484027364
  0
ARC
  5
130
100
AcDbEntity
  8
hatch
  6
ByLayer
 62
  256
370
   -1
100
AcDbCircle
 10
1.209462790553601
 20
1.553060174233601
 40
0.3446951416962538
100
AcDbArc
 50
311.3381484027364
 51
511.1323311731963
  0
ARC
  5
131
100
AcDbEntity
  8
hatch
  6
ByLayer
 62
  256
370
   -1
100
AcDbCircle
 10
1.388133430067201
 20
0.8383776161792008
 40
0.2625767519219799
100
AcDbArc
 50
70.83858197233343
 51
185.3648291045217
  0
ARC
  5
132
100
AcDbEntity
  8
hatch
  6
ByLayer
 62
  256
370
   -1
100
AcDbCircle
 10
1.388133430067201
 20
0.8383776161792008
 40
0.2625767519219799
100
AcDbArc
 50
185.3648291045217
 51
430.8385819723335
  0
ARC
  5
133
100
AcDbEntity
  8
hatch
  6
ByLayer
 62
  256
370
   -1
100
AcDbCircle
 10
1.841681976524802
 20
0.2886218022912003
 40
0.2458582741758585
100
AcDbArc
 50
123.0176292683498
 51
315.7235034651527
  0
ARC
  5
134
100
AcDbEntity
  8
hatch
  6
ByLayer
 62
  256
370
   -1
100
AcDbCircle
 10
1.841681976524802
 20
0.2886218022912003
 40
0.2458582741758585
100
AcDbArc
 50
315.7235034651527
 51
483.0176292683498
  0
ARC
  5
135
100
AcDbEntity
  8
hatch
  6
ByLayer
 62
  256
370
   -1
100
AcDbCircle
 10
2.501388953190403
 20
0.3573412790272004
 40
0.2941322049116214
100
AcDbArc
 50
143.2481010864676
 51
343.3851705528568
  0
ARC
  5
136
100
AcDbEntity
  8
hatch
  6
ByLayer
 62
  256
370
   -1
100
AcDbCircle
 10
2.501388953190403
 20
0.3573412790272004
 40
0.2941322049116214
100
AcDbArc
 50
343.3851705528568
 51
503.2481010864676
  0
ARC
  5
137
100
AcDbEntity
  8
hatch
  6
ByLayer
 62
  256
370
   -1
100
AcDbCircle
 10
2.157791569510402
 20
1.264438371942401
 40
0.5832660468653476
100
AcDbArc
 50
310.9714185518776
 51
180.2038039302413
  0
ARC
  5
138
100
AcDbEntity
  8
hatch
  6
ByLayer
 62
  256
370
   -1
100
AcDbCircle
 10
2.157791569510402
 20
1.264438371942401
 40
0.5832660468653476
100
AcDbArc
 50
180.2038039302413
 51
310.9714185518775
  0
ARC
  5
139
100
AcDbEntity
  8
hatch
  6
ByLayer
 62
  256
370
   -1
100
AcDbCircle
 10
2.446413371801603
 20
2.089072092774402
 40
0.204317693087426
100
AcDbArc
 50
131.1508876837203
 51
329.7016099559913
  0
ARC
  5
13A
100
AcDbEntity
  8
hatch
  6
ByLayer
 62
  256
370
   -1
100
AcDbCircle
 10
2.446413371801603
 20
2.089072092774402
 40
0.204317693087426
100
AcDbArc
 50
329.7016099559913
 51
491.1508876837203
  0
ARC
  5
13B
100
AcDbEntity
  8
hatch
  6
ByLayer
 62
  256
370
   -1
100
AcDbCircle
 10
2.996169185689603
 20
1.690499127705602
 40
0.2061584302080004
100
AcDbArc
 50
148.3597517517426
 51
336.8367271764757
  0
ARC
  5
13C
100
AcDbEntity
  8
hatch
  6
ByLayer
 62
  256
370
   -1
100
AcDbCircle
 10
2.996169185689603
 20
1.690499127705602
 40
0.2061584302080004
100
AcDbArc
 50
336.8367271764757
 51
508.3597517517426
  0
ARC
  5
13D
100
AcDbEntity
  8
hatch
  6
ByLayer
 62
  256
370
   -1
100
AcDbCircle
 10
3.106120348467203
 20
1.072023837081601
 40
0.3692992607970882
100
AcDbArc
 50
47.62042671173858
 51
232.3006813870612
  0
ARC
  5
13E
100
AcDbEntity
  8
hatch
  6
ByLayer
 62
  256
370
   -1
100
AcDbCircle
 10
3.106120348467203
 20
1.072023837081601
 40
0.3692992607970882
100
AcDbArc
 50
232.3006813870612
 51
407.6204267117386
  0
ARC
  5
13F
100
AcDbEntity
  8
hatch
  6
ByLayer
 62
  256
370
   -1
100
AcDbCircle
 10
3.367254360064003
 20
0.3985729650688004
 40
0.3520154776575877
100
AcDbArc
 50
147.650554129914
 51
329.0408515994561
  0
ARC
  5
140
100
AcDbEntity
  8
hatch
  6
ByLayer
 62
  256
370
   -1
100
AcDbCircle
 10
3.367254360064003
 20
0.3985729650688004
 40
0.3520154776575877
100
AcDbArc
 50
329.0408515994561
 51
507.650554129914
  0
ARC
  5
141
100
AcDbEntity
  8
hatch
  6
ByLayer
 62
  256
370
   -1
100
AcDbCircle
 10
4.136912499507204
 20
0.6184752906240006
 40
0.3698104018871088
100
AcDbArc
 50
173.5226528684449
 51
2.951637079724004
  0
ARC
  5
142
100
AcDbEntity
  8
hatch
  6
ByLayer
 62
  256
370
   -1
100
AcDbCircle
 10
4.136912499507204
 20
0.6184752906240006
 40
0.3698104018871088
100
AcDbArc
 50
2.951637079724004
 51
173.5226528684449
  0
ARC
  5
143
100
AcDbEntity
  8
hatch
  6
ByLayer
 62
  256
370
   -1
100
AcDbCircle
 10
3.697107848396803
 20
1.072023837081601
 40
0.214686508362328
100
AcDbArc
 50
4.71106160342393
 51
125.1877801736805
  0
ARC
  5
144
100
AcDbEntity
  8
hatch
  6
ByLayer
 62
  256
370
   -1
100
AcDbCircle
 10
3.697107848396803
 20
1.072023837081601
 40
0.214686508362328
100
AcDbArc
 50
125.1877801736805
 51
364.711061603424
  0
ARC
  5
145
100
AcDbEntity
  8
hatch
  6
ByLayer
 62
  256
370
   -1
100
AcDbCircle
 10
3.930754069299204
 20
1.635523546316802
 40
0.3109888511975475
100
AcDbArc
 50
240.4616912592808
 51
43.62945997007982
  0
ARC
  5
146
100
AcDbEntity
  8
hatch
  6
ByLayer
 62
  256
370
   -1
100
AcDbCircle
 10
3.930754069299204
 20
1.635523546316802
 40
0.3109888511975475
100
AcDbArc
 50
43.62945997007982
 51
240.4616912592807
  0
ARC
  5
147
100
AcDbEntity
  8
hatch
  6
ByLayer
 62
  256
370
   -1
100
AcDbCircle
 10
4.975290115686405
 20
1.498084592844801
 40
0.6569811995287888
100
AcDbArc
 50
131.1191586351593
 51
332.5863401224296
  0
ARC
  5
148
100
AcDbEntity
  8
hatch
  6
ByLayer
 62
  256
370
   -1
100
AcDbCircle
 10
4.975290115686405
 20
1.498084592844801
 40
0.6569811995287888
100
AcDbArc
 50
332.5863401224296
 51
491.1191586351593
  0
ARC
  5
149
100
AcDbEntity
  8
hatch
  6
ByLayer
 62
  256
370
   -1
100
AcDbCircle
 10
5.195192441241606
 20
2.350206104371202
 40
0.1909362963078354
100
AcDbArc
 50
178.8272106652627
 51
338.6202636450634
  0
ARC
  5
14A
100
AcDbEntity
  8
hatch
  6
ByLayer
 62
  256
370
   -1
100
AcDbCircle
 10
5.195192441241606
 20
2.350206104371202
 40
0.1909362963078354
100
AcDbArc
 50
338.6202636450634
 51
366.4722065219567
  0
ARC
  5
14B
100
AcDbEntity
  8
hatch
  6
ByLayer
 62
  256
370
   -1
100
AcDbCircle
 10
5.195192441241606
 20
2.350206104371202
 40
0.1909362963078354
100
AcDbArc
 50
6.472206521956672
 51
160.0056199445268
  0
ARC
  5
14C
100
AcDbEntity
  8
hatch
  6
ByLayer
 62
  256
370
   -1
100
AcDbCircle
 10
5.195192441241606
 20
2.350206104371202
 40
0.1909362963078354
100
AcDbArc
 50
160.0056199445268
 51
178.8272106652627
  0
ARC
  5
14D
100
AcDbEntity
  8
hatch
  6
ByLayer
 62
  256
370
   -1
100
AcDbCircle
 10
6.033570057420806
 20
2.047840406732802
 40
0.4857256730750062
100
AcDbArc
 50
130.2068896967635
 51
332.0495176620049
  0
ARC
  5
14E
100
AcDbEntity
  8
hatch
  6
ByLayer
 62
  256
370
   -1
100
AcDbCircle
 10
6.033570057420806
 20
2.047840406732802
 40
0.4857256730750062
100
AcDbArc
 50
332.0495176620049
 51
490.2068896967635
  0
ARC
  5
14F
100
AcDbEntity
  8
hatch
  6
ByLayer
 62
  256
370
   -1
100
AcDbCircle
 10
6.487118603878407
 20
1.374389534720001
 40
0.2400268132751211
100
AcDbArc
 50
86.73661674667376
 51
284.0107945136107
  0
ARC
  5
150
100
AcDbEntity
  8
hatch
  6
ByLayer
 62
  256
370
   -1
100
AcDbCircle
 10
6.487118603878407
 20
1.374389534720001
 40
0.2400268132751211
100
AcDbArc
 50
284.0107945136107
 51
446.7366167466738
  0
ARC
  5
151
100
AcDbEntity
  8
hatch
  6
ByLayer
 62
  256
370
   -1
100
AcDbCircle
 10
6.033570057420806
 20
1.291926162636801
 40
0.1672017032765765
100
AcDbArc
 50
331.1815839787926
 51
135.0197867309439
  0
ARC
  5
152
100
AcDbEntity
  8
hatch
  6
ByLayer
 62
  256
370
   -1
100
AcDbCircle
 10
6.033570057420806
 20
1.291926162636801
 40
0.1672017032765765
100
AcDbArc
 50
135.0197867309439
 51
331.1815839787926
  0
ARC
  5
153
100
AcDbEntity
  8
hatch
  6
ByLayer
 62
  256
370
   -1
100
AcDbCircle
 10
4.961546220339205
 20
0.4260607557632004
 40
0.3468802357925845
100
AcDbArc
 50
138.2916102552629
 51
322.4782930236296
  0
ARC
  5
154
100
AcDbEntity
  8
hatch
  6
ByLayer
 62
  256
370
   -1
100
AcDbCircle
 10
4.961546220339205
 20
0.4260607557632004
 40
0.3468802357925845
100
AcDbArc
 50
322.4782930236296
 51
498.291610255263
  0
ARC
  5
155
100
AcDbEntity
  8
hatch
  6
ByLayer
 62
  256
370
   -1
100
AcDbCircle
 10
5.964850580684806
 20
0.5634997092352005
 40
0.4874725442709577
100
AcDbArc
 50
71.53808263388513
 51
236.8970962919089
  0
ARC
  5
156
100
AcDbEntity
  8
hatch
  6
ByLayer
 62
  256
370
   -1
100
AcDbCircle
 10
5.964850580684806
 20
0.5634997092352005
 40
0.4874725442709577
100
AcDbArc
 50
236.8970962919089
 51
284.9122281896907
  0
ARC
  5
157
100
AcDbEntity
  8
hatch
  6
ByLayer
 62
  256
370
   -1
100
AcDbCircle
 10
5.964850580684806
 20
0.5634997092352005
 40
0.4874725442709577
100
AcDbArc
 50
284.9122281896907
 51
48.38185229056238
  0
ARC
  5
158
100
AcDbEntity
  8
hatch
  6
ByLayer
 62
  256
370
   -1
100
AcDbCircle
 10
5.964850580684806
 20
0.5634997092352005
 40
0.4874725442709577
100
AcDbArc
 50
48.38185229056238
 51
71.53808263388514
  0
ARC
  5
159
100
AcDbEntity
  8
hatch
  6
ByLayer
 62
  256
370
   -1
100
AcDbCircle
 10
6.830715987558406
 20
0.6871947673600006
 40
0.332704479017739
100
AcDbArc
 50
105.5366479008687
 51
330.0762512419431
  0
ARC
  5
15A
100
AcDbEntity
  8
hatch
  6
ByLayer
 62
  256
370
   -1
100
AcDbCircle
 10
6.830715987558406
 20
0.6871947673600006
 40
0.332704479017739
100
AcDbArc
 50
330.0762512419431
 51
465.5366479008687
  0
ARC
  5
15B
100
AcDbEntity
  8
hatch
  6
ByLayer
 62
  256
370
   -1
100
AcDbCircle
 10
7.311752324710407
 20
1.608035755622402
 40
0.5921051322934491
100
AcDbArc
 50
288.2010820887242
 51
1.221187604641808
  0
ARC
  5
15C
100
AcDbEntity
  8
hatch
  6
ByLayer
 62
  256
370
   -1
100
AcDbCircle
 10
7.311752324710407
 20
1.608035755622402
 40
0.5921051322934491
100
AcDbArc
 50
1.221187604641808
 51
288.2010820887243
  0
ARC
  5
15D
100
AcDbEntity
  8
hatch
  6
ByLayer
 62
  256
370
   -1
100
AcDbCircle
 10
6.734508720128007
 20
2.253998836940802
 40
0.1518062858922644
100
AcDbArc
 50
297.2080744539567
 51
133.6243230230253
  0
ARC
  5
15E
100
AcDbEntity
  8
hatch
  6
ByLayer
 62
  256
370
   -1
100
AcDbCircle
 10
6.734508720128007
 20
2.253998836940802
 40
0.1518062858922644
100
AcDbArc
 50
133.6243230230253
 51
297.2080744539567
  0
ARC
  5
15F
100
AcDbEntity
  8
hatch
  6
ByLayer
 62
  256
370
   -1
100
AcDbCircle
 10
7.105593894502407
 20
2.432669476454402
 40
0.2043176930874263
100
AcDbArc
 50
78.01067140242502
 51
352.6433354652484
  0
ARC
  5
160
100
AcDbEntity
  8
hatch
  6
ByLayer
 62
  256
370
   -1
100
AcDbCircle
 10
7.105593894502407
 20
2.432669476454402
 40
0.2043176930874263
100
AcDbArc
 50
352.6433354652484
 51
438.010671402425
  0
ARC
  5
161
100
AcDbEntity
  8
hatch
  6
ByLayer
 62
  256
370
   -1
100
AcDbCircle
 10
8.191361626931208
 20
2.226511046246402
 40
0.4267252647540966
100
AcDbArc
 50
172.3891510086915
 51
32.7449658626143
  0
ARC
  5
162
100
AcDbEntity
  8
hatch
  6
ByLayer
 62
  256
370
   -1
100
AcDbCircle
 10
8.191361626931208
 20
2.226511046246402
 40
0.4267252647540966
100
AcDbArc
 50
32.7449658626143
 51
172.3891510086916
  0
ARC
  5
163
100
AcDbEntity
  8
hatch
  6
ByLayer
 62
  256
370
   -1
100
AcDbCircle
 10
9.318361045401609
 20
2.625084011315203
 40
0.3134090344002367
100
AcDbArc
 50
129.1448135964868
 51
358.7283514930642
  0
ARC
  5
164
100
AcDbEntity
  8
hatch
  6
ByLayer
 62
  256
370
   -1
100
AcDbCircle
 10
9.318361045401609
 20
2.625084011315203
 40
0.3134090344002367
100
AcDbArc
 50
358.7283514930642
 51
489.1448135964868
  0
ARC
  5
165
100
AcDbEntity
  8
hatch
  6
ByLayer
 62
  256
370
   -1
100
AcDbCircle
 10
8.892300289638408
 20
2.089072092774402
 40
0.2458582741758597
100
AcDbArc
 50
35.71069183962888
 51
211.8759448296921
  0
ARC
  5
166
100
AcDbEntity
  8
hatch
  6
ByLayer
 62
  256
370
   -1
100
AcDbCircle
 10
8.892300289638408
 20
2.089072092774402
 40
0.2458582741758597
100
AcDbArc
 50
211.8759448296921
 51
395.7106918396289
  0
ARC
  5
167
100
AcDbEntity
  8
hatch
  6
ByLayer
 62
  256
370
   -1
100
AcDbCircle
 10
8.658654068736009
 20
1.388133430067201
 40
0.4674945142215112
100
AcDbArc
 50
99.92229195055393
 51
182.3820667452172
  0
ARC
  5
168
100
AcDbEntity
  8
hatch
  6
ByLayer
 62
  256
370
   -1
100
AcDbCircle
 10
8.658654068736009
 20
1.388133430067201
 40
0.4674945142215112
100
AcDbArc
 50
182.3820667452172
 51
459.9222919505539
  0
ARC
  5
169
100
AcDbEntity
  8
hatch
  6
ByLayer
 62
  256
370
   -1
100
AcDbCircle
 10
7.971459301376008
 20
0.9620726743040009
 40
0.297325916393643
100
AcDbArc
 50
81.08410776054123
 51
284.337208675107
  0
ARC
  5
16A
100
AcDbEntity
  8
hatch
  6
ByLayer
 62
  256
370
   -1
100
AcDbCircle
 10
7.971459301376008
 20
0.9620726743040009
 40
0.297325916393643
100
AcDbArc
 50
284.337208675107
 51
441.0841077605413
  0
ARC
  5
16B
100
AcDbEntity
  8
hatch
  6
ByLayer
 62
  256
370
   -1
100
AcDbCircle
 10
7.641605813043207
 20
0.4123168604160004
 40
0.2534249083397829
100
AcDbArc
 50
22.01467589621925
 51
193.5945879343265
  0
ARC
  5
16C
100
AcDbEntity
  8
hatch
  6
ByLayer
 62
  256
370
   -1
100
AcDbCircle
 10
7.641605813043207
 20
0.4123168604160004
 40
0.2534249083397829
100
AcDbArc
 50
193.5945879343265
 51
382.0146758962192
  0
ARC
  5
16D
100
AcDbEntity
  8
hatch
  6
ByLayer
 62
  256
370
   -1
100
AcDbCircle
 10
9.48328778956801
 20
0.7421703487488007
 40
0.3173024636128452
100
AcDbArc
 50
107.5485015619695
 51
348.4299454392707
  0
ARC
  5
16E
100
AcDbEntity
  8
hatch
  6
ByLayer
 62
  256
370
   -1
100
AcDbCircle
 10
9.48328778956801
 20
0.7421703487488007
 40
0.3173024636128452
100
AcDbArc
 50
348.4299454392707
 51
467.5485015619695
  0
ARC
  5
16F
100
AcDbEntity
  8
hatch
  6
ByLayer
 62
  256
370
   -1
100
AcDbCircle
 10
9.55200726630401
 20
1.333157848678401
 40
0.2097914574532172
100
AcDbArc
 50
323.3983627814245
 51
177.5475319321734
  0
ARC
  5
170
100
AcDbEntity
  8
hatch
  6
ByLayer
 62
  256
370
   -1
100
AcDbCircle
 10
9.55200726630401
 20
1.333157848678401
 40
0.2097914574532172
100
AcDbArc
 50
177.5475319321734
 51
323.3983627814245
  0
ARC
  5
171
100
AcDbEntity
  8
hatch
  6
ByLayer
 62
  256
370
   -1
100
AcDbCircle
 10
1.759218604441602
 20
2.130303778816002
 40
0.3309968314086649
100
AcDbArc
 50
209.8451218511463
 51
34.19953688233979
  0
ARC
  5
172
100
AcDbEntity
  8
hatch
  6
ByLayer
 62
  256
370
   -1
100
AcDbCircle
 10
1.759218604441602
 20
2.130303778816002
 40
0.3309968314086649
100
AcDbArc
 50
34.19953688233979
 51
189.5838916829492
  0
ARC
  5
173
100
AcDbEntity
  8
hatch
  6
ByLayer
 62
  256
370
   -1
100
AcDbCircle
 10
1.759218604441602
 20
2.130303778816002
 40
0.3309968314086649
100
AcDbArc
 50
189.5838916829492
 51
209.8451218511463
  0
ENDSEC
  0
SECTION
  2
OBJECTS
  0
DICTIONARY
  5
C
330
0
100
AcDbDictionary
281
    1
  3
ACAD_GROUP
350
D
  0
DICTIONARY
  5
D
330
C
100
AcDbDictionary
281
    1
  0
ENDSEC
  0
EOF
