999
dxfrw 0.6.3
  0
SECTION
  2
HEADER
  9
$ACADVER
  1
AC1021
  9
$DWGCODEPAGE
  3
ANSI_1252
  9
$INSBASE
 10
0
 20
0
 30
0
  9
$EXTMIN
 10
-13.51726300269365
 20
-18.02994299959391
 30
0
  9
$EXTMAX
 10
136.3389843913994
 20
108.420056999661
 30
0
  9
$LIMMIN
 10
32511534.809763
 20
5375243.039943
  9
$LIMMAX
 10
32511622.484763
 20
5375343.239943
  9
$ORTHOMODE
 70
    0
  9
$REGENMODE
 70
    1
  9
$FILLMODE
 70
    1
  9
$QTEXTMODE
 70
    0
  9
$MIRRTEXT
 70
    1
  9
$LTSCALE
 40
1
  9
$ATTMODE
 70
    1
  9
$TEXTSIZE
 40
1
  9
$TRACEWID
 40
0.05
  9
$TEXTSTYLE
  7
SIMPLEX
  9
$CLAYER
  8
0
  9
$CELTYPE
  6
BYBLOCK
  9
$CECOLOR
 62
  256
  9
$CELTSCALE
 40
1
  9
$DISPSILH
 70
    0
  9
$DIMSCALE
 40
1
  9
$DIMASZ
 40
0.18
  9
$DIMEXO
 40
0.0625
  9
$DIMDLI
 40
0.38
  9
$DIMRND
 40
0
  9
$DIMDLE
 40
0
  9
$DIMEXE
 40
0.18
  9
$DIMTP
 40
0
  9
$DIMTM
 40
0
  9
$DIMTXT
 40
0.18
  9
$DIMCEN
 40
0.09
  9
$DIMTSZ
 40
0
  9
$DIMTOL
 70
    0
  9
$DIMLIM
 70
    0
  9
$DIMTIH
 70
    1
  9
$DIMTOH
 70
    1
  9
$DIMSE1
 70
    0
  9
$DIMSE2
 70
    0
  9
$DIMTAD
 70
    0
  9
$DIMZIN
 70
    0
  9
$DIMBLK
  1

  9
$DIMASO
 70
    1
  9
$DIMSHO
 70
    1
  9
$DIMPOST
  1

  9
$DIMAPOST
  1

  9
$DIMALT
 70
    0
  9
$DIMALTD
 70
    2
  9
$DIMALTF
 40
25.4
  9
$DIMLFAC
 40
1
  9
$DIMTOFL
 70
    0
  9
$DIMTVP
 40
0
  9
$DIMTIX
 70
    0
  9
$DIMSOXD
 70
    0
  9
$DIMSAH
 70
    0
  9
$DIMBLK1
  1

  9
$DIMBLK2
  1

  9
$DIMSTYLE
  2
STANDARD
  9
$DIMCLRD
 70
    0
  9
$DIMCLRE
 70
    0
  9
$DIMCLRT
 70
    0
  9
$DIMTFAC
 40
1
  9
$DIMGAP
 40
0.09
  9
$DIMJUST
 70
    0
  9
$DIMSD1
 70
    0
  9
$DIMSD2
 70
    0
  9
$DIMTOLJ
 70
    1
  9
$DIMTZIN
 70
    0
  9
$DIMALTZ
 70
    0
  9
$DIMALTTZ
 70
    0
  9
$DIMUPT
 70
    0
  9
$DIMDEC
 70
    4
  9
$DIMTDEC
 70
    4
  9
$DIMALTU
 70
    2
  9
$DIMALTTD
 70
    2
  9
$DIMTXSTY
  7
standard
  9
$DIMAUNIT
 70
    0
  9
$DIMADEC
 70
    0
  9
$DIMALTRND
 40
0
  9
$DIMAZIN
 70
    0
  9
$DIMDSEP
 70
    0
  9
$DIMATFIT
 70
    3
  9
$DIMFRAC
 70
    0
  9
$DIMLDRBLK
  1

  9
$DIMLUNIT
 70
    2
  9
$DIMLWD
 70
   -2
  9
$DIMLWE
 70
   -2
  9
$DIMTMOVE
 70
    0
  9
$DIMFXL
 40
1
  9
$DIMFXLON
 70
    0
  9
$DIMJOGANG
 40
0.7853981633974483
  9
$DIMTFILL
 70
    0
  9
$DIMTFILLCLR
 70
    0
  9
$DIMARCSYM
 70
    0
  9
$DIMLTYPE
  6

  9
$DIMLTEX1
  6

  9
$DIMLTEX2
  6

  9
$LUNITS
 70
    2
  9
$LUPREC
 70
    4
  9
$SKETCHINC
 40
0.1
  9
$FILLETRAD
 40
0.5
  9
$AUNITS
 70
    0
  9
$AUPREC
 70
    0
  9
$MENU
  1
.
  9
$ELEVATION
 40
0
  9
$PELEVATION
 40
0
  9
$THICKNESS
 40
0
  9
$LIMCHECK
 70
    0
  9
$CHAMFERA
 40
0
  9
$CHAMFERB
 40
0
  9
$CHAMFERC
 40
0
  9
$CHAMFERD
 40
0
  9
$SKPOLY
 70
    0
  9
$USRTIMER
 70
    1
  9
$ANGBASE
 50
0
  9
$ANGDIR
 70
    0
  9
$PDMODE
 70
    0
  9
$PDSIZE
 40
0
  9
$PLINEWID
 40
0
  9
$SPLFRAME
 70
    0
  9
$SPLINETYPE
 70
    6
  9
$SPLINESEGS
 70
    8
  9
$HANDSEED
  5
20000
  9
$SURFTAB1
 70
    6
  9
$SURFTAB2
 70
    6
  9
$SURFTYPE
 70
    6
  9
$SURFU
 70
    6
  9
$SURFV
 70
    6
  9
$UCSBASE
  2

  9
$UCSNAME
  2

  9
$UCSORG
 10
0
 20
0
 30
0
  9
$UCSXDIR
 10
1
 20
0
 30
0
  9
$UCSYDIR
 10
0
 20
1
 30
0
  9
$UCSORTHOREF
  2

  9
$UCSORTHOVIEW
 70
    0
  9
$UCSORGTOP
 10
0
 20
0
 30
0
  9
$UCSORGBOTTOM
 10
0
 20
0
 30
0
  9
$UCSORGLEFT
 10
0
 20
0
 30
0
  9
$UCSORGRIGHT
 10
0
 20
0
 30
0
  9
$UCSORGFRONT
 10
0
 20
0
 30
0
  9
$UCSORGBACK
 10
0
 20
0
 30
0
  9
$PUCSBASE
  2

  9
$PUCSNAME
  2

  9
$PUCSORG
 10
0
 20
0
 30
0
  9
$PUCSXDIR
 10
1
 20
0
 30
0
  9
$PUCSYDIR
 10
0
 20
1
 30
0
  9
$PUCSORTHOREF
  2

  9
$PUCSORTHOVIEW
 70
    0
  9
$PUCSORGTOP
 10
0
 20
0
 30
0
  9
$PUCSORGBOTTOM
 10
0
 20
0
 30
0
  9
$PUCSORGLEFT
 10
0
 20
0
 30
0
  9
$PUCSORGRIGHT
 10
0
 20
0
 30
0
  9
$PUCSORGFRONT
 10
0
 20
0
 30
0
  9
$PUCSORGBACK
 10
0
 20
0
 30
0
  9
$USERI1
 70
    0
  9
$USERI2
 70
    0
  9
$USERI3
 70
    0
  9
$USERI4
 70
    0
  9
$USERI5
 70
    0
  9
$USERR1
 40
0
  9
$USERR2
 40
0
  9
$USERR3
 40
0
  9
$USERR4
 40
0
  9
$USERR5
 40
0
  9
$WORLDVIEW
 70
    1
  9
$SHADEDGE
 70
    3
  9
$SHADEDIF
 70
   70
  9
$TILEMODE
 70
    1
  9
$MAXACTVP
 70
   64
  9
$PINSBASE
 10
0.0465128054892045
 20
0.02994296583580096
 30
0
  9
$PLIMCHECK
 70
    0
  9
$PEXTMIN
 10
1e+020
 20
1e+020
 30
1e+020
  9
$PEXTMAX
 10
-1e+020
 20
-1e+020
 30
-1e+020
  9
$GRIDMODE
 70
    1
  9
$SNAPSTYLE
 70
    0
  9
$GRIDUNIT
 10
0
 20
0
  9
$PLIMMIN
 10
0
 20
0
  9
$PLIMMAX
 10
0.297
 20
0.21
  9
$UNITMODE
 70
    0
  9
$VISRETAIN
 70
    1
  9
$PLINEGEN
 70
    0
  9
$PSLTSCALE
 70
    1
  9
$TREEDEPTH
 70
 3020
  9
$CMLSTYLE
  2
STANDARD
  9
$CMLJUST
 70
    0
  9
$CMLSCALE
 40
1
  9
$PROXYGRAPHICS
 70
    1
  9
$MEASUREMENT
 70
    1
  9
$CELWEIGHT
370
   -1
  9
$ENDCAPS
280
    0
  9
$JOINSTYLE
280
    0
  9
$LWDISPLAY
290
    0
  9
$INSUNITS
 70
    6
  9
$HYPERLINKBASE
  1

  9
$STYLESHEET
  1

  9
$XEDIT
290
    1
  9
$CEPSNTYPE
380
    0
  9
$PSTYLEMODE
290
    1
  9
$EXTNAMES
290
    1
  9
$PSVPSCALE
 40
0.001660735468574435
  9
$OLESTARTUP
290
    0
  9
$SORTENTS
280
  127
  9
$INDEXCTL
280
    0
  9
$HIDETEXT
280
    1
  9
$XCLIPFRAME
290
    2
  9
$HALOGAP
280
    0
  9
$OBSCOLOR
 70
  257
  9
$OBSLTYPE
280
    0
  9
$INTERSECTIONDISPLAY
280
    0
  9
$INTERSECTIONCOLOR
 70
  257
  9
$DIMASSOC
280
    2
  9
$PROJECTNAME
  1

  9
$CAMERADISPLAY
290
    0
  9
$LENSLENGTH
 40
50
  9
$CAMERAHEIGHT
 40
0
  9
$STEPSPERSEC
 40
2
  9
$STEPSIZE
 40
6
  9
$3DDWFPREC
 40
2
  9
$PSOLWIDTH
 40
0.25
  9
$PSOLHEIGHT
 40
4
  9
$LOFTANG1
 40
1.570796326794897
  9
$LOFTANG2
 40
1.570796326794897
  9
$LOFTMAG1
 40
0
  9
$LOFTMAG2
 40
0
  9
$LOFTPARAM
 70
    7
  9
$LOFTNORMALS
280
    1
  9
$LATITUDE
 40
37.795
  9
$LONGITUDE
 40
-122.394
  9
$NORTHDIRECTION
 40
0
  9
$TIMEZONE
 70
-8000
  9
$LIGHTGLYPHDISPLAY
280
    1
  9
$TILEMODELIGHTSYNCH
280
    1
  9
$SOLIDHIST
280
    0
  9
$SHOWHIST
280
    1
  9
$DWFFRAME
280
    2
  9
$DGNFRAME
280
    2
  9
$REALWORLDSCALE
290
    1
  9
$INTERFERECOLOR
 62
  256
  9
$CSHADOW
280
    0
  9
$SHADOWPLANELOCATION
 40
0
  0
ENDSEC
  0
SECTION
  2
CLASSES
  0
ENDSEC
  0
SECTION
  2
TABLES
  0
TABLE
  2
VPORT
  5
8
330
0
100
AcDbSymbolTable
 70
    1
  0
VPORT
  5
31
330
2
100
AcDbSymbolTableRecord
100
AcDbViewportTableRecord
  2
*ACTIVE
 70
    0
 10
0
 20
0
 11
1
 21
1
 12
80.49747706374588
 22
54.91100917398838
 13
0
 23
0
 14
10
 24
10
 15
10
 25
10
 16
0
 26
0
 36
1
 17
0
 27
0
 37
0
 40
129.0279816506159
 41
1.542457542457542
 42
50
 43
0
 44
0
 50
0
 51
0
 71
    0
 72
  100
 73
    1
 74
    3
 75
    0
 76
    1
 77
    0
 78
    0
281
    0
 65
    1
110
0
120
0
130
0
111
1
121
0
131
0
112
0
122
1
132
0
 79
    0
146
0
348
10020
 60
    7
 61
    5
292
1
282
    1
141
0
142
0
 63
  250
421
3358443
  0
ENDTAB
  0
TABLE
  2
LTYPE
  5
5
330
0
100
AcDbSymbolTable
 70
    4
  0
LTYPE
  5
14
330
5
100
AcDbSymbolTableRecord
100
AcDbLinetypeTableRecord
  2
ByBlock
 70
    0
  3

 72
   65
 73
    0
 40
0
  0
LTYPE
  5
15
330
5
100
AcDbSymbolTableRecord
100
AcDbLinetypeTableRecord
  2
ByLayer
 70
    0
  3

 72
   65
 73
    0
 40
0
  0
LTYPE
  5
16
330
5
100
AcDbSymbolTableRecord
100
AcDbLinetypeTableRecord
  2
Continuous
 70
    0
  3
Solid line
 72
   65
 73
    0
 40
0
  0
LTYPE
  5
32
330
5
100
AcDbSymbolTableRecord
100
AcDbLinetypeTableRecord
  2
DOT
 70
    0
  3
Dot . . . . . . . . . . . . . . . . . . . . . .
 72
   65
 73
    2
 40
6.35
 49
0
 74
    0
 49
-6.35
 74
    0
  0
LTYPE
  5
33
330
5
100
AcDbSymbolTableRecord
100
AcDbLinetypeTableRecord
  2
DOTTINY
 70
    0
  3
Dot (.15x) .....................................
 72
   65
 73
    2
 40
0.9525
 49
0
 74
    0
 49
-0.9525
 74
    0
  0
LTYPE
  5
34
330
5
100
AcDbSymbolTableRecord
100
AcDbLinetypeTableRecord
  2
DOT2
 70
    0
  3
Dot (.5x) .....................................
 72
   65
 73
    2
 40
3.175
 49
0
 74
    0
 49
-3.175
 74
    0
  0
LTYPE
  5
35
330
5
100
AcDbSymbolTableRecord
100
AcDbLinetypeTableRecord
  2
DOTX2
 70
    0
  3
Dot (2x) .  .  .  .  .  .  .  .  .  .  .  .  .
 72
   65
 73
    2
 40
12.7
 49
0
 74
    0
 49
-12.7
 74
    0
  0
LTYPE
  5
36
330
5
100
AcDbSymbolTableRecord
100
AcDbLinetypeTableRecord
  2
DASHED
 70
    0
  3
Dashed _ _ _ _ _ _ _ _ _ _ _ _ _ _ _ _ _
 72
   65
 73
    2
 40
19.05
 49
12.7
 74
    0
 49
-6.35
 74
    0
  0
LTYPE
  5
37
330
5
100
AcDbSymbolTableRecord
100
AcDbLinetypeTableRecord
  2
DASHEDTINY
 70
    0
  3
Dashed (.15x) _ _ _ _ _ _ _ _ _ _ _ _ _ _ _ _ _
 72
   65
 73
    2
 40
2.8575
 49
1.905
 74
    0
 49
-0.9525
 74
    0
  0
LTYPE
  5
38
330
5
100
AcDbSymbolTableRecord
100
AcDbLinetypeTableRecord
  2
DASHED2
 70
    0
  3
Dashed (.5x) _ _ _ _ _ _ _ _ _ _ _ _ _ _ _ _ _
 72
   65
 73
    2
 40
9.524999999999999
 49
6.35
 74
    0
 49
-3.175
 74
    0
  0
LTYPE
  5
39
330
5
100
AcDbSymbolTableRecord
100
AcDbLinetypeTableRecord
  2
DASHEDX2
 70
    0
  3
Dashed (2x) ____  ____  ____  ____  ____  ___
 72
   65
 73
    2
 40
38.09999999999999
 49
25.4
 74
    0
 49
-12.7
 74
    0
  0
LTYPE
  5
3A
330
5
100
AcDbSymbolTableRecord
100
AcDbLinetypeTableRecord
  2
DASHDOT
 70
    0
  3
Dash dot __ . __ . __ . __ . __ . __ . __ . __
 72
   65
 73
    4
 40
25.4
 49
12.7
 74
    0
 49
-6.35
 74
    0
 49
0
 74
    0
 49
-6.35
 74
    0
  0
LTYPE
  5
3B
330
5
100
AcDbSymbolTableRecord
100
AcDbLinetypeTableRecord
  2
DASHDOTTINY
 70
    0
  3
Dash dot (.15x) _._._._._._._._._._._._._._._.
 72
   65
 73
    4
 40
3.81
 49
1.905
 74
    0
 49
-0.9525
 74
    0
 49
0
 74
    0
 49
-0.9525
 74
    0
  0
LTYPE
  5
3C
330
5
100
AcDbSymbolTableRecord
100
AcDbLinetypeTableRecord
  2
DASHDOT2
 70
    0
  3
Dash dot (.5x) _._._._._._._._._._._._._._._.
 72
   65
 73
    4
 40
12.7
 49
6.35
 74
    0
 49
-3.175
 74
    0
 49
0
 74
    0
 49
-3.175
 74
    0
  0
LTYPE
  5
3D
330
5
100
AcDbSymbolTableRecord
100
AcDbLinetypeTableRecord
  2
DASHDOTX2
 70
    0
  3
Dash dot (2x) ____  .  ____  .  ____  .  ___
 72
   65
 73
    4
 40
50.8
 49
25.4
 74
    0
 49
-12.7
 74
    0
 49
0
 74
    0
 49
-12.7
 74
    0
  0
LTYPE
  5
3E
330
5
100
AcDbSymbolTableRecord
100
AcDbLinetypeTableRecord
  2
DIVIDE
 70
    0
  3
Divide ____ . . ____ . . ____ . . ____ . . ____
 72
   65
 73
    6
 40
31.75
 49
12.7
 74
    0
 49
-6.35
 74
    0
 49
0
 74
    0
 49
-6.35
 74
    0
 49
0
 74
    0
 49
-6.35
 74
    0
  0
LTYPE
  5
3F
330
5
100
AcDbSymbolTableRecord
100
AcDbLinetypeTableRecord
  2
DIVIDETINY
 70
    0
  3
Divide (.15x) __..__..__..__..__..__..__..__.._
 72
   65
 73
    6
 40
4.7625
 49
1.905
 74
    0
 49
-0.9525
 74
    0
 49
0
 74
    0
 49
-0.9525
 74
    0
 49
0
 74
    0
 49
-0.9525
 74
    0
  0
LTYPE
  5
40
330
5
100
AcDbSymbolTableRecord
100
AcDbLinetypeTableRecord
  2
DIVIDE2
 70
    0
  3
Divide (.5x) __..__..__..__..__..__..__..__.._
 72
   65
 73
    6
 40
15.875
 49
6.35
 74
    0
 49
-3.175
 74
    0
 49
0
 74
    0
 49
-3.175
 74
    0
 49
0
 74
    0
 49
-3.175
 74
    0
  0
LTYPE
  5
41
330
5
100
AcDbSymbolTableRecord
100
AcDbLinetypeTableRecord
  2
DIVIDEX2
 70
    0
  3
Divide (2x) ________  .  .  ________  .  .  _
 72
   65
 73
    6
 40
63.5
 49
25.4
 74
    0
 49
-12.7
 74
    0
 49
0
 74
    0
 49
-12.7
 74
    0
 49
0
 74
    0
 49
-12.7
 74
    0
  0
LTYPE
  5
42
330
5
100
AcDbSymbolTableRecord
100
AcDbLinetypeTableRecord
  2
BORDER
 70
    0
  3
Border __ __ . __ __ . __ __ . __ __ . __ __ .
 72
   65
 73
    6
 40
44.45
 49
12.7
 74
    0
 49
-6.35
 74
    0
 49
12.7
 74
    0
 49
-6.35
 74
    0
 49
0
 74
    0
 49
-6.35
 74
    0
  0
LTYPE
  5
43
330
5
100
AcDbSymbolTableRecord
100
AcDbLinetypeTableRecord
  2
BORDERTINY
 70
    0
  3
Border (.15x) __.__.__.__.__.__.__.__.__.__.__.
 72
   65
 73
    6
 40
6.6675
 49
1.905
 74
    0
 49
-0.9525
 74
    0
 49
1.905
 74
    0
 49
-0.9525
 74
    0
 49
0
 74
    0
 49
-0.9525
 74
    0
  0
LTYPE
  5
44
330
5
100
AcDbSymbolTableRecord
100
AcDbLinetypeTableRecord
  2
BORDER2
 70
    0
  3
Border (.5x) __.__.__.__.__.__.__.__.__.__.__.
 72
   65
 73
    6
 40
22.225
 49
6.35
 74
    0
 49
-3.175
 74
    0
 49
6.35
 74
    0
 49
-3.175
 74
    0
 49
0
 74
    0
 49
-3.175
 74
    0
  0
LTYPE
  5
45
330
5
100
AcDbSymbolTableRecord
100
AcDbLinetypeTableRecord
  2
BORDERX2
 70
    0
  3
Border (2x) ____  ____  .  ____  ____  .  ___
 72
   65
 73
    6
 40
88.89999999999999
 49
25.4
 74
    0
 49
-12.7
 74
    0
 49
25.4
 74
    0
 49
-12.7
 74
    0
 49
0
 74
    0
 49
-12.7
 74
    0
  0
LTYPE
  5
46
330
5
100
AcDbSymbolTableRecord
100
AcDbLinetypeTableRecord
  2
CENTER
 70
    0
  3
Center ____ _ ____ _ ____ _ ____ _ ____ _ ____
 72
   65
 73
    4
 40
50.8
 49
31.75
 74
    0
 49
-6.35
 74
    0
 49
6.35
 74
    0
 49
-6.35
 74
    0
  0
LTYPE
  5
47
330
5
100
AcDbSymbolTableRecord
100
AcDbLinetypeTableRecord
  2
CENTERTINY
 70
    0
  3
Center (.15x) ___ _ ___ _ ___ _ ___ _ ___ _ ___
 72
   65
 73
    4
 40
7.619999999999999
 49
4.7625
 74
    0
 49
-0.9525
 74
    0
 49
0.9525
 74
    0
 49
-0.9525
 74
    0
  0
LTYPE
  5
48
330
5
100
AcDbSymbolTableRecord
100
AcDbLinetypeTableRecord
  2
CENTER2
 70
    0
  3
Center (.5x) ___ _ ___ _ ___ _ ___ _ ___ _ ___
 72
   65
 73
    4
 40
28.575
 49
19.05
 74
    0
 49
-3.175
 74
    0
 49
3.175
 74
    0
 49
-3.175
 74
    0
  0
LTYPE
  5
49
330
5
100
AcDbSymbolTableRecord
100
AcDbLinetypeTableRecord
  2
CENTERX2
 70
    0
  3
Center (2x) ________  __  ________  __  _____
 72
   65
 73
    4
 40
101.6
 49
63.5
 74
    0
 49
-12.7
 74
    0
 49
12.7
 74
    0
 49
-12.7
 74
    0
  0
ENDTAB
  0
TABLE
  2
LAYER
  5
2
330
0
100
AcDbSymbolTable
 70
    1
  0
LAYER
  5
10
330
2
100
AcDbSymbolTableRecord
100
AcDbLayerTableRecord
  2
0
 70
    0
 62
    1
  6
CONTINUOUS
370
   -3
390
F
  0
LAYER
  5
4A
330
2
100
AcDbSymbolTableRecord
100
AcDbLayerTableRecord
  2
Außenanlage_ Stellplätze_ Balkone
 70
    0
 62
    7
  6
CONTINUOUS
370
   18
390
F
  0
LAYER
  5
4B
330
2
100
AcDbSymbolTableRecord
100
AcDbLayerTableRecord
  2
Bauwerke_ Einrichtungen_ Siedlungsf.
 70
    0
 62
  201
  6
CONTINUOUS
370
   25
390
F
  0
LAYER
  5
4C
330
2
100
AcDbSymbolTableRecord
100
AcDbLayerTableRecord
  2
Bauwerke_ Einrichtungen_ Verkehr
 70
    0
 62
   40
  6
CONTINUOUS
370
   25
390
F
  0
LAYER
  5
4D
330
2
100
AcDbSymbolTableRecord
100
AcDbLayerTableRecord
  2
DEFPOINTS
 70
    0
 62
    1
  6
CONTINUOUS
290
0
370
   -3
390
F
  0
LAYER
  5
4E
330
2
100
AcDbSymbolTableRecord
100
AcDbLayerTableRecord
  2
Dachverlauf_ Vordächer_ Dachvorsprünge
 70
    0
 62
    7
  6
CONTINUOUS
370
   18
390
F
  0
LAYER
  5
4F
330
2
100
AcDbSymbolTableRecord
100
AcDbLayerTableRecord
  2
Ebene 99
 70
    0
 62
    7
  6
CONTINUOUS
370
   18
390
F
  0
LAYER
  5
50
330
2
100
AcDbSymbolTableRecord
100
AcDbLayerTableRecord
  2
Farbige Flächendarstellung
 70
    0
 62
    7
  6
CONTINUOUS
370
   18
390
F
  0
LAYER
  5
51
330
2
100
AcDbSymbolTableRecord
100
AcDbLayerTableRecord
  2
Flurstücke_ Grenzpunkte
 70
    0
 62
   51
  6
CONTINUOUS
370
   25
390
F
  0
LAYER
  5
52
330
2
100
AcDbSymbolTableRecord
100
AcDbLayerTableRecord
  2
Flurstücke_ Punkte
 70
    0
 62
   51
  6
CONTINUOUS
370
   25
390
F
  0
LAYER
  5
53
330
2
100
AcDbSymbolTableRecord
100
AcDbLayerTableRecord
  2
Gebäude
 70
    0
 62
    9
  6
CONTINUOUS
370
   25
390
F
  0
LAYER
  5
54
330
2
100
AcDbSymbolTableRecord
100
AcDbLayerTableRecord
  2
Gebäude_ Funktion
 70
    0
 62
  255
  6
CONTINUOUS
370
   25
390
F
  0
LAYER
  5
55
330
2
100
AcDbSymbolTableRecord
100
AcDbLayerTableRecord
  2
Hauptbaukörper
 70
    0
 62
    7
  6
CONTINUOUS
370
   18
390
F
  0
LAYER
  5
56
330
2
100
AcDbSymbolTableRecord
100
AcDbLayerTableRecord
  2
Lagebezeichnungen
 70
    0
 62
    9
  6
CONTINUOUS
370
   25
390
F
  0
LAYER
  5
57
330
2
100
AcDbSymbolTableRecord
100
AcDbLayerTableRecord
  2
Liniensymbolik
 70
    0
 62
    7
  6
CONTINUOUS
370
   18
390
F
  0
LAYER
  5
58
330
2
100
AcDbSymbolTableRecord
100
AcDbLayerTableRecord
  2
Maßketten
 70
    0
 62
    7
  6
CONTINUOUS
370
   18
390
F
  0
LAYER
  5
59
330
2
100
AcDbSymbolTableRecord
100
AcDbLayerTableRecord
  2
Punktsymbolik
 70
    0
 62
    7
  6
CONTINUOUS
370
   18
390
F
  0
LAYER
  5
5A
330
2
100
AcDbSymbolTableRecord
100
AcDbLayerTableRecord
  2
sonstige Beschriftungen
 70
    0
 62
    7
  6
CONTINUOUS
370
   18
390
F
  0
ENDTAB
  0
TABLE
  2
STYLE
  5
3
330
0
100
AcDbSymbolTable
 70
    3
  0
STYLE
  5
5B
330
2
100
AcDbSymbolTableRecord
100
AcDbTextStyleTableRecord
  2
n 7 380 - bauwerk_ gebäude_ bezeichnung
 70
    0
 40
0
 41
1
 50
0
 71
    0
 42
1
  3
n 7 380 - bauwerk_ gebäude_ bezeichnung
  4

  0
STYLE
  5
5C
330
2
100
AcDbSymbolTableRecord
100
AcDbTextStyleTableRecord
  2
k 10 700 - schrägstrich als schrägstrich interpretiert
 70
    0
 40
0
 41
1
 50
0
 71
    0
 42
1
  3
k 10 700 - schrägstrich als schrägstrich interpretiert
  4

  0
STYLE
  5
5D
330
2
100
AcDbSymbolTableRecord
100
AcDbTextStyleTableRecord
  2
k 10 700 - flurstücksnummer
 70
    0
 40
0
 41
1
 50
0
 71
    0
 42
1
  3
k 10 700 - flurstücksnummer
  4

  0
STYLE
  5
5E
330
2
100
AcDbSymbolTableRecord
100
AcDbTextStyleTableRecord
  2
f 10 - straße_ weg_ brücke_ lagebezeichnung
 70
    0
 40
0
 41
1
 50
0
 71
    0
 42
1
  3
f 10 - straße_ weg_ brücke_ lagebezeichnung
  4

  0
STYLE
  5
5F
330
2
100
AcDbSymbolTableRecord
100
AcDbTextStyleTableRecord
  2
arial normal
 70
    0
 40
0
 41
1
 50
0
 71
    0
 42
1
  3
arial normal
  4

  0
STYLE
  5
60
330
2
100
AcDbSymbolTableRecord
100
AcDbTextStyleTableRecord
  2
gebäudefunktion
 70
    0
 40
0
 41
1
 50
0
 71
    0
 42
1
  3
gebäudefunktion
  4

  0
STYLE
  5
61
330
2
100
AcDbSymbolTableRecord
100
AcDbTextStyleTableRecord
  2
bemaßung lp klein
 70
    0
 40
0
 41
1
 50
0
 71
    0
 42
1
  3
bemaßung lp klein
  4

  0
STYLE
  5
62
330
2
100
AcDbSymbolTableRecord
100
AcDbTextStyleTableRecord
  2
Standard
 70
    0
 40
0
 41
1
 50
0
 71
    0
 42
1
  3
txt
  4

  0
ENDTAB
  0
TABLE
  2
VIEW
  5
6
330
0
100
AcDbSymbolTable
 70
    0
  0
ENDTAB
  0
TABLE
  2
UCS
  5
7
330
0
100
AcDbSymbolTable
 70
    0
  0
ENDTAB
  0
TABLE
  2
APPID
  5
9
330
0
100
AcDbSymbolTable
 70
    1
  0
APPID
  5
12
330
9
100
AcDbSymbolTableRecord
100
AcDbRegAppTableRecord
  2
ACAD
 70
    0
  0
APPID
  5
63
330
9
100
AcDbSymbolTableRecord
100
AcDbRegAppTableRecord
  2
LibreCad
 70
    0
  0
ENDTAB
  0
TABLE
  2
DIMSTYLE
  5
A
330
0
100
AcDbSymbolTable
 70
    1
100
AcDbDimStyleTable
 71
    1
  0
DIMSTYLE
105
64
330
A
100
AcDbSymbolTableRecord
100
AcDbDimStyleTableRecord
  2
Standard
 70
    0
 40
1
 41
0.18
 42
0.0625
 43
0.38
 44
0.18
 45
0
 46
0
 47
0
 48
0
 49
1
140
0.18
141
0.09
142
0
143
25.4
144
1
145
0
146
1
147
0.09
148
0
 71
    0
 72
    0
 73
    1
 74
    1
 75
    0
 76
    0
 77
    0
 78
    0
 79
    0
170
    0
171
    2
172
    0
173
    0
174
    0
175
    0
176
    0
177
    0
178
    0
179
    0
271
    4
272
    4
273
    2
274
    2
275
    0
276
    0
277
    2
278
    0
279
    0
280
    0
281
    0
282
    0
283
    1
284
    0
285
    0
286
    0
288
    0
289
    3
340
standard
341

371
   -2
372
   -2
  0
ENDTAB
  0
TABLE
  2
BLOCK_RECORD
  5
1
330
0
100
AcDbSymbolTable
 70
    2
  0
BLOCK_RECORD
  5
1F
330
1
100
AcDbSymbolTableRecord
100
AcDbBlockTableRecord
  2
*Model_Space
 70
    0
280
    1
281
    0
  0
BLOCK_RECORD
  5
1E
330
1
100
AcDbSymbolTableRecord
100
AcDbBlockTableRecord
  2
*Paper_Space
 70
    0
280
    1
281
    0
  0
BLOCK_RECORD
  5
65
330
1
100
AcDbSymbolTableRecord
100
AcDbBlockTableRecord
  2
Grenzpunkt mit Abmarkung
 70
    0
280
    1
281
    0
  0
BLOCK_RECORD
  5
68
330
1
100
AcDbSymbolTableRecord
100
AcDbBlockTableRecord
  2
Grenzpunkt_ Abm. nach Quellenlage n. zu spezifizieren
 70
    0
280
    1
281
    0
  0
BLOCK_RECORD
  5
6B
330
1
100
AcDbSymbolTableRecord
100
AcDbBlockTableRecord
  2
S99
 70
    0
280
    1
281
    0
  0
BLOCK_RECORD
  5
6E
330
1
100
AcDbSymbolTableRecord
100
AcDbBlockTableRecord
  2
S157
 70
    0
280
    1
281
    0
  0
BLOCK_RECORD
  5
71
330
1
100
AcDbSymbolTableRecord
100
AcDbBlockTableRecord
  2
S166
 70
    0
280
    1
281
    0
  0
BLOCK_RECORD
  5
74
330
1
100
AcDbSymbolTableRecord
100
AcDbBlockTableRecord
  2
S1000
 70
    0
280
    1
281
    0
  0
BLOCK_RECORD
  5
77
330
1
100
AcDbSymbolTableRecord
100
AcDbBlockTableRecord
  2
S154
 70
    0
280
    1
281
    0
  0
BLOCK_RECORD
  5
7A
330
1
100
AcDbSymbolTableRecord
100
AcDbBlockTableRecord
  2
S167
 70
    0
280
    1
281
    0
  0
BLOCK_RECORD
  5
7D
330
1
100
AcDbSymbolTableRecord
100
AcDbBlockTableRecord
  2
O63
 70
    0
280
    1
281
    0
  0
BLOCK_RECORD
  5
80
330
1
100
AcDbSymbolTableRecord
100
AcDbBlockTableRecord
  2
O68
 70
    0
280
    1
281
    0
  0
BLOCK_RECORD
  5
83
330
1
100
AcDbSymbolTableRecord
100
AcDbBlockTableRecord
  2
O70
 70
    0
280
    1
281
    0
  0
BLOCK_RECORD
  5
86
330
1
100
AcDbSymbolTableRecord
100
AcDbBlockTableRecord
  2
O74
 70
    0
280
    1
281
    0
  0
BLOCK_RECORD
  5
89
330
1
100
AcDbSymbolTableRecord
100
AcDbBlockTableRecord
  2
O76
 70
    0
280
    1
281
    0
  0
BLOCK_RECORD
  5
8C
330
1
100
AcDbSymbolTableRecord
100
AcDbBlockTableRecord
  2
O78
 70
    0
280
    1
281
    0
  0
BLOCK_RECORD
  5
8F
330
1
100
AcDbSymbolTableRecord
100
AcDbBlockTableRecord
  2
O80
 70
    0
280
    1
281
    0
  0
BLOCK_RECORD
  5
92
330
1
100
AcDbSymbolTableRecord
100
AcDbBlockTableRecord
  2
O84
 70
    0
280
    1
281
    0
  0
BLOCK_RECORD
  5
95
330
1
100
AcDbSymbolTableRecord
100
AcDbBlockTableRecord
  2
O86
 70
    0
280
    1
281
    0
  0
BLOCK_RECORD
  5
98
330
1
100
AcDbSymbolTableRecord
100
AcDbBlockTableRecord
  2
O89
 70
    0
280
    1
281
    0
  0
BLOCK_RECORD
  5
9B
330
1
100
AcDbSymbolTableRecord
100
AcDbBlockTableRecord
  2
O91
 70
    0
280
    1
281
    0
  0
BLOCK_RECORD
  5
9E
330
1
100
AcDbSymbolTableRecord
100
AcDbBlockTableRecord
  2
O93
 70
    0
280
    1
281
    0
  0
BLOCK_RECORD
  5
A1
330
1
100
AcDbSymbolTableRecord
100
AcDbBlockTableRecord
  2
S82
 70
    0
280
    1
281
    0
  0
BLOCK_RECORD
  5
A4
330
1
100
AcDbSymbolTableRecord
100
AcDbBlockTableRecord
  2
S15
 70
    0
280
    1
281
    0
  0
ENDTAB
  0
ENDSEC
  0
SECTION
  2
BLOCKS
  0
BLOCK
  5
20
330
1F
100
AcDbEntity
  8
0
100
AcDbBlockBegin
  2
*Model_Space
 70
    0
 10
0
 20
0
 30
0
  3
*Model_Space
  1

  0
ENDBLK
  5
21
330
1F
100
AcDbEntity
  8
0
100
AcDbBlockEnd
  0
BLOCK
  5
1C
330
1B
100
AcDbEntity
  8
0
100
AcDbBlockBegin
  2
*Paper_Space
 70
    0
 10
0
 20
0
 30
0
  3
*Paper_Space
  1

  0
ENDBLK
  5
1D
330
1F
100
AcDbEntity
  8
0
100
AcDbBlockEnd
  0
BLOCK
  5
66
330
65
100
AcDbEntity
  8
0
100
AcDbBlockBegin
  2
Grenzpunkt mit Abmarkung
 70
    0
 10
0
 20
0
  3
Grenzpunkt mit Abmarkung
  1

  0
CIRCLE
  5
A7
100
AcDbEntity
  8
0
  6
ByLayer
 62
    0
370
   -2
100
AcDbCircle
 10
0
 20
0
 40
0.5
  0
ENDBLK
  5
67
330
65
100
AcDbEntity
  8
0
100
AcDbBlockEnd
  0
BLOCK
  5
69
330
68
100
AcDbEntity
  8
0
100
AcDbBlockBegin
  2
Grenzpunkt_ Abm. nach Quellenlage n. zu spezifizieren
 70
    0
 10
0
 20
0
  3
Grenzpunkt_ Abm. nach Quellenlage n. zu spezifizieren
  1

  0
HATCH
  5
A8
100
AcDbEntity
  8
0
  6
ByLayer
 62
    0
370
   -2
100
AcDbHatch
 10
0
 20
0
 30
0
210
0
220
0
230
1
  2
SOLID
 70
    1
 71
    0
 91
    1
 92
    0
 93
    2
 72
    2
 10
0
 20
0
 40
0.165
 50
270
 51
90
 73
    0
 72
    2
 10
0
 20
0
 40
0.165
 50
90
 51
270
 73
    0
 97
    0
 75
    0
 76
    1
 98
    0
  0
CIRCLE
  5
A9
100
AcDbEntity
  8
0
  6
ByLayer
 62
    0
370
   -2
100
AcDbCircle
 10
0
 20
0
 40
0.165
  0
ENDBLK
  5
6A
330
68
100
AcDbEntity
  8
0
100
AcDbBlockEnd
  0
BLOCK
  5
6C
330
6B
100
AcDbEntity
  8
0
100
AcDbBlockBegin
  2
S99
 70
    0
 10
0
 20
-0.5
  3
S99
  1

  0
LINE
  5
AA
100
AcDbEntity
  8
0
  6
ByLayer
 62
    0
370
   -2
100
AcDbLine
 10
0
 20
-0.5
 11
0
 21
0.325
  0
LINE
  5
AB
100
AcDbEntity
  8
0
  6
ByLayer
 62
    0
370
   -2
100
AcDbLine
 10
-0.5
 20
0.05
 11
0.5
 21
0.05
  0
LINE
  5
AC
100
AcDbEntity
  8
0
  6
ByLayer
 62
    0
370
   -2
100
AcDbLine
 10
0.5
 20
-0.225
 11
-0.5
 21
-0.225
  0
LINE
  5
AD
100
AcDbEntity
  8
0
  6
ByLayer
 62
    0
370
   -2
100
AcDbLine
 10
-0.5
 20
-0.5
 11
0.5
 21
-0.5
  0
ENDBLK
  5
6D
330
6B
100
AcDbEntity
  8
0
100
AcDbBlockEnd
  0
BLOCK
  5
6F
330
6E
100
AcDbEntity
  8
0
100
AcDbBlockBegin
  2
S157
 70
    0
 10
0
 20
0
  3
S157
  1

  0
HATCH
  5
AE
100
AcDbEntity
  8
0
  6
ByLayer
 62
    0
370
   -2
100
AcDbHatch
 10
0
 20
0
 30
0
210
0
220
0
230
1
  2
SOLID
 70
    1
 71
    0
 91
    1
 92
    0
 93
   10
 72
    1
 10
-0.3
 20
0.05
 11
-0.5
 21
0
 72
    1
 10
-0.5
 20
0
 11
-0.3
 21
-0.05
 72
    1
 10
-0.3
 20
-0.05
 11
-0.3
 21
0
 72
    1
 10
-0.3
 20
0
 11
0.3
 21
0
 72
    1
 10
0.3
 20
0
 11
0.3
 21
-0.05
 72
    1
 10
0.3
 20
-0.05
 11
0.5
 21
0
 72
    1
 10
0.5
 20
0
 11
0.3
 21
0.05
 72
    1
 10
0.3
 20
0.05
 11
0.3
 21
0
 72
    1
 10
0.3
 20
0
 11
-0.3
 21
0
 72
    1
 10
-0.3
 20
0
 11
-0.3
 21
0.05
 97
    0
 75
    0
 76
    1
 98
    0
  0
LINE
  5
AF
100
AcDbEntity
  8
0
  6
ByLayer
 62
    0
370
   -2
100
AcDbLine
 10
-0.3
 20
0
 11
0.5
 21
0
  0
ENDBLK
  5
70
330
6E
100
AcDbEntity
  8
0
100
AcDbBlockEnd
  0
BLOCK
  5
72
330
71
100
AcDbEntity
  8
0
100
AcDbBlockBegin
  2
S166
 70
    0
 10
0
 20
-0.4
  3
S166
  1

  0
HATCH
  5
B0
100
AcDbEntity
  8
0
  6
ByLayer
 62
    0
370
   -2
100
AcDbHatch
 10
0
 20
0
 30
0
210
0
220
0
230
1
  2
SOLID
 70
    1
 71
    0
 91
    1
 92
    0
 93
    3
 72
    1
 10
-0.5
 20
0.5
 11
0
 21
-0.4
 72
    1
 10
0
 20
-0.4
 11
0.5
 21
0.5
 72
    1
 10
0.5
 20
0.5
 11
-0.5
 21
0.5
 97
    0
 75
    0
 76
    1
 98
    0
  0
ENDBLK
  5
73
330
71
100
AcDbEntity
  8
0
100
AcDbBlockEnd
  0
BLOCK
  5
75
330
74
100
AcDbEntity
  8
0
100
AcDbBlockBegin
  2
S1000
 70
    0
 10
0
 20
0
  3
S1000
  1

  0
HATCH
  5
B1
100
AcDbEntity
  8
0
  6
ByLayer
 62
    3
370
   -1
100
AcDbHatch
 10
0
 20
0
 30
0
210
0
220
0
230
1
  2
SOLID
 70
    1
 71
    0
 91
    1
 92
    0
 93
    2
 72
    2
 10
0
 20
0
 40
0.5
 50
270
 51
90
 73
    0
 72
    2
 10
0
 20
0
 40
0.5
 50
90
 51
270
 73
    0
 97
    0
 75
    0
 76
    1
 98
    0
  0
CIRCLE
  5
B2
100
AcDbEntity
  8
0
  6
ByLayer
 62
    0
370
   -2
100
AcDbCircle
 10
0
 20
0
 40
0.1
  0
CIRCLE
  5
B3
100
AcDbEntity
  8
0
  6
ByLayer
 62
    0
370
   -2
100
AcDbCircle
 10
0
 20
0
 40
0.5
  0
ENDBLK
  5
76
330
74
100
AcDbEntity
  8
0
100
AcDbBlockEnd
  0
BLOCK
  5
78
330
77
100
AcDbEntity
  8
0
100
AcDbBlockBegin
  2
S154
 70
    0
 10
0
 20
0
  3
S154
  1

  0
CIRCLE
  5
B4
100
AcDbEntity
  8
0
  6
ByLayer
 62
    0
370
   -2
100
AcDbCircle
 10
0
 20
0
 40
0.1
  0
CIRCLE
  5
B5
100
AcDbEntity
  8
0
  6
ByLayer
 62
    0
370
   -2
100
AcDbCircle
 10
0
 20
0
 40
0.075
  0
CIRCLE
  5
B6
100
AcDbEntity
  8
0
  6
ByLayer
 62
    0
370
   -2
100
AcDbCircle
 10
0
 20
0
 40
0.05
  0
CIRCLE
  5
B7
100
AcDbEntity
  8
0
  6
ByLayer
 62
    0
370
   -2
100
AcDbCircle
 10
0
 20
0
 40
0.025
  0
LINE
  5
B8
100
AcDbEntity
  8
0
  6
ByLayer
 62
    0
370
   -2
100
AcDbLine
 10
0
 20
0.5
 11
0
 21
-0.5
  0
ENDBLK
  5
79
330
77
100
AcDbEntity
  8
0
100
AcDbBlockEnd
  0
BLOCK
  5
7B
330
7A
100
AcDbEntity
  8
0
100
AcDbBlockBegin
  2
S167
 70
    0
 10
0
 20
-0.4
  3
S167
  1

  0
LINE
  5
B9
100
AcDbEntity
  8
0
  6
ByLayer
 62
    0
370
   -2
100
AcDbLine
 10
0
 20
-0.4
 11
-0.5
 21
0.5
  0
LINE
  5
BA
100
AcDbEntity
  8
0
  6
ByLayer
 62
    0
370
   -2
100
AcDbLine
 10
-0.5
 20
0.5
 11
0.5
 21
0.5
  0
LINE
  5
BB
100
AcDbEntity
  8
0
  6
ByLayer
 62
    0
370
   -2
100
AcDbLine
 10
0.5
 20
0.5
 11
0
 21
-0.4
  0
ENDBLK
  5
7C
330
7A
100
AcDbEntity
  8
0
100
AcDbBlockEnd
  0
BLOCK
  5
7E
330
7D
100
AcDbEntity
  8
0
100
AcDbBlockBegin
  2
O63
 70
    0
 10
0
 20
0
  3
O63
  1

  0
LINE
  5
BC
100
AcDbEntity
  8
Gebäude
  6
CONTINUOUS
 62
    7
370
   18
100
AcDbLine
 10
32511528.09
 20
5375284.68
 11
32511530.72
 21
5375279.13
  0
LINE
  5
BD
100
AcDbEntity
  8
Gebäude
  6
CONTINUOUS
 62
    7
370
   18
100
AcDbLine
 10
32511530.72
 20
5375279.13
 11
32511530.95
 21
5375278.64
  0
LINE
  5
BE
100
AcDbEntity
  8
Gebäude
  6
CONTINUOUS
 62
    7
370
   18
100
AcDbLine
 10
32511530.95
 20
5375278.64
 11
32511532.31
 21
5375279.28
  0
LINE
  5
BF
100
AcDbEntity
  8
Gebäude
  6
CONTINUOUS
 62
    7
370
   18
100
AcDbLine
 10
32511532.31
 20
5375279.28
 11
32511533.66
 21
5375276.43
  0
LINE
  5
C0
100
AcDbEntity
  8
Gebäude
  6
CONTINUOUS
 62
    7
370
   18
100
AcDbLine
 10
32511533.66
 20
5375276.43
 11
32511531.85
 21
5375275.57
  0
LINE
  5
C1
100
AcDbEntity
  8
Gebäude
  6
CONTINUOUS
 62
    7
370
   18
100
AcDbLine
 10
32511531.85
 20
5375275.57
 11
32511533.89
 21
5375271.26
  0
LINE
  5
C2
100
AcDbEntity
  8
Gebäude
  6
CONTINUOUS
 62
    7
370
   18
100
AcDbLine
 10
32511533.89
 20
5375271.26
 11
32511543.51
 21
5375275.81
  0
LINE
  5
C3
100
AcDbEntity
  8
Gebäude
  6
CONTINUOUS
 62
    7
370
   18
100
AcDbLine
 10
32511543.51
 20
5375275.81
 11
32511539.98
 21
5375283.24
  0
LINE
  5
C4
100
AcDbEntity
  8
Gebäude
  6
CONTINUOUS
 62
    7
370
   18
100
AcDbLine
 10
32511539.98
 20
5375283.24
 11
32511539.08
 21
5375282.81
  0
LINE
  5
C5
100
AcDbEntity
  8
Gebäude
  6
CONTINUOUS
 62
    7
370
   18
100
AcDbLine
 10
32511539.08
 20
5375282.81
 11
32511536.34
 21
5375288.58
  0
LINE
  5
C6
100
AcDbEntity
  8
Gebäude
  6
CONTINUOUS
 62
    7
370
   18
100
AcDbLine
 10
32511536.34
 20
5375288.58
 11
32511528.09
 21
5375284.68
  0
ENDBLK
  5
7F
330
7D
100
AcDbEntity
  8
0
100
AcDbBlockEnd
  0
BLOCK
  5
81
330
80
100
AcDbEntity
  8
0
100
AcDbBlockBegin
  2
O68
 70
    0
 10
0
 20
0
  3
O68
  1

  0
LINE
  5
C7
100
AcDbEntity
  8
Gebäude
  6
CONTINUOUS
 62
    7
370
   18
100
AcDbLine
 10
32511552.23
 20
5375243.49
 11
32511556.37
 21
5375234.83
  0
LINE
  5
C8
100
AcDbEntity
  8
Gebäude
  6
CONTINUOUS
 62
    7
370
   18
100
AcDbLine
 10
32511556.37
 20
5375234.83
 11
32511557
 21
5375233.52
  0
LINE
  5
C9
100
AcDbEntity
  8
Gebäude
  6
CONTINUOUS
 62
    7
370
   18
100
AcDbLine
 10
32511557
 20
5375233.52
 11
32511562.54
 21
5375236.15
  0
LINE
  5
CA
100
AcDbEntity
  8
Gebäude
  6
CONTINUOUS
 62
    7
370
   18
100
AcDbLine
 10
32511562.54
 20
5375236.15
 11
32511557.78
 21
5375246.12
  0
LINE
  5
CB
100
AcDbEntity
  8
Gebäude
  6
CONTINUOUS
 62
    7
370
   18
100
AcDbLine
 10
32511557.78
 20
5375246.12
 11
32511552.23
 21
5375243.49
  0
ENDBLK
  5
82
330
80
100
AcDbEntity
  8
0
100
AcDbBlockEnd
  0
BLOCK
  5
84
330
83
100
AcDbEntity
  8
0
100
AcDbBlockBegin
  2
O70
 70
    0
 10
0
 20
0
  3
O70
  1

  0
LINE
  5
CC
100
AcDbEntity
  8
Gebäude
  6
CONTINUOUS
 62
    7
370
   18
100
AcDbLine
 10
32511562.54
 20
5375236.15
 11
32511557.78
 21
5375246.12
  0
LINE
  5
CD
100
AcDbEntity
  8
Gebäude
  6
CONTINUOUS
 62
    7
370
   18
100
AcDbLine
 10
32511562.54
 20
5375236.15
 11
32511568.13
 21
5375238.81
  0
LINE
  5
CE
100
AcDbEntity
  8
Gebäude
  6
CONTINUOUS
 62
    7
370
   18
100
AcDbLine
 10
32511568.13
 20
5375238.81
 11
32511563.41
 21
5375248.8
  0
LINE
  5
CF
100
AcDbEntity
  8
Gebäude
  6
CONTINUOUS
 62
    7
370
   18
100
AcDbLine
 10
32511563.41
 20
5375248.8
 11
32511557.78
 21
5375246.12
  0
ENDBLK
  5
85
330
83
100
AcDbEntity
  8
0
100
AcDbBlockEnd
  0
BLOCK
  5
87
330
86
100
AcDbEntity
  8
0
100
AcDbBlockBegin
  2
O74
 70
    0
 10
0
 20
0
  3
O74
  1

  0
LINE
  5
D0
100
AcDbEntity
  8
Gebäude
  6
CONTINUOUS
 62
    7
370
   18
100
AcDbLine
 10
32511547.92
 20
5375296.54
 11
32511549.7
 21
5375291.89
  0
LINE
  5
D1
100
AcDbEntity
  8
Gebäude
  6
CONTINUOUS
 62
    7
370
   18
100
AcDbLine
 10
32511549.7
 20
5375291.89
 11
32511554.2
 21
5375293.61
  0
LINE
  5
D2
100
AcDbEntity
  8
Gebäude
  6
CONTINUOUS
 62
    7
370
   18
100
AcDbLine
 10
32511554.2
 20
5375293.61
 11
32511552.42
 21
5375298.26
  0
LINE
  5
D3
100
AcDbEntity
  8
Gebäude
  6
CONTINUOUS
 62
    7
370
   18
100
AcDbLine
 10
32511552.42
 20
5375298.26
 11
32511547.92
 21
5375296.54
  0
ENDBLK
  5
88
330
86
100
AcDbEntity
  8
0
100
AcDbBlockEnd
  0
BLOCK
  5
8A
330
89
100
AcDbEntity
  8
0
100
AcDbBlockBegin
  2
O76
 70
    0
 10
0
 20
0
  3
O76
  1

  0
LINE
  5
D4
100
AcDbEntity
  8
Gebäude
  6
CONTINUOUS
 62
    7
370
   18
100
AcDbLine
 10
32511547.25
 20
5375287.39
 11
32511550.83
 21
5375278.55
  0
LINE
  5
D5
100
AcDbEntity
  8
Gebäude
  6
CONTINUOUS
 62
    7
370
   18
100
AcDbLine
 10
32511550.83
 20
5375278.55
 11
32511561.99
 21
5375283.09
  0
LINE
  5
D6
100
AcDbEntity
  8
Gebäude
  6
CONTINUOUS
 62
    7
370
   18
100
AcDbLine
 10
32511561.99
 20
5375283.09
 11
32511558.4
 21
5375291.92
  0
LINE
  5
D7
100
AcDbEntity
  8
Gebäude
  6
CONTINUOUS
 62
    7
370
   18
100
AcDbLine
 10
32511558.4
 20
5375291.92
 11
32511547.25
 21
5375287.39
  0
ENDBLK
  5
8B
330
89
100
AcDbEntity
  8
0
100
AcDbBlockEnd
  0
BLOCK
  5
8D
330
8C
100
AcDbEntity
  8
0
100
AcDbBlockBegin
  2
O78
 70
    0
 10
0
 20
0
  3
O78
  1

  0
LINE
  5
D8
100
AcDbEntity
  8
Gebäude
  6
CONTINUOUS
 62
    7
370
   18
100
AcDbLine
 10
32511548.01
 20
5375317.6
 11
32511549.45
 21
5375314.05
  0
LINE
  5
D9
100
AcDbEntity
  8
Gebäude
  6
CONTINUOUS
 62
    7
370
   18
100
AcDbLine
 10
32511549.45
 20
5375314.05
 11
32511550.25
 21
5375312.03
  0
LINE
  5
DA
100
AcDbEntity
  8
Gebäude
  6
CONTINUOUS
 62
    7
370
   18
100
AcDbLine
 10
32511550.25
 20
5375312.03
 11
32511553.08
 21
5375313.15
  0
LINE
  5
DB
100
AcDbEntity
  8
Gebäude
  6
CONTINUOUS
 62
    7
370
   18
100
AcDbLine
 10
32511553.08
 20
5375313.15
 11
32511550.81
 21
5375318.74
  0
LINE
  5
DC
100
AcDbEntity
  8
Gebäude
  6
CONTINUOUS
 62
    7
370
   18
100
AcDbLine
 10
32511550.81
 20
5375318.74
 11
32511548.01
 21
5375317.6
  0
ENDBLK
  5
8E
330
8C
100
AcDbEntity
  8
0
100
AcDbBlockEnd
  0
BLOCK
  5
90
330
8F
100
AcDbEntity
  8
0
100
AcDbBlockBegin
  2
O80
 70
    0
 10
0
 20
0
  3
O80
  1

  0
LINE
  5
DD
100
AcDbEntity
  8
Gebäude
  6
CONTINUOUS
 62
    7
370
   18
100
AcDbLine
 10
32511535.91
 20
5375319.39
 11
32511539.7
 21
5375310.07
  0
LINE
  5
DE
100
AcDbEntity
  8
Gebäude
  6
CONTINUOUS
 62
    7
370
   18
100
AcDbLine
 10
32511539.7
 20
5375310.07
 11
32511540.16
 21
5375310.26
  0
LINE
  5
DF
100
AcDbEntity
  8
Gebäude
  6
CONTINUOUS
 62
    7
370
   18
100
AcDbLine
 10
32511540.16
 20
5375310.26
 11
32511546.89
 21
5375313
  0
LINE
  5
E0
100
AcDbEntity
  8
Gebäude
  6
CONTINUOUS
 62
    7
370
   18
100
AcDbLine
 10
32511546.89
 20
5375313
 11
32511549.45
 21
5375314.05
  0
LINE
  5
E1
100
AcDbEntity
  8
Gebäude
  6
CONTINUOUS
 62
    7
370
   18
100
AcDbLine
 10
32511548.01
 20
5375317.6
 11
32511549.45
 21
5375314.05
  0
LINE
  5
E2
100
AcDbEntity
  8
Gebäude
  6
CONTINUOUS
 62
    7
370
   18
100
AcDbLine
 10
32511548.01
 20
5375317.6
 11
32511545.66
 21
5375323.37
  0
LINE
  5
E3
100
AcDbEntity
  8
Gebäude
  6
CONTINUOUS
 62
    7
370
   18
100
AcDbLine
 10
32511545.66
 20
5375323.37
 11
32511535.91
 21
5375319.39
  0
ENDBLK
  5
91
330
8F
100
AcDbEntity
  8
0
100
AcDbBlockEnd
  0
BLOCK
  5
93
330
92
100
AcDbEntity
  8
0
100
AcDbBlockBegin
  2
O84
 70
    0
 10
0
 20
0
  3
O84
  1

  0
LINE
  5
E4
100
AcDbEntity
  8
Gebäude
  6
CONTINUOUS
 62
    7
370
   18
100
AcDbLine
 10
32511579.78
 20
5375280.41
 11
32511581.46
 21
5375274.67
  0
LINE
  5
E5
100
AcDbEntity
  8
Gebäude
  6
CONTINUOUS
 62
    7
370
   18
100
AcDbLine
 10
32511581.46
 20
5375274.67
 11
32511587.24
 21
5375276.34
  0
LINE
  5
E6
100
AcDbEntity
  8
Gebäude
  6
CONTINUOUS
 62
    7
370
   18
100
AcDbLine
 10
32511587.24
 20
5375276.34
 11
32511585.56
 21
5375282.07
  0
LINE
  5
E7
100
AcDbEntity
  8
Gebäude
  6
CONTINUOUS
 62
    7
370
   18
100
AcDbLine
 10
32511585.56
 20
5375282.07
 11
32511579.78
 21
5375280.41
  0
ENDBLK
  5
94
330
92
100
AcDbEntity
  8
0
100
AcDbBlockEnd
  0
BLOCK
  5
96
330
95
100
AcDbEntity
  8
0
100
AcDbBlockBegin
  2
O86
 70
    0
 10
0
 20
0
  3
O86
  1

  0
LINE
  5
E8
100
AcDbEntity
  8
Gebäude
  6
CONTINUOUS
 62
    7
370
   18
100
AcDbLine
 10
32511594.18
 20
5375286.26
 11
32511594.52
 21
5375285.11
  0
LINE
  5
E9
100
AcDbEntity
  8
Gebäude
  6
CONTINUOUS
 62
    7
370
   18
100
AcDbLine
 10
32511594.52
 20
5375285.11
 11
32511585.45
 21
5375282.45
  0
LINE
  5
EA
100
AcDbEntity
  8
Gebäude
  6
CONTINUOUS
 62
    7
370
   18
100
AcDbLine
 10
32511585.45
 20
5375282.45
 11
32511585.56
 21
5375282.07
  0
LINE
  5
EB
100
AcDbEntity
  8
Gebäude
  6
CONTINUOUS
 62
    7
370
   18
100
AcDbLine
 10
32511587.24
 20
5375276.34
 11
32511585.56
 21
5375282.07
  0
LINE
  5
EC
100
AcDbEntity
  8
Gebäude
  6
CONTINUOUS
 62
    7
370
   18
100
AcDbLine
 10
32511587.24
 20
5375276.34
 11
32511588.4
 21
5375272.36
  0
LINE
  5
ED
100
AcDbEntity
  8
Gebäude
  6
CONTINUOUS
 62
    7
370
   18
100
AcDbLine
 10
32511588.4
 20
5375272.36
 11
32511597.32
 21
5375275
  0
LINE
  5
EE
100
AcDbEntity
  8
Gebäude
  6
CONTINUOUS
 62
    7
370
   18
100
AcDbLine
 10
32511597.32
 20
5375275
 11
32511597.69
 21
5375273.73
  0
LINE
  5
EF
100
AcDbEntity
  8
Gebäude
  6
CONTINUOUS
 62
    7
370
   18
100
AcDbLine
 10
32511597.69
 20
5375273.73
 11
32511604.62
 21
5375275.76
  0
LINE
  5
F0
100
AcDbEntity
  8
Gebäude
  6
CONTINUOUS
 62
    7
370
   18
100
AcDbLine
 10
32511604.62
 20
5375275.76
 11
32511601.3
 21
5375287.1
  0
LINE
  5
F1
100
AcDbEntity
  8
Gebäude
  6
CONTINUOUS
 62
    7
370
   18
100
AcDbLine
 10
32511601.3
 20
5375287.1
 11
32511597.43
 21
5375285.96
  0
LINE
  5
F2
100
AcDbEntity
  8
Gebäude
  6
CONTINUOUS
 62
    7
370
   18
100
AcDbLine
 10
32511597.43
 20
5375285.96
 11
32511597.09
 21
5375287.11
  0
LINE
  5
F3
100
AcDbEntity
  8
Gebäude
  6
CONTINUOUS
 62
    7
370
   18
100
AcDbLine
 10
32511597.09
 20
5375287.11
 11
32511594.18
 21
5375286.26
  0
ENDBLK
  5
97
330
95
100
AcDbEntity
  8
0
100
AcDbBlockEnd
  0
BLOCK
  5
99
330
98
100
AcDbEntity
  8
0
100
AcDbBlockBegin
  2
O89
 70
    0
 10
0
 20
0
  3
O89
  1

  0
LINE
  5
F4
100
AcDbEntity
  8
Gebäude
  6
CONTINUOUS
 62
    7
370
   18
100
AcDbLine
 10
32511530.14
 20
5375316.95
 11
32511533.02
 21
5375309.89
  0
LINE
  5
F5
100
AcDbEntity
  8
Gebäude
  6
CONTINUOUS
 62
    7
370
   18
100
AcDbLine
 10
32511533.02
 20
5375309.89
 11
32511536.41
 21
5375311.27
  0
LINE
  5
F6
100
AcDbEntity
  8
Gebäude
  6
CONTINUOUS
 62
    7
370
   18
100
AcDbLine
 10
32511536.41
 20
5375311.27
 11
32511533.53
 21
5375318.32
  0
LINE
  5
F7
100
AcDbEntity
  8
Gebäude
  6
CONTINUOUS
 62
    7
370
   18
100
AcDbLine
 10
32511533.53
 20
5375318.32
 11
32511530.14
 21
5375316.95
  0
ENDBLK
  5
9A
330
98
100
AcDbEntity
  8
0
100
AcDbBlockEnd
  0
BLOCK
  5
9C
330
9B
100
AcDbEntity
  8
0
100
AcDbBlockBegin
  2
O91
 70
    0
 10
0
 20
0
  3
O91
  1

  0
LINE
  5
F8
100
AcDbEntity
  8
Gebäude
  6
CONTINUOUS
 62
    7
370
   18
100
AcDbLine
 10
32511521.38
 20
5375313.37
 11
32511525.47
 21
5375303.34
  0
LINE
  5
F9
100
AcDbEntity
  8
Gebäude
  6
CONTINUOUS
 62
    7
370
   18
100
AcDbLine
 10
32511525.47
 20
5375303.34
 11
32511534.24
 21
5375306.92
  0
LINE
  5
FA
100
AcDbEntity
  8
Gebäude
  6
CONTINUOUS
 62
    7
370
   18
100
AcDbLine
 10
32511534.24
 20
5375306.92
 11
32511533.02
 21
5375309.89
  0
LINE
  5
FB
100
AcDbEntity
  8
Gebäude
  6
CONTINUOUS
 62
    7
370
   18
100
AcDbLine
 10
32511530.14
 20
5375316.95
 11
32511533.02
 21
5375309.89
  0
LINE
  5
FC
100
AcDbEntity
  8
Gebäude
  6
CONTINUOUS
 62
    7
370
   18
100
AcDbLine
 10
32511530.14
 20
5375316.95
 11
32511521.38
 21
5375313.37
  0
ENDBLK
  5
9D
330
9B
100
AcDbEntity
  8
0
100
AcDbBlockEnd
  0
BLOCK
  5
9F
330
9E
100
AcDbEntity
  8
0
100
AcDbBlockBegin
  2
O93
 70
    0
 10
0
 20
0
  3
O93
  1

  0
LINE
  5
FD
100
AcDbEntity
  8
Bauwerke_ Einrichtungen_ Siedlungsf.
  6
CONTINUOUS
 62
    7
370
   18
100
AcDbLine
 10
32511540.16
 20
5375310.26
 11
32511541.52
 21
5375306.93
  0
LINE
  5
FE
100
AcDbEntity
  8
Bauwerke_ Einrichtungen_ Siedlungsf.
  6
CONTINUOUS
 62
    7
370
   18
100
AcDbLine
 10
32511541.52
 20
5375306.93
 11
32511548.25
 21
5375309.67
  0
LINE
  5
FF
100
AcDbEntity
  8
Bauwerke_ Einrichtungen_ Siedlungsf.
  6
CONTINUOUS
 62
    7
370
   18
100
AcDbLine
 10
32511548.25
 20
5375309.67
 11
32511546.89
 21
5375313
  0
LINE
  5
100
100
AcDbEntity
  8
Bauwerke_ Einrichtungen_ Siedlungsf.
  6
CONTINUOUS
 62
    7
370
   18
100
AcDbLine
 10
32511546.89
 20
5375313
 11
32511540.16
 21
5375310.26
  0
ENDBLK
  5
A0
330
9E
100
AcDbEntity
  8
0
100
AcDbBlockEnd
  0
BLOCK
  5
A2
330
A1
100
AcDbEntity
  8
0
100
AcDbBlockBegin
  2
S82
 70
    0
 10
0
 20
0.1
  3
S82
  1

  0
LINE
  5
101
100
AcDbEntity
  8
0
  6
ByLayer
 62
    7
370
   -1
100
AcDbLine
 10
-0.5
 20
0.1
 11
0.5
 21
0.1
  0
LINE
  5
102
100
AcDbEntity
  8
0
  6
ByLayer
 62
    7
370
   -1
100
AcDbLine
 10
0.5
 20
0.1
 11
0.5
 21
-0.2
  0
LINE
  5
103
100
AcDbEntity
  8
0
  6
ByLayer
 62
    7
370
   -1
100
AcDbLine
 10
0.5
 20
-0.2
 11
-0.5
 21
-0.2
  0
LINE
  5
104
100
AcDbEntity
  8
0
  6
ByLayer
 62
    7
370
   -1
100
AcDbLine
 10
-0.5
 20
-0.2
 11
-0.5
 21
0.1
  0
ENDBLK
  5
A3
330
A1
100
AcDbEntity
  8
0
100
AcDbBlockEnd
  0
BLOCK
  5
A5
330
A4
100
AcDbEntity
  8
0
100
AcDbBlockBegin
  2
S15
 70
    0
 10
0
 20
0
  3
S15
  1

  0
HATCH
  5
105
100
AcDbEntity
  8
0
  6
ByLayer
 62
    0
370
   -2
100
AcDbHatch
 10
0
 20
0
 30
0
210
0
220
0
230
1
  2
SOLID
 70
    1
 71
    0
 91
    1
 92
    0
 93
    2
 72
    2
 10
0
 20
0
 40
0.5
 50
270
 51
90
 73
    0
 72
    2
 10
0
 20
0
 40
0.5
 50
90
 51
270
 73
    0
 97
    0
 75
    0
 76
    1
 98
    0
  0
ARC
  5
106
100
AcDbEntity
  8
0
  6
ByLayer
 62
    7
370
   -1
100
AcDbCircle
 10
0
 20
0
 40
0.5
100
AcDbArc
 50
270
 51
90
  0
ARC
  5
107
100
AcDbEntity
  8
0
  6
ByLayer
 62
    7
370
   -1
100
AcDbCircle
 10
0
 20
0
 40
0.5
100
AcDbArc
 50
90
 51
270
  0
ENDBLK
  5
A6
330
A4
100
AcDbEntity
  8
0
100
AcDbBlockEnd
  0
ENDSEC
  0
SECTION
  2
ENTITIES
  0
HATCH
  5
108
100
AcDbEntity
  8
Farbige Flächendarstellung
  6
ByLayer
 62
  255
420
16763135
370
   18
100
AcDbHatch
 10
0
 20
0
 30
0
210
0
220
0
230
1
  2
SOLID
 70
    1
 71
    0
 91
    1
 92
    0
 93
    4
 72
    1
 10
33.71818699687719
 20
59.93379000015557
 11
42.3981789983809
 21
62.48006400000304
 72
    1
 10
42.3981789983809
 20
62.48006400000304
 11
42.49665400013328
 21
62.14437399990857
 72
    1
 10
42.49665400013328
 20
62.14437399990857
 11
33.81666199862957
 21
59.59809899982065
 72
    1
 10
33.81666199862957
 20
59.59809899982065
 11
33.71818699687719
 21
59.93379000015557
 97
    0
 75
    0
 76
    1
 98
    0
  0
HATCH
  5
109
100
AcDbEntity
  8
Farbige Flächendarstellung
  6
ByLayer
 62
    1
370
   18
100
AcDbHatch
 10
0
 20
0
 30
0
210
0
220
0
230
1
  2
SOLID
 70
    1
 71
    0
 91
    1
 92
    0
 93
    4
 72
    1
 10
34.15235199779272
 20
59.69657399971038
 11
41.82527299970388
 21
61.94742500036955
 72
    1
 10
41.82527299970388
 20
61.94742500036955
 11
43.65127599984407
 21
55.72276800032705
 72
    1
 10
43.65127599984407
 20
55.72276800032705
 11
35.97835499793291
 21
53.47191699966788
 72
    1
 10
35.97835499793291
 20
53.47191699966788
 11
34.15235199779272
 21
59.69657399971038
 97
    0
 75
    0
 76
    1
 98
    0
  0
HATCH
  5
10A
100
AcDbEntity
  8
Farbige Flächendarstellung
  6
ByLayer
 62
  255
420
16763135
370
   18
100
AcDbHatch
 10
0
 20
0
 30
0
210
0
220
0
230
1
  2
SOLID
 70
    1
 71
    0
 91
    1
 92
    0
 93
    8
 72
    1
 10
41.82527299970388
 20
61.94742500036955
 11
42.49665400013328
 21
62.14437399990857
 72
    1
 10
42.49665400013328
 20
62.14437399990857
 11
44.42113099992275
 21
55.5840269997716
 72
    1
 10
44.42113099992275
 20
55.5840269997716
 11
35.74113899841905
 21
53.03775199968368
 72
    1
 10
35.74113899841905
 20
53.03775199968368
 11
33.81666199862957
 21
59.59809899982065
 72
    1
 10
33.81666199862957
 20
59.59809899982065
 11
34.15235199779272
 21
59.69657399971038
 72
    1
 10
34.15235199779272
 20
59.69657399971038
 11
35.97835499793291
 21
53.47191699966788
 72
    1
 10
35.97835499793291
 20
53.47191699966788
 11
43.65127599984407
 21
55.72276800032705
 72
    1
 10
43.65127599984407
 20
55.72276800032705
 11
41.82527299970388
 21
61.94742500036955
 97
    0
 75
    0
 76
    1
 98
    0
  0
HATCH
  5
10B
100
AcDbEntity
  8
Farbige Flächendarstellung
  6
ByLayer
 62
  254
420
15132390
370
   18
100
AcDbHatch
 10
0
 20
0
 30
0
210
0
220
0
230
1
  2
SOLID
 70
    1
 71
    0
 91
    1
 92
    0
 93
   14
 72
    1
 10
30.23273699730635
 20
60.63005699962378
 11
56.93929699808359
 21
68.46442400012165
 72
    1
 10
56.93929699808359
 20
68.46442400012165
 11
57.78336599841714
 21
65.58707899972796
 72
    1
 10
57.78336599841714
 20
65.58707899972796
 11
56.34469299763441
 21
65.16504400037229
 72
    1
 10
56.34469299763441
 20
65.16504400037229
 11
56.06333699822426
 21
66.12415899988264
 72
    1
 10
56.06333699822426
 20
66.12415899988264
 11
48.63978599756956
 21
63.94646100047976
 72
    1
 10
48.63978599756956
 20
63.94646100047976
 11
50.18724599853158
 21
58.67132799979299
 72
    1
 10
50.18724599853158
 20
58.67132799979299
 11
48.98835199698806
 21
58.3196330005303
 72
    1
 10
48.98835199698806
 20
58.3196330005303
 11
47.44089199975133
 21
63.59476600028574
 72
    1
 10
47.44089199975133
 20
63.59476600028574
 11
42.49665400013328
 21
62.14437399990857
 72
    1
 10
42.49665400013328
 20
62.14437399990857
 11
42.3981789983809
 21
62.48006400000304
 72
    1
 10
42.3981789983809
 20
62.48006400000304
 11
33.71818699687719
 21
59.93379000015557
 72
    1
 10
33.71818699687719
 20
59.93379000015557
 11
33.81666199862957
 21
59.59809899982065
 72
    1
 10
33.81666199862957
 20
59.59809899982065
 11
30.99021999910474
 21
58.76896299980581
 72
    1
 10
30.99021999910474
 20
58.76896299980581
 11
30.23273699730635
 21
60.63005699962378
 97
    0
 75
    0
 76
    1
 98
    0
  0
HATCH
  5
10C
100
AcDbEntity
  8
Farbige Flächendarstellung
  6
ByLayer
 62
  254
420
15132390
370
   18
100
AcDbHatch
 10
0
 20
0
 30
0
210
0
220
0
230
1
  2
SOLID
 70
    1
 71
    0
 91
    1
 92
    0
 93
    4
 72
    1
 10
30.99021999910474
 20
58.76896299980581
 11
33.81666199862957
 21
59.59809899982065
 72
    1
 10
33.81666199862957
 20
59.59809899982065
 11
35.64266499876976
 21
53.37344199977815
 72
    1
 10
35.64266499876976
 20
53.37344199977815
 11
33.44825199991465
 21
52.72971099987626
 72
    1
 10
33.44825199991465
 20
52.72971099987626
 11
30.99021999910474
 21
58.76896299980581
 97
    0
 75
    0
 76
    1
 98
    0
  0
HATCH
  5
10D
100
AcDbEntity
  8
Farbige Flächendarstellung
  6
ByLayer
 62
  255
420
16777155
370
  100
100
AcDbHatch
 10
0
 20
0
 30
0
210
0
220
0
230
1
  2
SOLID
 70
    1
 71
    0
 91
    1
 92
    0
 93
   39
 72
    1
 10
-7.94726300239563
 20
84.46005699969828
 11
5.782736998051405
 21
89.04005699977279
 72
    1
 10
5.782736998051405
 20
89.04005699977279
 11
50.46273699775338
 21
103.9900569999591
 72
    1
 10
50.46273699775338
 20
103.9900569999591
 11
64.51684299856424
 21
104.5847300002351
 72
    1
 10
64.51684299856424
 20
104.5847300002351
 11
59.54734299704432
 21
101.8050090000033
 72
    2
 10
44.36243952065706
 20
128.9893725933507
 40
31.13793374069311
 50
60.812727482533
 51
71.47123775050838
 73
    0
 72
    1
 10
54.25747299939394
 20
99.46549700014293
 11
23.91799299791455
 21
89.31204199977219
 72
    2
 10
25.39275003224611
 20
84.90532841160893
 40
4.646938019002407
 50
108.5034059863306
 51
163.6937337164469
 73
    1
 72
    2
 10
24.67485601082444
 20
84.82936701830477
 40
3.988703994138819
 50
159.747986703451
 51
202.2343684745063
 73
    1
 72
    1
 10
20.98273699730635
 20
83.32005700003356
 11
30.23273699730635
 21
60.63005699962378
 72
    1
 10
30.23273699730635
 20
60.63005699962378
 11
38.94273699820042
 21
39.23005700018257
 72
    1
 10
38.94273699820042
 20
39.23005700018257
 11
39.70207799971104
 21
37.36950800009072
 72
    1
 10
39.70207799971104
 20
37.36950800009072
 11
37.85122699663043
 21
36.61412500031292
 72
    1
 10
37.85122699663043
 20
36.61412500031292
 11
38.60660899803042
 21
34.76327400002629
 72
    1
 10
38.60660899803042
 20
34.76327400002629
 11
40.45745999738574
 21
35.51865699980408
 72
    1
 10
40.45745999738574
 20
35.51865699980408
 11
45.87273699790239
 21
22.25005699973553
 72
    1
 10
45.87273699790239
 20
22.25005699973553
 11
50.0627369992435
 21
9.83005699981004
 72
    1
 10
50.0627369992435
 20
9.83005699981004
 11
56.32273699715734
 21
-11.23994299955666
 72
    1
 10
56.32273699715734
 20
-11.23994299955666
 11
48.75056299939752
 21
-4.678940000012517
 72
    1
 10
48.75056299939752
 20
-4.678940000012517
 11
47.9999770000577
 21
-1.716629999689758
 72
    1
 10
47.9999770000577
 20
-1.716629999689758
 11
46.26951099932194
 21
5.045192999765277
 72
    2
 10
34.56249847635627
 20
2.049165511503816
 40
12.08430068037953
 50
14.35489160638333
 51
24.87896800532956
 73
    1
 72
    2
 10
34.65818802267313
 20
2.064438492059708
 40
11.99109494495254
 50
25.00511834656345
 51
107.2959647055724
 73
    1
 72
    1
 10
31.09314399957657
 20
13.51331700012088
 11
13.92894699797034
 21
8.168895999900997
 72
    1
 10
13.92894699797034
 20
8.168895999900997
 11
8.007934998720884
 21
6.328580999746919
 72
    1
 10
8.007934998720884
 20
6.328580999746919
 11
2.087934996932745
 21
4.478581000119448
 72
    1
 10
2.087934996932745
 20
4.478581000119448
 11
-3.830595001578331
 21
2.639038000255823
 72
    1
 10
-3.830595001578331
 20
2.639038000255823
 11
-2.583545003086329
 21
11.35433499980718
 72
    1
 10
-2.583545003086329
 20
11.35433499980718
 11
19.98759699985385
 21
18.50469699967653
 72
    1
 10
19.98759699985385
 20
18.50469699967653
 11
26.55426199734211
 21
20.59363600052893
 72
    2
 10
22.96810940653086
 20
32.04480150155723
 40
11.99957006379612
 50
287.3889502212609
 51
22.22072025121198
 73
    1
 72
    1
 10
34.07651799917221
 20
36.58274600002915
 11
25.06407599896193
 21
58.64424499962479
 72
    1
 10
25.06407599896193
 20
58.64424499962479
 11
21.86646599695086
 21
66.51556000020355
 72
    1
 10
21.86646599695086
 20
66.51556000020355
 11
23.7185399979353
 21
67.26793900039047
 72
    1
 10
23.7185399979353
 20
67.26793900039047
 11
22.96616099774837
 21
69.12001300044358
 72
    1
 10
22.96616099774837
 20
69.12001300044358
 11
21.11408699676394
 21
68.36763400025666
 72
    1
 10
21.11408699676394
 20
68.36763400025666
 11
16.07481099665165
 21
80.77243600040674
 72
    2
 10
10.51641742140055
 20
78.51441725343466
 40
5.999532299886798
 50
22.10875252693601
 51
108.4451942082732
 73
    1
 72
    1
 10
8.618180997669697
 20
84.20573399960995
 11
-3.241819001734257
 21
80.23573399987072
 72
    1
 10
-3.241819001734257
 20
80.23573399987072
 11
-7.94726300239563
 21
84.46005699969828
 97
    0
 75
    0
 76
    1
 98
    0
  0
HATCH
  5
10E
100
AcDbEntity
  8
Farbige Flächendarstellung
  6
ByLayer
 62
  255
420
16777155
370
  100
100
AcDbHatch
 10
0
 20
0
 30
0
210
0
220
0
230
1
  2
SOLID
 70
    1
 71
    0
 91
    1
 92
    0
 93
   16
 72
    1
 10
59.5627369992435
 20
16.79005699977279
 11
52.77273700013757
 21
14.80005700048059
 72
    2
 10
53.89321014285088
 20
10.96525172423571
 40
3.995146000737213
 50
106.2875786091957
 51
196.5076576264719
 73
    1
 72
    1
 10
50.0627369992435
 20
9.83005699981004
 11
45.87273699790239
 21
22.25005699973553
 72
    2
 10
49.57313823699951
 20
23.75447072088718
 40
3.994524999653381
 50
202.1244078331863
 51
286.2771153392264
 73
    1
 72
    1
 10
50.69273699820042
 20
19.92005699966103
 11
75.02273700013757
 21
27.05005700048059
 72
    1
 10
75.02273700013757
 20
27.05005700048059
 11
85.77273700013757
 21
30.21005699969828
 72
    1
 10
85.77273700013757
 20
30.21005699969828
 11
96.60273699834943
 21
33.39005700033158
 72
    1
 10
96.60273699834943
 20
33.39005700033158
 11
102.3827369995415
 21
35.08005699981004
 72
    2
 10
93.92865711078048
 20
63.84750854875892
 40
29.98395796765363
 50
286.3768263601481
 51
316.3737967999356
 73
    1
 72
    1
 10
115.6327369995415
 20
43.16005699988455
 11
129.3527369983494
 21
57.5300569999963
 72
    2
 10
118.8492143824697
 20
43.54549166746438
 40
17.48977000892975
 50
306.9094676147702
 51
3.689427596654678
 73
    0
 72
    1
 10
136.3027369976044
 20
42.42005699966103
 11
136.1527369990945
 21
39.26005700044334
 72
    1
 10
136.1527369990945
 20
39.26005700044334
 11
116.2227369993925
 21
33.41005699988455
 72
    1
 10
116.2227369993925
 20
33.41005699988455
 11
85.5927369967103
 21
24.43005700036883
 72
    1
 10
85.5927369967103
 20
24.43005700036883
 11
70.10273699834943
 21
19.88005699962378
 72
    1
 10
70.10273699834943
 20
19.88005699962378
 11
59.5627369992435
 21
16.79005699977279
 97
    0
 75
    0
 76
    1
 98
    0
  0
HATCH
  5
10F
100
AcDbEntity
  8
Farbige Flächendarstellung
  6
ByLayer
 62
   51
370
  100
100
AcDbHatch
 10
0
 20
0
 30
0
210
0
220
0
230
1
  2
SOLID
 70
    1
 71
    0
 91
    1
 92
    0
 93
    8
 72
    1
 10
65.49273699894547
 20
102.8400570005178
 11
60.52273700013757
 21
100.0600570002571
 72
    2
 10
44.36243665963411
 20
128.9893706291914
 40
33.13699585223117
 50
60.811692136872
 51
71.47123125953152
 73
    0
 72
    1
 10
54.89273699745536
 20
97.57005700003356
 11
20.93273699656129
 21
86.21005699969828
 72
    2
 10
25.39275003224611
 20
84.90532841160893
 40
4.646938019002407
 50
196.3062662835531
 51
251.4965940136694
 73
    0
 72
    1
 10
23.91799299791455
 20
89.31204199977219
 11
54.25747299939394
 21
99.46549700014293
 72
    2
 10
44.36243952065706
 20
128.9893725933507
 40
31.13793374069311
 50
288.5287622494916
 51
299.187272517467
 73
    1
 72
    1
 10
59.54734299704432
 20
101.8050090000033
 11
64.51684299856424
 21
104.5847300002351
 72
    1
 10
64.51684299856424
 20
104.5847300002351
 11
65.49273699894547
 21
102.8400570005178
 97
    0
 75
    0
 76
    1
 98
    0
  0
HATCH
  5
110
100
AcDbEntity
  8
Farbige Flächendarstellung
  6
ByLayer
 62
   51
370
  100
100
AcDbHatch
 10
0
 20
0
 30
0
210
0
220
0
230
1
  2
SOLID
 70
    1
 71
    0
 91
    1
 92
    0
 93
   16
 72
    1
 10
-3.241819001734257
 20
80.23573399987072
 11
8.618180997669697
 21
84.20573399960995
 72
    2
 10
10.51641742140055
 20
78.51441725343466
 40
5.999532299886798
 50
251.5548057917268
 51
337.891247473064
 73
    0
 72
    1
 10
16.07481099665165
 20
80.77243600040674
 11
25.06407599896193
 21
58.64424499962479
 72
    1
 10
25.06407599896193
 20
58.64424499962479
 11
34.07651799917221
 21
36.58274600002915
 72
    2
 10
22.96810940653086
 20
32.04480150155723
 40
11.99957006379612
 50
337.779279748788
 51
72.61104977873913
 73
    0
 72
    1
 10
26.55426199734211
 20
20.59363600052893
 11
19.98759699985385
 21
18.50469699967653
 72
    1
 10
19.98759699985385
 20
18.50469699967653
 11
-2.583545003086329
 21
11.35433499980718
 72
    1
 10
-2.583545003086329
 20
11.35433499980718
 11
-3.187263000756502
 21
13.26005700044334
 72
    1
 10
-3.187263000756502
 20
13.26005700044334
 11
19.38273699954152
 21
20.41005699988455
 72
    1
 10
19.38273699954152
 20
20.41005699988455
 11
25.95273699983954
 21
22.50005699973553
 72
    2
 10
22.96812552958727
 20
32.04480606224388
 40
10.00050700188725
 50
287.3642911153595
 51
22.11742375906773
 73
    1
 72
    1
 10
32.23273699730635
 20
35.81005700025707
 11
23.21273699775338
 21
57.89005700033158
 72
    1
 10
23.21273699775338
 20
57.89005700033158
 11
14.22273699939251
 21
80.02005700021982
 72
    2
 10
10.5169809833169
 20
78.51564329303801
 40
3.99948599706446
 50
22.09551668600387
 51
108.4273301499284
 73
    1
 72
    1
 10
9.252736996859312
 20
82.31005700025707
 11
-2.607263002544641
 21
78.34005700051785
 72
    1
 10
-2.607263002544641
 20
78.34005700051785
 11
-3.241819001734257
 21
80.23573399987072
 97
    0
 75
    0
 76
    1
 98
    0
  0
HATCH
  5
111
100
AcDbEntity
  8
Farbige Flächendarstellung
  6
ByLayer
 62
   51
370
  100
100
AcDbHatch
 10
0
 20
0
 30
0
210
0
220
0
230
1
  2
SOLID
 70
    1
 71
    0
 91
    1
 92
    0
 93
   18
 72
    1
 10
-3.830595001578331
 20
2.639038000255823
 11
2.087934996932745
 21
4.478581000119448
 72
    1
 10
2.087934996932745
 20
4.478581000119448
 11
8.007934998720884
 21
6.328580999746919
 72
    1
 10
8.007934998720884
 20
6.328580999746919
 11
13.92894699797034
 21
8.168895999900997
 72
    1
 10
13.92894699797034
 20
8.168895999900997
 11
31.09314399957657
 21
13.51331700012088
 72
    2
 10
34.65818802267313
 20
2.064438492059708
 40
11.99109494495254
 50
252.7040352944276
 51
334.9948816534366
 73
    0
 72
    2
 10
34.56249847635627
 20
2.049165511503816
 40
12.08430068037953
 50
335.1210319946704
 51
345.6451083936167
 73
    0
 72
    1
 10
46.26951099932194
 20
5.045192999765277
 11
47.9999770000577
 21
-1.716629999689758
 72
    1
 10
47.9999770000577
 20
-1.716629999689758
 11
48.75056299939752
 21
-4.678940000012517
 72
    1
 10
48.75056299939752
 20
-4.678940000012517
 11
46.8127369992435
 21
-5.16994300018996
 72
    1
 10
46.8127369992435
 20
-5.16994300018996
 11
46.0627369992435
 21
-2.209943000227213
 72
    1
 10
46.0627369992435
 20
-2.209943000227213
 11
44.33273699879646
 21
4.550057000480592
 72
    2
 10
34.56249863654375
 20
2.049167461693287
 40
10.08523704070414
 50
14.35773232351476
 51
24.86645517211288
 73
    1
 72
    2
 10
34.658183272928
 20
2.064449309371412
 40
9.992032000566823
 50
25.01766919342425
 51
107.3845037831412
 73
    1
 72
    1
 10
31.67273699864745
 20
11.60005700029433
 11
14.52273700013757
 21
6.260057000443339
 72
    1
 10
14.52273700013757
 20
6.260057000443339
 11
8.602736998349428
 21
4.420056999661028
 72
    1
 10
8.602736998349428
 20
4.420056999661028
 11
2.682736996561289
 21
2.570057000033557
 72
    1
 10
2.682736996561289
 20
2.570057000033557
 11
-3.23726300150156
 21
0.730057000182569
 72
    1
 10
-3.23726300150156
 20
0.730057000182569
 11
-3.830595001578331
 21
2.639038000255823
 97
    0
 75
    0
 76
    1
 98
    0
  0
HATCH
  5
112
100
AcDbEntity
  8
Gebäude
  6
ByLayer
 62
  253
420
10066329
370
   25
100
AcDbHatch
 10
0
 20
0
 30
0
210
0
220
0
230
1
  2
SOLID
 70
    1
 71
    0
 91
    1
 92
    0
 93
    4
 72
    1
 10
51.45334899798036
 20
54.35531000047922
 11
48.92114199697971
 21
62.98734600003809
 72
    1
 10
48.92114199697971
 20
62.98734600003809
 11
59.70159599930048
 21
66.14979100041091
 72
    1
 10
59.70159599930048
 20
66.14979100041091
 11
62.23380299657583
 21
57.51775499992073
 72
    1
 10
62.23380299657583
 20
57.51775499992073
 11
51.45334899798036
 21
54.35531000047922
 97
    0
 75
    0
 76
    1
 98
    0
  0
HATCH
  5
113
100
AcDbEntity
  8
Bauwerke_ Einrichtungen_ Siedlungsf.
  6
ByLayer
 62
  254
420
13421772
370
   25
100
AcDbHatch
 10
0
 20
0
 30
0
210
0
220
0
230
1
  2
SOLID
 70
    1
 71
    0
 91
    1
 92
    0
 93
    4
 72
    1
 10
11.99273699894547
 20
69.86005700007081
 11
13.35273699834943
 21
66.5300569999963
 72
    1
 10
13.35273699834943
 20
66.5300569999963
 11
6.622736997902393
 21
63.79005699977279
 72
    1
 10
6.622736997902393
 20
63.79005699977279
 11
5.26273699849844
 21
67.12005699984729
 72
    1
 10
5.26273699849844
 20
67.12005699984729
 11
11.99273699894547
 21
69.86005700007081
 97
    0
 75
    0
 76
    1
 98
    0
  0
HATCH
  5
114
100
AcDbEntity
  8
Gebäude
  6
ByLayer
 62
  253
420
10066329
370
   25
100
AcDbHatch
 10
0
 20
0
 30
0
210
0
220
0
230
1
  2
SOLID
 70
    1
 71
    0
 91
    1
 92
    0
 93
    5
 72
    1
 10
-4.757263001054525
 20
73.81005700025707
 11
-1.877263002097607
 21
66.75005699973553
 72
    1
 10
-1.877263002097607
 20
66.75005699973553
 11
-0.6572630032896996
 21
63.7800569999963
 72
    1
 10
-0.6572630032896996
 20
63.7800569999963
 11
-9.427263002842665
 21
60.2000569999218
 72
    1
 10
-9.427263002842665
 20
60.2000569999218
 11
-13.51726300269365
 21
70.23005700018257
 72
    1
 10
-13.51726300269365
 20
70.23005700018257
 11
-4.757263001054525
 21
73.81005700025707
 97
    0
 75
    0
 76
    1
 98
    0
  0
HATCH
  5
115
100
AcDbEntity
  8
Gebäude
  6
ByLayer
 62
  254
420
13421772
370
   25
100
AcDbHatch
 10
0
 20
0
 30
0
210
0
220
0
230
1
  2
SOLID
 70
    1
 71
    0
 91
    1
 92
    0
 93
    4
 72
    1
 10
-1.367263000458479
 20
75.18005700036883
 11
1.51273699849844
 21
68.13005699962378
 72
    1
 10
1.51273699849844
 20
68.13005699962378
 11
-1.877263002097607
 21
66.75005699973553
 72
    1
 10
-1.877263002097607
 20
66.75005699973553
 11
-4.757263001054525
 21
73.81005700025707
 72
    1
 10
-4.757263001054525
 20
73.81005700025707
 11
-1.367263000458479
 21
75.18005700036883
 97
    0
 75
    0
 76
    1
 98
    0
  0
HATCH
  5
116
100
AcDbEntity
  8
Gebäude
  6
ByLayer
 62
  253
420
10066329
370
   25
100
AcDbHatch
 10
0
 20
0
 30
0
210
0
220
0
230
1
  2
SOLID
 70
    1
 71
    0
 91
    1
 92
    0
 93
   12
 72
    1
 10
62.19273699820042
 20
43.97005700040609
 11
62.5327369980514
 21
42.82005700003356
 72
    1
 10
62.5327369980514
 20
42.82005700003356
 11
66.40273699909449
 21
43.96005699969828
 72
    1
 10
66.40273699909449
 20
43.96005699969828
 11
69.72273699939251
 21
32.62005699984729
 72
    1
 10
69.72273699939251
 20
32.62005699984729
 11
62.79273699969053
 21
30.59005700051785
 72
    1
 10
62.79273699969053
 20
30.59005700051785
 11
62.42273699864745
 21
31.86005700007081
 72
    1
 10
62.42273699864745
 20
31.86005700007081
 11
53.50273699685931
 21
29.22005700040609
 72
    1
 10
53.50273699685931
 20
29.22005700040609
 11
52.3427369967103
 21
33.2000569999218
 72
    1
 10
52.3427369967103
 20
33.2000569999218
 11
50.66273699700832
 21
38.93005700036883
 72
    1
 10
50.66273699700832
 20
38.93005700036883
 11
50.55273699760437
 21
39.31005700025707
 72
    1
 10
50.55273699760437
 20
39.31005700025707
 11
59.62273699790239
 21
41.97005700040609
 72
    1
 10
59.62273699790239
 20
41.97005700040609
 11
59.2827369980514
 21
43.12005699984729
 72
    1
 10
59.2827369980514
 20
43.12005699984729
 11
62.19273699820042
 21
43.97005700040609
 97
    0
 75
    0
 76
    1
 98
    0
  0
HATCH
  5
117
100
AcDbEntity
  8
Gebäude
  6
ByLayer
 62
  254
420
13421772
370
   25
100
AcDbHatch
 10
0
 20
0
 30
0
210
0
220
0
230
1
  2
SOLID
 70
    1
 71
    0
 91
    1
 92
    0
 93
    4
 72
    1
 10
50.66273699700832
 20
38.93005700036883
 11
52.3427369967103
 21
33.2000569999218
 72
    1
 10
52.3427369967103
 20
33.2000569999218
 11
46.5627369992435
 21
31.5300569999963
 72
    1
 10
46.5627369992435
 20
31.5300569999963
 11
44.88273699954152
 21
37.27005700021982
 72
    1
 10
44.88273699954152
 20
37.27005700021982
 11
50.66273699700832
 21
38.93005700036883
 97
    0
 75
    0
 76
    1
 98
    0
  0
HATCH
  5
118
100
AcDbEntity
  8
Gebäude
  6
ByLayer
 62
  253
420
10066329
370
   25
100
AcDbHatch
 10
0
 20
0
 30
0
210
0
220
0
230
1
  2
SOLID
 70
    1
 71
    0
 91
    1
 92
    0
 93
    7
 72
    1
 10
10.76273699849844
 20
80.23005700018257
 11
13.11273699998856
 21
74.46005699969828
 72
    1
 10
13.11273699998856
 20
74.46005699969828
 11
14.55273699760437
 21
70.91005699988455
 72
    1
 10
14.55273699760437
 20
70.91005699988455
 11
11.99273699894547
 21
69.86005700007081
 72
    1
 10
11.99273699894547
 20
69.86005700007081
 11
5.26273699849844
 21
67.12005699984729
 72
    1
 10
5.26273699849844
 20
67.12005699984729
 11
4.80273699760437
 21
66.93005700036883
 72
    1
 10
4.80273699760437
 20
66.93005700036883
 11
1.01273699849844
 21
76.25005699973553
 72
    1
 10
1.01273699849844
 20
76.25005699973553
 11
10.76273699849844
 21
80.23005700018257
 97
    0
 75
    0
 76
    1
 98
    0
  0
HATCH
  5
119
100
AcDbEntity
  8
Gebäude
  6
ByLayer
 62
  254
420
13421772
370
   25
100
AcDbHatch
 10
0
 20
0
 30
0
210
0
220
0
230
1
  2
SOLID
 70
    1
 71
    0
 91
    1
 92
    0
 93
    5
 72
    1
 10
15.91273699700832
 20
75.60005700029433
 11
18.18273699656129
 21
70.01005700044334
 72
    1
 10
18.18273699656129
 20
70.01005700044334
 11
15.35273699834943
 21
68.89005700033158
 72
    1
 10
15.35273699834943
 20
68.89005700033158
 11
14.55273699760437
 21
70.91005699988455
 72
    1
 10
14.55273699760437
 20
70.91005699988455
 11
13.11273699998856
 21
74.46005699969828
 72
    1
 10
13.11273699998856
 20
74.46005699969828
 11
15.91273699700832
 21
75.60005700029433
 97
    0
 75
    0
 76
    1
 98
    0
  0
HATCH
  5
11A
100
AcDbEntity
  8
Gebäude
  6
ByLayer
 62
  253
420
10066329
370
   25
100
AcDbHatch
 10
0
 20
0
 30
0
210
0
220
0
230
1
  2
SOLID
 70
    1
 71
    0
 91
    1
 92
    0
 93
    4
 72
    1
 10
23.50273699685931
 20
48.7800569999963
 11
27.0927369967103
 21
39.9500569999218
 72
    1
 10
27.0927369967103
 20
39.9500569999218
 11
15.93273699656129
 21
35.41005699988455
 72
    1
 10
15.93273699656129
 20
35.41005699988455
 11
12.35273699834943
 21
44.25005699973553
 72
    1
 10
12.35273699834943
 20
44.25005699973553
 11
23.50273699685931
 21
48.7800569999963
 97
    0
 75
    0
 76
    1
 98
    0
  0
HATCH
  5
11B
100
AcDbEntity
  8
Gebäude
  6
ByLayer
 62
  254
420
13421772
370
   25
100
AcDbHatch
 10
0
 20
0
 30
0
210
0
220
0
230
1
  2
SOLID
 70
    1
 71
    0
 91
    1
 92
    0
 93
    4
 72
    1
 10
17.52273700013757
 20
55.12005699984729
 11
19.30273699760437
 21
50.47005700040609
 72
    1
 10
19.30273699760437
 20
50.47005700040609
 11
14.80273699760437
 21
48.75005699973553
 72
    1
 10
14.80273699760437
 20
48.75005699973553
 11
13.02273700013757
 21
53.40005700010806
 72
    1
 10
13.02273700013757
 20
53.40005700010806
 11
17.52273700013757
 21
55.12005699984729
 97
    0
 75
    0
 76
    1
 98
    0
  0
HATCH
  5
11C
100
AcDbEntity
  8
Gebäude
  6
ByLayer
 62
  253
420
10066329
370
   25
100
AcDbHatch
 10
0
 20
0
 30
0
210
0
220
0
230
1
  2
SOLID
 70
    1
 71
    0
 91
    1
 92
    0
 93
    4
 72
    1
 10
28.51273699849844
 20
5.660056999884546
 11
33.23273699730635
 21
-4.329943000338972
 72
    1
 10
33.23273699730635
 20
-4.329943000338972
 11
27.64273699745536
 21
-6.989942999556661
 72
    1
 10
27.64273699745536
 20
-6.989942999556661
 11
22.88273699954152
 21
2.980057000182569
 72
    1
 10
22.88273699954152
 20
2.980057000182569
 11
28.51273699849844
 21
5.660056999884546
 97
    0
 75
    0
 76
    1
 98
    0
  0
HATCH
  5
11D
100
AcDbEntity
  8
Gebäude
  6
ByLayer
 62
  253
420
10066329
370
   25
100
AcDbHatch
 10
0
 20
0
 30
0
210
0
220
0
230
1
  2
SOLID
 70
    1
 71
    0
 91
    1
 92
    0
 93
    5
 72
    1
 10
22.88273699954152
 20
2.980057000182569
 11
27.64273699745536
 21
-6.989942999556661
 72
    1
 10
27.64273699745536
 20
-6.989942999556661
 11
22.10273699834943
 21
-9.619943000376225
 72
    1
 10
22.10273699834943
 20
-9.619943000376225
 11
21.47273699939251
 21
-8.309942999854684
 72
    1
 10
21.47273699939251
 20
-8.309942999854684
 11
17.33273699879646
 21
0.3500570002943277
 72
    1
 10
17.33273699879646
 20
0.3500570002943277
 11
22.88273699954152
 21
2.980057000182569
 97
    0
 75
    0
 76
    1
 98
    0
  0
HATCH
  5
11E
100
AcDbEntity
  8
Gebäude
  6
ByLayer
 62
  253
420
10066329
370
   25
100
AcDbHatch
 10
0
 20
0
 30
0
210
0
220
0
230
1
  2
SOLID
 70
    1
 71
    0
 91
    1
 92
    0
 93
   11
 72
    1
 10
1.442736998200417
 20
45.44005700014532
 11
4.182736996561289
 21
39.67005699966103
 72
    1
 10
4.182736996561289
 20
39.67005699966103
 11
5.082736998796463
 21
40.10005700029433
 72
    1
 10
5.082736998796463
 20
40.10005700029433
 11
8.612736999988556
 21
32.67005699966103
 72
    1
 10
8.612736999988556
 20
32.67005699966103
 11
-1.007263001054525
 21
28.12005699984729
 72
    1
 10
-1.007263001054525
 20
28.12005699984729
 11
-3.047263000160456
 21
32.43005700036883
 72
    1
 10
-3.047263000160456
 20
32.43005700036883
 11
-1.23726300150156
 21
33.29005699977279
 72
    1
 10
-1.23726300150156
 20
33.29005699977279
 11
-2.587263002991676
 21
36.14005700033158
 72
    1
 10
-2.587263002991676
 20
36.14005700033158
 11
-3.94726300239563
 21
35.50005699973553
 72
    1
 10
-3.94726300239563
 20
35.50005699973553
 11
-4.177263002842665
 21
35.99005699995905
 72
    1
 10
-4.177263002842665
 20
35.99005699995905
 11
-6.807263001799583
 21
41.54005699977279
 72
    1
 10
-6.807263001799583
 20
41.54005699977279
 11
1.442736998200417
 21
45.44005700014532
 97
    0
 75
    0
 76
    1
 98
    0
  0
LWPOLYLINE
  5
11F
100
AcDbEntity
  8
Ebene 99
  6
CONTINUOUS
 62
    7
370
   18
100
AcDbPolyline
 90
    4
 70
    1
 43
0
 10
0
 20
0
 10
87.5
 20
0
 10
87.5
 20
100
 10
0
 20
100
  0
INSERT
  5
120
100
AcDbEntity
  8
Flurstücke_ Grenzpunkte
  6
ByLayer
 62
    7
370
   18
100
AcDbBlockReference
  2
Grenzpunkt mit Abmarkung
 10
62.41273699700832
 20
70.07005700003356
 30
0
 41
0.75
 42
0.75
 43
0
 50
0
 70
    1
 71
    1
 44
0
 45
0
  0
INSERT
  5
121
100
AcDbEntity
  8
Flurstücke_ Grenzpunkte
  6
ByLayer
 62
    7
370
   18
100
AcDbBlockReference
  2
Grenzpunkt mit Abmarkung
 10
25.95273699983954
 20
22.50005699973553
 30
0
 41
0.75
 42
0.75
 43
0
 50
0
 70
    1
 71
    1
 44
0
 45
0
  0
INSERT
  5
122
100
AcDbEntity
  8
Flurstücke_ Grenzpunkte
  6
ByLayer
 62
    7
370
   18
100
AcDbBlockReference
  2
Grenzpunkt mit Abmarkung
 10
14.52273700013757
 20
6.260057000443339
 30
0
 41
0.75
 42
0.75
 43
0
 50
0
 70
    1
 71
    1
 44
0
 45
0
  0
INSERT
  5
123
100
AcDbEntity
  8
Flurstücke_ Grenzpunkte
  6
ByLayer
 62
    7
370
   18
100
AcDbBlockReference
  2
Grenzpunkt mit Abmarkung
 10
75.02273700013757
 20
27.05005700048059
 30
0
 41
0.75
 42
0.75
 43
0
 50
0
 70
    1
 71
    1
 44
0
 45
0
  0
INSERT
  5
124
100
AcDbEntity
  8
Flurstücke_ Grenzpunkte
  6
ByLayer
 62
    7
370
   18
100
AcDbBlockReference
  2
Grenzpunkt mit Abmarkung
 10
50.69273699820042
 20
19.92005699966103
 30
0
 41
0.75
 42
0.75
 43
0
 50
0
 70
    1
 71
    1
 44
0
 45
0
  0
INSERT
  5
125
100
AcDbEntity
  8
Flurstücke_ Grenzpunkte
  6
ByLayer
 62
    7
370
   18
100
AcDbBlockReference
  2
Grenzpunkt mit Abmarkung
 10
8.602736998349428
 20
4.420056999661028
 30
0
 41
0.75
 42
0.75
 43
0
 50
0
 70
    1
 71
    1
 44
0
 45
0
  0
INSERT
  5
126
100
AcDbEntity
  8
Flurstücke_ Grenzpunkte
  6
ByLayer
 62
    7
370
   18
100
AcDbBlockReference
  2
Grenzpunkt mit Abmarkung
 10
45.87273699790239
 20
22.25005699973553
 30
0
 41
0.75
 42
0.75
 43
0
 50
0
 70
    1
 71
    1
 44
0
 45
0
  0
INSERT
  5
127
100
AcDbEntity
  8
Flurstücke_ Grenzpunkte
  6
ByLayer
 62
    7
370
   18
100
AcDbBlockReference
  2
Grenzpunkt mit Abmarkung
 10
38.94273699820042
 20
39.23005700018257
 30
0
 41
0.75
 42
0.75
 43
0
 50
0
 70
    1
 71
    1
 44
0
 45
0
  0
INSERT
  5
128
100
AcDbEntity
  8
Flurstücke_ Grenzpunkte
  6
ByLayer
 62
    7
370
   18
100
AcDbBlockReference
  2
Grenzpunkt mit Abmarkung
 10
68.87273699790239
 20
48.01005700044334
 30
0
 41
0.75
 42
0.75
 43
0
 50
0
 70
    1
 71
    1
 44
0
 45
0
  0
INSERT
  5
129
100
AcDbEntity
  8
Flurstücke_ Grenzpunkte
  6
ByLayer
 62
    7
370
   18
100
AcDbBlockReference
  2
Grenzpunkt mit Abmarkung
 10
30.23273699730635
 20
60.63005699962378
 30
0
 41
0.75
 42
0.75
 43
0
 50
0
 70
    1
 71
    1
 44
0
 45
0
  0
INSERT
  5
12A
100
AcDbEntity
  8
Flurstücke_ Grenzpunkte
  6
ByLayer
 62
    7
370
   18
100
AcDbBlockReference
  2
Grenzpunkt mit Abmarkung
 10
23.21273699775338
 20
57.89005700033158
 30
0
 41
0.75
 42
0.75
 43
0
 50
0
 70
    1
 71
    1
 44
0
 45
0
  0
INSERT
  5
12B
100
AcDbEntity
  8
Flurstücke_ Grenzpunkte
  6
ByLayer
 62
    7
370
   18
100
AcDbBlockReference
  2
Grenzpunkt mit Abmarkung
 10
4.5927369967103
 20
51.61005700007081
 30
0
 41
0.75
 42
0.75
 43
0
 50
0
 70
    1
 71
    1
 44
0
 45
0
  0
INSERT
  5
12C
100
AcDbEntity
  8
Flurstücke_ Grenzpunkte
  6
ByLayer
 62
    7
370
   18
100
AcDbBlockReference
  2
Grenzpunkt_ Abm. nach Quellenlage n. zu spezifizieren
 10
76.92273699864745
 20
60.39005700033158
 30
0
 41
0.75
 42
0.75
 43
0
 50
0
 70
    1
 71
    1
 44
0
 45
0
  0
INSERT
  5
12D
100
AcDbEntity
  8
Flurstücke_ Grenzpunkte
  6
ByLayer
 62
    7
370
   18
100
AcDbBlockReference
  2
Grenzpunkt_ Abm. nach Quellenlage n. zu spezifizieren
 10
85.77273700013757
 20
30.21005699969828
 30
0
 41
0.75
 42
0.75
 43
0
 50
0
 70
    1
 71
    1
 44
0
 45
0
  0
INSERT
  5
12E
100
AcDbEntity
  8
Flurstücke_ Grenzpunkte
  6
ByLayer
 62
    7
370
   18
100
AcDbBlockReference
  2
Grenzpunkt mit Abmarkung
 10
66.17273699864745
 20
57.23005700018257
 30
0
 41
0.75
 42
0.75
 43
0
 50
0
 70
    1
 71
    1
 44
0
 45
0
  0
INSERT
  5
12F
100
AcDbEntity
  8
Flurstücke_ Grenzpunkte
  6
ByLayer
 62
    7
370
   18
100
AcDbBlockReference
  2
Grenzpunkt mit Abmarkung
 10
5.782736998051405
 20
89.04005699977279
 30
0
 41
0.75
 42
0.75
 43
0
 50
0
 70
    1
 71
    1
 44
0
 45
0
  0
INSERT
  5
130
100
AcDbEntity
  8
Flurstücke_ Grenzpunkte
  6
ByLayer
 62
    7
370
   18
100
AcDbBlockReference
  2
Grenzpunkt mit Abmarkung
 10
19.38273699954152
 20
20.41005699988455
 30
0
 41
0.75
 42
0.75
 43
0
 50
0
 70
    1
 71
    1
 44
0
 45
0
  0
INSERT
  5
131
100
AcDbEntity
  8
Flurstücke_ Grenzpunkte
  6
ByLayer
 62
    7
370
   18
100
AcDbBlockReference
  2
Grenzpunkt mit Abmarkung
 10
13.37273699790239
 20
91.58005699981004
 30
0
 41
0.75
 42
0.75
 43
0
 50
0
 70
    1
 71
    1
 44
0
 45
0
  0
INSERT
  5
132
100
AcDbEntity
  8
Flurstücke_ Grenzpunkte
  6
ByLayer
 62
    7
370
   18
100
AcDbBlockReference
  2
Grenzpunkt mit Abmarkung
 10
20.43273699656129
 20
8.100057000294328
 30
0
 41
0.75
 42
0.75
 43
0
 50
0
 70
    1
 71
    1
 44
0
 45
0
  0
INSERT
  5
133
100
AcDbEntity
  8
Flurstücke_ Grenzpunkte
  6
ByLayer
 62
    7
370
   18
100
AcDbBlockReference
  2
Grenzpunkt mit Abmarkung
 10
2.682736996561289
 20
2.570057000033557
 30
0
 41
0.75
 42
0.75
 43
0
 50
0
 70
    1
 71
    1
 44
0
 45
0
  0
INSERT
  5
134
100
AcDbEntity
  8
Flurstücke_ Grenzpunkte
  6
ByLayer
 62
    7
370
   18
100
AcDbBlockReference
  2
Grenzpunkt mit Abmarkung
 10
14.22273699939251
 20
80.02005700021982
 30
0
 41
0.75
 42
0.75
 43
0
 50
0
 70
    1
 71
    1
 44
0
 45
0
  0
INSERT
  5
135
100
AcDbEntity
  8
Flurstücke_ Grenzpunkte
  6
ByLayer
 62
    7
370
   18
100
AcDbBlockReference
  2
Grenzpunkt_ Abm. nach Quellenlage n. zu spezifizieren
 10
39.65273699909449
 20
17.64005700033158
 30
0
 41
0.75
 42
0.75
 43
0
 50
0
 70
    1
 71
    1
 44
0
 45
0
  0
INSERT
  5
136
100
AcDbEntity
  8
Flurstücke_ Grenzpunkte
  6
ByLayer
 62
    7
370
   18
100
AcDbBlockReference
  2
Grenzpunkt mit Abmarkung
 10
9.252736996859312
 20
82.31005700025707
 30
0
 41
0.75
 42
0.75
 43
0
 50
0
 70
    1
 71
    1
 44
0
 45
0
  0
INSERT
  5
137
100
AcDbEntity
  8
Flurstücke_ Grenzpunkte
  6
ByLayer
 62
    7
370
   18
100
AcDbBlockReference
  2
Grenzpunkt mit Abmarkung
 10
7.872736997902393
 20
52.72005700040609
 30
0
 41
0.75
 42
0.75
 43
0
 50
0
 70
    1
 71
    1
 44
0
 45
0
  0
INSERT
  5
138
100
AcDbEntity
  8
Flurstücke_ Grenzpunkte
  6
ByLayer
 62
    7
370
   18
100
AcDbBlockReference
  2
Grenzpunkt mit Abmarkung
 10
81.94273699820042
 20
61.86005700007081
 30
0
 41
0.75
 42
0.75
 43
0
 50
0
 70
    1
 71
    1
 44
0
 45
0
  0
INSERT
  5
139
100
AcDbEntity
  8
Flurstücke_ Grenzpunkte
  6
ByLayer
 62
    7
370
   18
100
AcDbBlockReference
  2
Grenzpunkt mit Abmarkung
 10
31.67273699864745
 20
11.60005700029433
 30
0
 41
0.75
 42
0.75
 43
0
 50
0
 70
    1
 71
    1
 44
0
 45
0
  0
INSERT
  5
13A
100
AcDbEntity
  8
Flurstücke_ Grenzpunkte
  6
ByLayer
 62
    7
370
   18
100
AcDbBlockReference
  2
Grenzpunkt mit Abmarkung
 10
32.23273699730635
 20
35.81005700025707
 30
0
 41
0.75
 42
0.75
 43
0
 50
0
 70
    1
 71
    1
 44
0
 45
0
  0
INSERT
  5
13B
100
AcDbEntity
  8
Flurstücke_ Grenzpunkte
  6
ByLayer
 62
    7
370
   18
100
AcDbBlockReference
  2
Grenzpunkt mit Abmarkung
 10
60.52273700013757
 20
100.0600570002571
 30
0
 41
0.75
 42
0.75
 43
0
 50
0
 70
    1
 71
    1
 44
0
 45
0
  0
INSERT
  5
13C
100
AcDbEntity
  8
Flurstücke_ Grenzpunkte
  6
ByLayer
 62
    7
370
   18
100
AcDbBlockReference
  2
Grenzpunkt mit Abmarkung
 10
54.89273699745536
 20
97.57005700003356
 30
0
 41
0.75
 42
0.75
 43
0
 50
0
 70
    1
 71
    1
 44
0
 45
0
  0
INSERT
  5
13D
100
AcDbEntity
  8
Flurstücke_ Grenzpunkte
  6
ByLayer
 62
    7
370
   18
100
AcDbBlockReference
  2
Grenzpunkt mit Abmarkung
 10
20.93273699656129
 20
86.21005699969828
 30
0
 41
0.75
 42
0.75
 43
0
 50
0
 70
    1
 71
    1
 44
0
 45
0
  0
INSERT
  5
13E
100
AcDbEntity
  8
Flurstücke_ Grenzpunkte
  6
ByLayer
 62
    7
370
   18
100
AcDbBlockReference
  2
Grenzpunkt mit Abmarkung
 10
20.98273699730635
 20
83.32005700003356
 30
0
 41
0.75
 42
0.75
 43
0
 50
0
 70
    1
 71
    1
 44
0
 45
0
  0
INSERT
  5
13F
100
AcDbEntity
  8
Flurstücke_ Grenzpunkte
  6
ByLayer
 62
    7
370
   18
100
AcDbBlockReference
  2
Grenzpunkt mit Abmarkung
 10
44.33273699879646
 20
4.550057000480592
 30
0
 41
0.75
 42
0.75
 43
0
 50
0
 70
    1
 71
    1
 44
0
 45
0
  0
INSERT
  5
140
100
AcDbEntity
  8
Flurstücke_ Grenzpunkte
  6
ByLayer
 62
    7
370
   18
100
AcDbBlockReference
  2
Grenzpunkt mit Abmarkung
 10
50.0627369992435
 20
9.83005699981004
 30
0
 41
0.75
 42
0.75
 43
0
 50
0
 70
    1
 71
    1
 44
0
 45
0
  0
INSERT
  5
141
100
AcDbEntity
  8
Flurstücke_ Grenzpunkte
  6
ByLayer
 62
    7
370
   18
100
AcDbBlockReference
  2
Grenzpunkt mit Abmarkung
 10
52.77273700013757
 20
14.80005700048059
 30
0
 41
0.75
 42
0.75
 43
0
 50
0
 70
    1
 71
    1
 44
0
 45
0
  0
INSERT
  5
142
100
AcDbEntity
  8
Flurstücke_ Grenzpunkte
  6
ByLayer
 62
    7
370
   18
100
AcDbBlockReference
  2
Grenzpunkt mit Abmarkung
 10
59.5627369992435
 20
16.79005699977279
 30
0
 41
0.75
 42
0.75
 43
0
 50
0
 70
    1
 71
    1
 44
0
 45
0
  0
INSERT
  5
143
100
AcDbEntity
  8
Flurstücke_ Grenzpunkte
  6
ByLayer
 62
    7
370
   18
100
AcDbBlockReference
  2
Grenzpunkt mit Abmarkung
 10
70.10273699834943
 20
19.88005699962378
 30
0
 41
0.75
 42
0.75
 43
0
 50
0
 70
    1
 71
    1
 44
0
 45
0
  0
INSERT
  5
144
100
AcDbEntity
  8
Flurstücke_ Grenzpunkte
  6
ByLayer
 62
    7
370
   18
100
AcDbBlockReference
  2
Grenzpunkt mit Abmarkung
 10
85.5927369967103
 20
24.43005700036883
 30
0
 41
0.75
 42
0.75
 43
0
 50
0
 70
    1
 71
    1
 44
0
 45
0
  0
INSERT
  5
145
100
AcDbEntity
  8
Flurstücke_ Grenzpunkte
  6
ByLayer
 62
    7
370
   18
100
AcDbBlockReference
  2
Grenzpunkt_ Abm. nach Quellenlage n. zu spezifizieren
 10
43.71273699775338
 20
6.290056999772787
 30
0
 41
0.75
 42
0.75
 43
0
 50
0
 70
    1
 71
    1
 44
0
 45
0
  0
POINT
  5
146
100
AcDbEntity
  8
Bauwerke_ Einrichtungen_ Verkehr
  6
ByLayer
 62
  255
370
   -1
100
AcDbPoint
 10
21.06950699910522
 20
83.10721299983561
  0
INSERT
  5
147
100
AcDbEntity
  8
Liniensymbolik
  6
ByLayer
 62
    7
370
   25
100
AcDbBlockReference
  2
S99
 10
77.26132799685001
 20
37.60746799968183
 30
0
 41
10
 42
10
 43
0
 50
0
 70
    1
 71
    1
 44
0
 45
0
  0
INSERT
  5
148
100
AcDbEntity
  8
Liniensymbolik
  6
ByLayer
 62
    7
370
   25
100
AcDbBlockReference
  2
S157
 10
46.01432399824262
 20
54.06183600053191
 30
0
 41
5
 42
5
 43
0
 50
16.349046448308
 70
    1
 71
    1
 44
0
 45
0
  0
INSERT
  5
149
100
AcDbEntity
  8
Liniensymbolik
  6
ByLayer
 62
    7
370
   18
100
AcDbBlockReference
  2
S166
 10
43.02193299680948
 20
50.05906600039452
 30
0
 41
1.75
 42
1.75
 43
0
 50
286.349038821188
 70
    1
 71
    1
 44
0
 45
0
  0
INSERT
  5
14A
100
AcDbEntity
  8
Liniensymbolik
  6
ByLayer
 62
    7
370
   18
100
AcDbBlockReference
  2
S1000
 10
22.41631300002337
 20
67.81778699997813
 30
0
 41
5
 42
5
 43
0
 50
359.999999927429
 70
    1
 71
    1
 44
0
 45
0
  0
INSERT
  5
14B
100
AcDbEntity
  8
Liniensymbolik
  6
ByLayer
 62
    7
370
   18
100
AcDbBlockReference
  2
S1000
 10
39.15434399992228
 20
36.06639100052416
 30
0
 41
5
 42
5
 43
0
 50
359.999999927429
 70
    1
 71
    1
 44
0
 45
0
  0
INSERT
  5
14C
100
AcDbEntity
  8
Liniensymbolik
  6
ByLayer
 62
    7
370
   18
100
AcDbBlockReference
  2
S1000
 10
31.05510699748993
 20
62.58440900035203
 30
0
 41
5
 42
5
 43
0
 50
359.999999927429
 70
    1
 71
    1
 44
0
 45
0
  0
INSERT
  5
14D
100
AcDbEntity
  8
Liniensymbolik
  6
ByLayer
 62
    7
370
   18
100
AcDbBlockReference
  2
S1000
 10
22.75390399992466
 20
82.94703599996865
 30
0
 41
5
 42
5
 43
0
 50
359.999999927429
 70
    1
 71
    1
 44
0
 45
0
  0
INSERT
  5
14E
100
AcDbEntity
  8
Liniensymbolik
  6
ByLayer
 62
    7
370
   18
100
AcDbBlockReference
  2
S1000
 10
74.02224799990654
 20
27.79842799995095
 30
0
 41
5
 42
5
 43
0
 50
359.999999927429
 70
    1
 71
    1
 44
0
 45
0
  0
INSERT
  5
14F
100
AcDbEntity
  8
Liniensymbolik
  6
ByLayer
 62
    7
370
   18
100
AcDbBlockReference
  2
S1000
 10
51.00164599716663
 20
21.05215200036764
 30
0
 41
5
 42
5
 43
0
 50
359.999999927429
 70
    1
 71
    1
 44
0
 45
0
  0
INSERT
  5
150
100
AcDbEntity
  8
Punktsymbolik
  6
ByLayer
 62
    7
370
   18
100
AcDbBlockReference
  2
S166
 10
57.03589399904013
 20
65.47197300009429
 30
0
 41
1.25
 42
1.25
 43
0
 50
16.349046448308
 70
    1
 71
    1
 44
0
 45
0
  0
INSERT
  5
151
100
AcDbEntity
  8
Maßketten
  6
ByLayer
 62
    7
370
   18
100
AcDbBlockReference
  2
S154
 10
39.85511999949813
 20
68.66347800008953
 30
0
 41
1.25
 42
1.25
 43
0
 50
16.349046448308
 70
    1
 71
    1
 44
0
 45
0
  0
INSERT
  5
152
100
AcDbEntity
  8
Punktsymbolik
  6
ByLayer
 62
    7
370
   18
100
AcDbBlockReference
  2
S167
 10
35.2747139967978
 20
55.51546999998391
 30
0
 41
1.25
 42
1.25
 43
0
 50
106.349043830144
 70
    1
 71
    1
 44
0
 45
0
  0
INSERT
  5
153
100
AcDbEntity
  8
Punktsymbolik
  6
ByLayer
 62
    7
370
   18
100
AcDbBlockReference
  2
S167
 10
34.66698399931192
 20
57.58715900033712
 30
0
 41
1.25
 42
1.25
 43
0
 50
106.349043830144
 70
    1
 71
    1
 44
0
 45
0
  0
INSERT
  5
154
100
AcDbEntity
  8
Maßketten
  6
ByLayer
 62
    7
370
   18
100
AcDbBlockReference
  2
S154
 10
32.18219899758697
 20
66.4126279996708
 30
0
 41
1.25
 42
1.25
 43
0
 50
16.349046448308
 70
    1
 71
    1
 44
0
 45
0
  0
INSERT
  5
155
100
AcDbEntity
  8
Maßketten
  6
ByLayer
 62
    7
370
   18
100
AcDbBlockReference
  2
S154
 10
28.78612300008535
 20
65.41638899967074
 30
0
 41
1.25
 42
1.25
 43
0
 50
16.349046448308
 70
    1
 71
    1
 44
0
 45
0
  0
INSERT
  5
156
100
AcDbEntity
  8
Maßketten
  6
ByLayer
 62
    7
370
   18
100
AcDbBlockReference
  2
S154
 10
23.5040139965713
 20
49.81257000006735
 30
0
 41
1.25
 42
1.25
 43
0
 50
106.349043830144
 70
    1
 71
    1
 44
0
 45
0
  0
INSERT
  5
157
100
AcDbEntity
  8
Maßketten
  6
ByLayer
 62
    7
370
   18
100
AcDbBlockReference
  2
S154
 10
21.6780119985342
 20
56.03722700010985
 30
0
 41
1.25
 42
1.25
 43
0
 50
106.349043830144
 70
    1
 71
    1
 44
0
 45
0
  0
INSERT
  5
158
100
AcDbEntity
  8
Maßketten
  6
ByLayer
 62
    7
370
   18
100
AcDbBlockReference
  2
S154
 10
21.11529899761081
 20
57.95545700006187
 30
0
 41
1.25
 42
1.25
 43
0
 50
106.349043830144
 70
    1
 71
    1
 44
0
 45
0
  0
MTEXT
  5
159
100
AcDbEntity
  8
Gebäude_ Funktion
  6
ByLayer
 62
    7
370
   18
100
AcDbMText
 10
2.096854999661446
 20
37.16912700049579
 30
0
 40
1.25
 41
3.055556198414612
 71
    5
 72
    1
  1
Whs
  7
gebäudefunktion
210
0
220
0
230
1
 50
24.29998779631418
 73
    1
 44
0.6899999999999999
  0
MTEXT
  5
15A
100
AcDbEntity
  8
Gebäude_ Funktion
  6
ByLayer
 62
    7
370
   18
100
AcDbMText
 10
16.25273699685931
 20
51.68005700036883
 30
0
 40
1.25
 41
2.500000000000136
 71
    5
 72
    1
  1
Gar
  7
gebäudefunktion
210
0
220
0
230
1
 50
20.91778061268039
 73
    1
 44
0.6899999999999999
  0
MTEXT
  5
15B
100
AcDbEntity
  8
Gebäude_ Funktion
  6
ByLayer
 62
    7
370
   18
100
AcDbMText
 10
19.85712199658155
 20
42.71308000013232
 30
0
 40
1.25
 41
3.055556198414612
 71
    5
 72
    1
  1
Whs
  7
gebäudefunktion
210
0
220
0
230
1
 50
22.18139358474881
 73
    1
 44
0.6899999999999999
  0
MTEXT
  5
15C
100
AcDbEntity
  8
Gebäude_ Funktion
  6
ByLayer
 62
    7
370
   18
100
AcDbMText
 10
15.64861899986863
 20
72.27855100017041
 30
0
 40
1.25
 41
2.500000000000136
 71
    5
 72
    1
  1
Gar
  7
gebäudefunktion
210
0
220
0
230
1
 50
22.1534853629136
 73
    1
 44
0.6899999999999999
  0
MTEXT
  5
15D
100
AcDbEntity
  8
Gebäude_ Funktion
  6
ByLayer
 62
    7
370
   18
100
AcDbMText
 10
6.565767999738455
 20
73.032465999946
 30
0
 40
1.25
 41
3.055556198414612
 71
    5
 72
    1
  1
Whs
  7
gebäudefunktion
210
0
220
0
230
1
 50
22.20570543017864
 73
    1
 44
0.6899999999999999
  0
MTEXT
  5
15E
100
AcDbEntity
  8
Gebäude_ Funktion
  6
ByLayer
 62
    7
370
   18
100
AcDbMText
 10
48.52273700013757
 20
35.21005699969828
 30
0
 40
1.25
 41
2.500000000000136
 71
    5
 72
    1
  1
Gar
  7
gebäudefunktion
210
0
220
0
230
1
 50
16.11539984747813
 73
    1
 44
0.6899999999999999
  0
MTEXT
  5
15F
100
AcDbEntity
  8
Gebäude_ Funktion
  6
ByLayer
 62
    7
370
   18
100
AcDbMText
 10
60.10273699834943
 20
36.55005700048059
 30
0
 40
1.25
 41
3.055556198414612
 71
    5
 72
    1
  1
Whs
  7
gebäudefunktion
210
0
220
0
230
1
 50
16.48706904087123
 73
    1
 44
0.6899999999999999
  0
MTEXT
  5
160
100
AcDbEntity
  8
Gebäude_ Funktion
  6
ByLayer
 62
    7
370
   18
100
AcDbMText
 10
56.83357299864292
 20
60.57700700033456
 30
0
 40
1.25
 41
3.055556198414612
 71
    5
 72
    1
  1
Whs
  7
gebäudefunktion
210
0
220
0
230
1
 50
16.34902922348768
 73
    1
 44
0.6899999999999999
  0
MTEXT
  5
161
100
AcDbEntity
  8
Lagebezeichnungen
  6
ByLayer
 62
    7
370
   18
100
AcDbMText
 10
3.421516999602318
 20
32.50828399974853
 30
0
 40
1.25
 41
1.527777777777855
 71
    5
 72
    1
  1
57
  7
n 7 380 - bauwerk_ gebäude_ bezeichnung
210
0
220
0
230
1
 50
24.29998779631418
 73
    1
 44
0.6899999999999999
  0
MTEXT
  5
162
100
AcDbEntity
  8
Lagebezeichnungen
  6
ByLayer
 62
    7
370
   18
100
AcDbMText
 10
26.63341099768877
 20
2.516963000409305
 30
0
 40
1.25
 41
1.666666666666744
 71
    5
 72
    1
  1
64
  7
n 7 380 - bauwerk_ gebäude_ bezeichnung
210
0
220
0
230
1
 50
24.29998779631418
 73
    1
 44
0.6899999999999999
  0
MTEXT
  5
163
100
AcDbEntity
  8
Lagebezeichnungen
  6
ByLayer
 62
    7
370
   18
100
AcDbMText
 10
21.2799059972167
 20
39.5240810001269
 30
0
 40
1.25
 41
1.527777777777855
 71
    5
 72
    1
  1
59
  7
n 7 380 - bauwerk_ gebäude_ bezeichnung
210
0
220
0
230
1
 50
22.18139358474881
 73
    1
 44
0.6899999999999999
  0
MTEXT
  5
164
100
AcDbEntity
  8
Lagebezeichnungen
  6
ByLayer
 62
    7
370
   18
100
AcDbMText
 10
10.83793799951673
 20
74.71979300025851
 30
0
 40
1.25
 41
0.5555555555555556
 71
    5
 72
    1
  1
2
  7
n 7 380 - bauwerk_ gebäude_ bezeichnung
210
0
220
0
230
1
 50
-67.84019446310445
 73
    1
 44
0.6899999999999999
  0
MTEXT
  5
165
100
AcDbEntity
  8
Lagebezeichnungen
  6
ByLayer
 62
    7
370
   18
100
AcDbMText
 10
53.96273699775338
 20
34.48005700018257
 30
0
 40
1.25
 41
0.5555555555556331
 71
    5
 72
    1
  1
9
  7
n 7 380 - bauwerk_ gebäude_ bezeichnung
210
0
220
0
230
1
 50
-73.68571034478204
 73
    1
 44
0.6899999999999999
  0
MTEXT
  5
166
100
AcDbEntity
  8
Lagebezeichnungen
  6
ByLayer
 62
    7
370
   18
100
AcDbMText
 10
52.08922600001097
 20
59.13855100050569
 30
0
 40
1.25
 41
0.5555555555556331
 71
    5
 72
    1
  1
5
  7
n 7 380 - bauwerk_ gebäude_ bezeichnung
210
0
220
0
230
1
 50
-73.65097077651232
 73
    1
 44
0.6899999999999999
  0
MTEXT
  5
167
100
AcDbEntity
  8
Lagebezeichnungen
  6
ByLayer
 62
    7
370
   25
100
AcDbMText
 10
22.29878299683332
 20
14.72271000035107
 30
0
 40
1.5
 41
20.83333301533032
 71
    5
 72
    1
  1
Peter-Imhoff-Straße
  7
f 10 - straße_ weg_ brücke_ lagebezeichnung
210
0
220
0
230
1
 50
16.19998914118424
 73
    1
 44
0.6899999999999999
  0
MTEXT
  5
168
100
AcDbEntity
  8
Lagebezeichnungen
  6
ByLayer
 62
    7
370
   25
100
AcDbMText
 10
29.86406200006604
 20
94.0922210002318
 30
0
 40
1.5
 41
16.50000045342785
 71
    5
 72
    1
  1
Sternbergstraße
  7
f 10 - straße_ weg_ brücke_ lagebezeichnung
210
0
220
0
230
1
 50
19.33167091126208
 73
    1
 44
0.6899999999999999
  0
MTEXT
  5
169
100
AcDbEntity
  8
Lagebezeichnungen
  6
ByLayer
 62
    7
370
   25
100
AcDbMText
 10
30.83553199842572
 20
50.83755700010806
 30
0
 40
1.5
 41
24.33333378676133
 71
    5
 72
    1
  1
Beatus-Widmann-Straße
  7
f 10 - straße_ weg_ brücke_ lagebezeichnung
210
0
220
0
230
1
 50
-67.77926057511279
 73
    1
 44
0.6899999999999999
  0
MTEXT
  5
16A
100
AcDbEntity
  8
Lagebezeichnungen
  6
ByLayer
 62
    7
370
   25
100
AcDbMText
 10
64.65616999939084
 20
21.1831219997257
 30
0
 40
1.5
 41
19.49999968199708
 71
    5
 72
    1
  1
Gabriel-Biel-Straße
  7
f 10 - straße_ weg_ brücke_ lagebezeichnung
210
0
220
0
230
1
 50
15.71622348079122
 73
    1
 44
0.6899999999999999
  0
MTEXT
  5
16B
100
AcDbEntity
  8
Flurstücke_ Punkte
  6
ByLayer
 62
    7
370
   25
100
AcDbMText
 10
8.276033997535706
 20
24.45225299987942
 30
0
 40
1.25
 41
4.861111111111111
 71
    5
 72
    1
  1
1414/1
  7
k 10 700 - schrägstrich als schrägstrich interpretiert
210
0
220
0
230
1
 50
0
 73
    1
 44
0.6899999999999999
  0
MTEXT
  5
16C
100
AcDbEntity
  8
Flurstücke_ Punkte
  6
ByLayer
 62
    7
370
   25
100
AcDbMText
 10
24.16273699700832
 20
31.34005700051785
 30
0
 40
1.25
 41
5.138888888888889
 71
    5
 72
    1
  1
1414/2
  7
k 10 700 - schrägstrich als schrägstrich interpretiert
210
0
220
0
230
1
 50
0
 73
    1
 44
0.6899999999999999
  0
MTEXT
  5
16D
100
AcDbEntity
  8
Flurstücke_ Punkte
  6
ByLayer
 62
    7
370
   25
100
AcDbMText
 10
4.657550998032093
 20
8.749165000393987
 30
0
 40
1.25
 41
4.7222222222223
 71
    5
 72
    1
  1
1416/1
  7
k 10 700 - schrägstrich als schrägstrich interpretiert
210
0
220
0
230
1
 50
15.30000356524652
 73
    1
 44
0.6899999999999999
  0
MTEXT
  5
16E
100
AcDbEntity
  8
Flurstücke_ Punkte
  6
ByLayer
 62
    7
370
   25
100
AcDbMText
 10
35.96057199686766
 20
5.674758999608457
 30
0
 40
1.25
 41
5.694444444444521
 71
    5
 72
    1
  1
1431/21
  7
k 10 700 - schrägstrich als schrägstrich interpretiert
210
0
220
0
230
1
 50
0
 73
    1
 44
0.6899999999999999
  0
MTEXT
  5
16F
100
AcDbEntity
  8
Flurstücke_ Punkte
  6
ByLayer
 62
    7
370
   25
100
AcDbMText
 10
67.50310700014234
 20
9.716284000314772
 30
0
 40
1.25
 41
3.333333333333333
 71
    5
 72
    1
  1
8140
  7
k 10 700 - flurstücksnummer
210
0
220
0
230
1
 50
0
 73
    1
 44
0.6899999999999999
  0
MTEXT
  5
170
100
AcDbEntity
  8
Flurstücke_ Punkte
  6
ByLayer
 62
    7
370
   25
100
AcDbMText
 10
79.83984799683094
 20
13.35403400007635
 30
0
 40
1.25
 41
3.055555555555555
 71
    5
 72
    1
  1
8141
  7
k 10 700 - flurstücksnummer
210
0
220
0
230
1
 50
0
 73
    1
 44
0.6899999999999999
  0
MTEXT
  5
171
100
AcDbEntity
  8
Flurstücke_ Punkte
  6
ByLayer
 62
    7
370
   25
100
AcDbMText
 10
54.83824399858713
 20
48.15951200015843
 30
0
 40
1.25
 41
3.194444444444522
 71
    5
 72
    1
  1
8132
  7
k 10 700 - flurstücksnummer
210
0
220
0
230
1
 50
0
 73
    1
 44
0.6899999999999999
  0
MTEXT
  5
172
100
AcDbEntity
  8
Flurstücke_ Punkte
  6
ByLayer
 62
    7
370
   25
100
AcDbMText
 10
12.88273699954152
 20
61.77005700021982
 30
0
 40
1.25
 41
3.333333333333333
 71
    5
 72
    1
  1
8124
  7
k 10 700 - flurstücksnummer
210
0
220
0
230
1
 50
0
 73
    1
 44
0.6899999999999999
  0
MTEXT
  5
173
100
AcDbEntity
  8
Flurstücke_ Punkte
  6
ByLayer
 62
    7
370
   25
100
AcDbMText
 10
57.53881999850273
 20
6.157608999870718
 30
0
 40
1.25
 41
3.194444444444522
 71
    5
 72
    1
  1
8139
  7
k 10 700 - flurstücksnummer
210
0
220
0
230
1
 50
0
 73
    1
 44
0.6899999999999999
  0
MTEXT
  5
174
100
AcDbEntity
  8
Flurstücke_ Punkte
  6
ByLayer
 62
    7
370
   25
100
AcDbMText
 10
60.08464399725199
 20
26.95257600024343
 30
0
 40
1.25
 41
3.1944444444446
 71
    5
 72
    1
  1
8133
  7
k 10 700 - flurstücksnummer
210
0
220
0
230
1
 50
0
 73
    1
 44
0.6899999999999999
  0
MTEXT
  5
175
100
AcDbEntity
  8
Flurstücke_ Punkte
  6
ByLayer
 62
    7
370
   25
100
AcDbMText
 10
6.086687996983528
 20
85.74928100034595
 30
0
 40
1.25
 41
2.916666666666667
 71
    5
 72
    1
  1
8121
  7
k 10 700 - flurstücksnummer
210
0
220
0
230
1
 50
18.49319988194377
 73
    1
 44
0.6899999999999999
  0
MTEXT
  5
176
100
AcDbEntity
  8
Flurstücke_ Punkte
  6
ByLayer
 62
    7
370
   25
100
AcDbMText
 10
80.15617699921131
 20
25.6116949999705
 30
0
 40
1.25
 41
3.194444444444522
 71
    5
 72
    1
  1
8137
  7
k 10 700 - flurstücksnummer
210
0
220
0
230
1
 50
16.33947456533906
 73
    1
 44
0.6899999999999999
  0
MTEXT
  5
177
100
AcDbEntity
  8
Flurstücke_ Punkte
  6
ByLayer
 62
    7
370
   25
100
AcDbMText
 10
44.91991399973631
 20
13.34553000051528
 30
0
 40
1.25
 41
3.194444444444522
 71
    5
 72
    1
  1
8138
  7
k 10 700 - flurstücksnummer
210
0
220
0
230
1
 50
-70.31742026803141
 73
    1
 44
0.6899999999999999
  0
MTEXT
  5
178
100
AcDbEntity
  8
Flurstücke_ Punkte
  6
ByLayer
 62
    7
370
   25
100
AcDbMText
 10
58.65105399861932
 20
82.89257299993187
 30
0
 40
1.25
 41
3.194444444444445
 71
    5
 72
    1
  1
8122
  7
k 10 700 - flurstücksnummer
210
0
220
0
230
1
 50
0
 73
    1
 44
0.6899999999999999
  0
MTEXT
  5
179
100
AcDbEntity
  8
Flurstücke_ Punkte
  6
ByLayer
 62
    7
370
   25
100
AcDbMText
 10
73.69225399941206
 20
53.12517500016838
 30
0
 40
1.25
 41
3.333333333333411
 71
    5
 72
    1
  1
8134
  7
k 10 700 - flurstücksnummer
210
0
220
0
230
1
 50
0
 73
    1
 44
0.6899999999999999
  0
MTEXT
  5
17A
100
AcDbEntity
  8
Liniensymbolik
  6
ByLayer
 62
    7
370
   25
100
AcDbMText
 10
30.96488999947906
 20
59.22935600019991
 30
0
 40
0.7
 41
2.722222222222266
 71
    7
 72
    1
  1
GR/LR
  7
arial normal
210
0
220
0
230
1
 50
16.34902922348768
 73
    1
 44
0.6899999999999999
  0
MTEXT
  5
17B
100
AcDbEntity
  8
Liniensymbolik
  6
ByLayer
 62
    7
370
   25
100
AcDbMText
 10
41.09953799843788
 20
44.78906499966979
 30
0
 40
1.25
 41
1.944444444444522
 71
    7
 72
    1
  1
GA
  7
arial normal
210
0
220
0
230
1
 50
16.34910033060057
 73
    1
 44
0.6899999999999999
  0
MTEXT
  5
17C
100
AcDbEntity
  8
Liniensymbolik
  6
ByLayer
 62
    7
370
   25
100
AcDbMText
 10
35.17993299663067
 20
58.35550499986857
 30
0
 40
1.25
 41
1.944444444444522
 71
    7
 72
    1
  1
GA
  7
arial normal
210
0
220
0
230
1
 50
16.34910033060057
 73
    1
 44
0.6899999999999999
  0
MTEXT
  5
17D
100
AcDbEntity
  8
Liniensymbolik
  6
ByLayer
 62
    7
370
   25
100
AcDbMText
 10
76.11982600018382
 20
46.0855940002948
 30
0
 40
1.25
 41
1.388888888888967
 71
    7
 72
    1
  1
D1
  7
arial normal
210
0
220
0
230
1
 50
0
 73
    1
 44
0.6899999999999999
  0
MTEXT
  5
17E
100
AcDbEntity
  8
Liniensymbolik
  6
ByLayer
 62
    7
370
   25
100
AcDbMText
 10
73.23627099767327
 20
43.76304600015283
 30
0
 40
1.25
 41
2.361111111111111
 71
    7
 72
    1
  1
WA
  7
arial normal
210
0
220
0
230
1
 50
0
 73
    1
 44
0.6899999999999999
  0
MTEXT
  5
17F
100
AcDbEntity
  8
Liniensymbolik
  6
ByLayer
 62
    7
370
   25
100
AcDbMText
 10
79.32597099989653
 20
43.70577600039542
 30
0
 40
1.25
 41
0.5555555555555556
 71
    7
 72
    1
  1
o
  7
arial normal
210
0
220
0
230
1
 50
0
 73
    1
 44
0.6899999999999999
  0
MTEXT
  5
180
100
AcDbEntity
  8
Liniensymbolik
  6
ByLayer
 62
    7
370
   25
100
AcDbMText
 10
73.47489499673247
 20
41.07232899963856
 30
0
 40
1.25
 41
2.152777777777778
 71
    7
 72
    1
  1
0,4
  7
arial normal
210
0
220
0
230
1
 50
0
 73
    1
 44
0.6899999999999999
  0
MTEXT
  5
181
100
AcDbEntity
  8
Liniensymbolik
  6
ByLayer
 62
    7
370
   25
100
AcDbMText
 10
78.63159499689937
 20
41.11309100035578
 30
0
 40
1.25
 41
2.013888888888889
 71
    7
 72
    1
  1
0,8
  7
arial normal
210
0
220
0
230
1
 50
0
 73
    1
 44
0.6899999999999999
  0
CIRCLE
  5
182
100
AcDbEntity
  8
Liniensymbolik
  6
CONTINUOUS
 62
    7
370
   25
100
AcDbCircle
 10
79.86346999928355
 20
41.73809100035578
 40
1.550358
  0
MTEXT
  5
183
100
AcDbEntity
  8
Liniensymbolik
  6
ByLayer
 62
    7
370
   25
100
AcDbMText
 10
74.74996199831367
 20
37.91835699975491
 30
0
 40
1.25
 41
4.201388888889102
 71
    8
 72
    1
  1
TH\P6,5 m
  7
arial normal
210
0
220
0
230
1
 50
0
 73
    1
 44
0.6899999999999999
  0
MTEXT
  5
184
100
AcDbEntity
  8
Liniensymbolik
  6
ByLayer
 62
    7
370
   25
100
AcDbMText
 10
79.92478000000119
 20
37.91835699975491
 30
0
 40
1.25
 41
4.895833333333392
 71
    8
 72
    1
  1
FH\P10,0 m
  7
arial normal
210
0
220
0
230
1
 50
0
 73
    1
 44
0.6899999999999999
  0
MTEXT
  5
185
100
AcDbEntity
  8
Liniensymbolik
  6
ByLayer
 62
    7
370
   25
100
AcDbMText
 10
43.62279099971056
 20
60.59389199968427
 30
0
 40
1.25
 41
1.388888888888967
 71
    7
 72
    1
  1
D1
  7
arial normal
210
0
220
0
230
1
 50
16.34902922348768
 73
    1
 44
0.6899999999999999
  0
MTEXT
  5
186
100
AcDbEntity
  8
Liniensymbolik
  6
ByLayer
 62
    7
370
   25
100
AcDbMText
 10
45.00262699648738
 20
50.16738600004464
 30
0
 40
0.9
 41
5.100000000000055
 71
    7
 72
    1
  1
+0,3/+1,0
  7
arial normal
210
0
220
0
230
1
 50
16.34902922348768
 73
    1
 44
0.6899999999999999
  0
MTEXT
  5
187
100
AcDbEntity
  8
sonstige Beschriftungen
  6
ByLayer
 62
    7
370
   25
100
AcDbMText
 10
43.54651499912143
 20
59.2803060002625
 30
0
 40
0.7
 41
3.422222222222265
 71
    7
 72
    1
  1
D.V.0.70
  7
arial normal
210
0
220
0
230
1
 50
-73.65097077651232
 73
    1
 44
0.6899999999999999
  0
MTEXT
  5
188
100
AcDbEntity
  8
sonstige Beschriftungen
  6
ByLayer
 62
    7
370
   25
100
AcDbMText
 10
36.16844099760056
 20
52.28359400015324
 30
0
 40
0.7
 41
3.422222222222352
 71
    7
 72
    1
  1
D.V.0.35
  7
arial normal
210
0
220
0
230
1
 50
16.34902922348768
 73
    1
 44
0.6899999999999999
  0
MTEXT
  5
189
100
AcDbEntity
  8
sonstige Beschriftungen
  6
ByLayer
 62
    7
370
   25
100
AcDbMText
 10
36.39958699792624
 20
55.2359039997682
 30
0
 40
1.25
 41
5.520833068330878
 71
    7
 72
    1
  1
SD 35%%D
  7
arial normal
210
0
220
0
230
1
 50
16.34902922348768
 73
    1
 44
0.6899999999999999
  0
MTEXT
  5
18A
100
AcDbEntity
  8
sonstige Beschriftungen
  6
ByLayer
 62
    7
370
   25
100
AcDbMText
 10
35.35411399975419
 20
57.05623199976981
 30
0
 40
1.25
 41
8.333333333333528
 71
    7
 72
    1
  1
Doppelgar.
  7
arial normal
210
0
220
0
230
1
 50
16.34902922348768
 73
    1
 44
0.6899999999999999
  0
TEXT
  5
18B
100
AcDbEntity
  8
Maßketten
  6
ByLayer
 62
    7
370
   18
100
AcDbText
 10
35.94547199830413
 20
67.78753999993205
 30
0
 40
0.65
  1
8,00
 50
16.349045878252
 41
1
 51
0
  7
bemaßung lp klein
 71
    0
 72
    1
 11
35.94547199830413
 21
67.78753999993205
 31
0
210
0
220
0
230
1
100
AcDbText
  0
TEXT
  5
18C
100
AcDbEntity
  8
Maßketten
  6
ByLayer
 62
    7
370
   18
100
AcDbText
 10
30.41097399964929
 20
66.16399500053376
 30
0
 40
0.65
  1
3,50
 50
16.349045869764
 41
1
 51
0
  7
bemaßung lp klein
 71
    0
 72
    1
 11
30.41097399964929
 21
66.16399500053376
 31
0
210
0
220
0
230
1
100
AcDbText
  0
TEXT
  5
18D
100
AcDbEntity
  8
Maßketten
  6
ByLayer
 62
    7
370
   18
100
AcDbText
 10
22.01776099950075
 20
57.75200899969786
 30
0
 40
0.65
  1
2,00
 50
286.349045842052
 41
1
 51
0
  7
bemaßung lp klein
 71
    0
 72
    2
 11
22.01776099950075
 21
57.75200899969786
 31
0
210
0
220
0
230
1
100
AcDbText
  0
TEXT
  5
18E
100
AcDbEntity
  8
Maßketten
  6
ByLayer
 62
    7
370
   18
100
AcDbText
 10
22.84049999713898
 20
52.99808599986136
 30
0
 40
0.65
  1
6,49
 50
286.349045908729
 41
1
 51
0
  7
bemaßung lp klein
 71
    0
 72
    1
 11
22.84049999713898
 21
52.99808599986136
 31
0
210
0
220
0
230
1
100
AcDbText
  0
INSERT
  5
18F
100
AcDbEntity
  8
Gebäude
  6
ByLayer
 62
  255
370
   -1
100
AcDbBlockReference
  2
O63
 10
-32511534.897263
 20
-5375243.139943
 30
0
 41
1
 42
1
 43
0
 50
0
 70
    1
 71
    1
 44
0
 45
0
  0
INSERT
  5
190
100
AcDbEntity
  8
Gebäude
  6
ByLayer
 62
  255
370
   -1
100
AcDbBlockReference
  2
O68
 10
-32511534.897263
 20
-5375243.139943
 30
0
 41
1
 42
1
 43
0
 50
0
 70
    1
 71
    1
 44
0
 45
0
  0
INSERT
  5
191
100
AcDbEntity
  8
Gebäude
  6
ByLayer
 62
  255
370
   -1
100
AcDbBlockReference
  2
O70
 10
-32511534.897263
 20
-5375243.139943
 30
0
 41
1
 42
1
 43
0
 50
0
 70
    1
 71
    1
 44
0
 45
0
  0
INSERT
  5
192
100
AcDbEntity
  8
Gebäude
  6
ByLayer
 62
  255
370
   -1
100
AcDbBlockReference
  2
O74
 10
-32511534.897263
 20
-5375243.139943
 30
0
 41
1
 42
1
 43
0
 50
0
 70
    1
 71
    1
 44
0
 45
0
  0
INSERT
  5
193
100
AcDbEntity
  8
Gebäude
  6
ByLayer
 62
  255
370
   -1
100
AcDbBlockReference
  2
O76
 10
-32511534.897263
 20
-5375243.139943
 30
0
 41
1
 42
1
 43
0
 50
0
 70
    1
 71
    1
 44
0
 45
0
  0
INSERT
  5
194
100
AcDbEntity
  8
Gebäude
  6
ByLayer
 62
  255
370
   -1
100
AcDbBlockReference
  2
O78
 10
-32511534.897263
 20
-5375243.139943
 30
0
 41
1
 42
1
 43
0
 50
0
 70
    1
 71
    1
 44
0
 45
0
  0
INSERT
  5
195
100
AcDbEntity
  8
Gebäude
  6
ByLayer
 62
  255
370
   -1
100
AcDbBlockReference
  2
O80
 10
-32511534.897263
 20
-5375243.139943
 30
0
 41
1
 42
1
 43
0
 50
0
 70
    1
 71
    1
 44
0
 45
0
  0
INSERT
  5
196
100
AcDbEntity
  8
Gebäude
  6
ByLayer
 62
  255
370
   -1
100
AcDbBlockReference
  2
O84
 10
-32511534.897263
 20
-5375243.139943
 30
0
 41
1
 42
1
 43
0
 50
0
 70
    1
 71
    1
 44
0
 45
0
  0
INSERT
  5
197
100
AcDbEntity
  8
Gebäude
  6
ByLayer
 62
  255
370
   -1
100
AcDbBlockReference
  2
O86
 10
-32511534.897263
 20
-5375243.139943
 30
0
 41
1
 42
1
 43
0
 50
0
 70
    1
 71
    1
 44
0
 45
0
  0
INSERT
  5
198
100
AcDbEntity
  8
Gebäude
  6
ByLayer
 62
  255
370
   -1
100
AcDbBlockReference
  2
O89
 10
-32511534.897263
 20
-5375243.139943
 30
0
 41
1
 42
1
 43
0
 50
0
 70
    1
 71
    1
 44
0
 45
0
  0
INSERT
  5
199
100
AcDbEntity
  8
Gebäude
  6
ByLayer
 62
  255
370
   -1
100
AcDbBlockReference
  2
O91
 10
-32511534.897263
 20
-5375243.139943
 30
0
 41
1
 42
1
 43
0
 50
0
 70
    1
 71
    1
 44
0
 45
0
  0
INSERT
  5
19A
100
AcDbEntity
  8
Bauwerke_ Einrichtungen_ Siedlungsf.
  6
ByLayer
 62
  255
370
   -1
100
AcDbBlockReference
  2
O93
 10
-32511534.897263
 20
-5375243.139943
 30
0
 41
1
 42
1
 43
0
 50
0
 70
    1
 71
    1
 44
0
 45
0
  0
LINE
  5
19B
100
AcDbEntity
  8
Bauwerke_ Einrichtungen_ Verkehr
  6
CONTINUOUS
 62
  253
420
10066329
370
   18
100
AcDbLine
 10
8.618180997669697
 20
84.20573399960995
 11
-3.241819001734257
 21
80.23573399987072
  0
ARC
  5
19C
100
AcDbEntity
  8
Bauwerke_ Einrichtungen_ Verkehr
  6
CONTINUOUS
 62
  253
420
10066329
370
   18
100
AcDbCircle
 10
10.51641699671745
 20
78.51441700011492
 40
5.999533
100
AcDbArc
 50
22.108753886586
 51
108.44519554388
  0
ARC
  5
19D
100
AcDbEntity
  8
Bauwerke_ Einrichtungen_ Verkehr
  6
CONTINUOUS
 62
  253
420
10066329
370
   18
100
AcDbCircle
 10
44.36243699863553
 20
128.9893709998578
 40
31.137933
100
AcDbArc
 50
288.528768736139
 51
299.187278934987
  0
ARC
  5
19E
100
AcDbEntity
  8
Bauwerke_ Einrichtungen_ Verkehr
  6
CONTINUOUS
 62
  253
420
10066329
370
   18
100
AcDbCircle
 10
25.3927499987185
 20
84.9053290002048
 40
4.646938
100
AcDbArc
 50
108.503408088895
 51
163.693735943172
  0
LINE
  5
19F
100
AcDbEntity
  8
Bauwerke_ Einrichtungen_ Verkehr
  6
CONTINUOUS
 62
  253
420
10066329
370
   18
100
AcDbLine
 10
-2.583545003086329
 20
11.35433499980718
 11
19.98759699985385
 21
18.50469699967653
  0
LINE
  5
1A0
100
AcDbEntity
  8
Bauwerke_ Einrichtungen_ Verkehr
  6
CONTINUOUS
 62
  253
420
10066329
370
   18
100
AcDbLine
 10
23.91799299791455
 20
89.31204199977219
 11
54.25747299939394
 21
99.46549700014293
  0
LINE
  5
1A1
100
AcDbEntity
  8
Bauwerke_ Einrichtungen_ Verkehr
  6
CONTINUOUS
 62
  253
420
10066329
370
   18
100
AcDbLine
 10
19.98759699985385
 20
18.50469699967653
 11
26.55426199734211
 21
20.59363600052893
  0
ARC
  5
1A2
100
AcDbEntity
  8
Bauwerke_ Einrichtungen_ Verkehr
  6
CONTINUOUS
 62
  253
420
10066329
370
   18
100
AcDbCircle
 10
22.96810999885201
 20
32.04480100050569
 40
11.99957
100
AcDbArc
 50
287.388949827522
 51
22.220719894257
  0
LINE
  5
1A3
100
AcDbEntity
  8
Bauwerke_ Einrichtungen_ Verkehr
  6
CONTINUOUS
 62
  253
420
10066329
370
   18
100
AcDbLine
 10
34.07651799917221
 20
36.58274600002915
 11
25.06407599896193
 21
58.64424499962479
  0
LINE
  5
1A4
100
AcDbEntity
  8
Bauwerke_ Einrichtungen_ Verkehr
  6
CONTINUOUS
 62
  253
420
10066329
370
   18
100
AcDbLine
 10
25.06407599896193
 20
58.64424499962479
 11
21.86646599695086
 21
66.51556000020355
  0
LINE
  5
1A5
100
AcDbEntity
  8
Bauwerke_ Einrichtungen_ Verkehr
  6
CONTINUOUS
 62
  253
420
10066329
370
   18
100
AcDbLine
 10
47.9999770000577
 20
-1.716629999689758
 11
46.26951099932194
 21
5.045192999765277
  0
ARC
  5
1A6
100
AcDbEntity
  8
Bauwerke_ Einrichtungen_ Verkehr
  6
CONTINUOUS
 62
  253
420
10066329
370
   18
100
AcDbCircle
 10
34.56249899789691
 20
2.049167999997735
 40
12.0843
100
AcDbArc
 50
14.35488157163
 51
24.878958031049
  0
ARC
  5
1A7
100
AcDbEntity
  8
Bauwerke_ Einrichtungen_ Verkehr
  6
CONTINUOUS
 62
  253
420
10066329
370
   18
100
AcDbCircle
 10
34.6581879965961
 20
2.064438000321388
 40
11.991095
100
AcDbArc
 50
25.005117926897
 51
107.295964296159
  0
LINE
  5
1A8
100
AcDbEntity
  8
Bauwerke_ Einrichtungen_ Verkehr
  6
CONTINUOUS
 62
  253
420
10066329
370
   18
100
AcDbLine
 10
31.09314399957657
 20
13.51331700012088
 11
19.83844999969006
 21
10.00874099973589
  0
LINE
  5
1A9
100
AcDbEntity
  8
Bauwerke_ Einrichtungen_ Verkehr
  6
CONTINUOUS
 62
  253
420
10066329
370
   18
100
AcDbLine
 10
19.83844999969006
 20
10.00874099973589
 11
13.92894699797034
 21
8.168895999900997
  0
LINE
  5
1AA
100
AcDbEntity
  8
Bauwerke_ Einrichtungen_ Verkehr
  6
CONTINUOUS
 62
  253
420
10066329
370
   18
100
AcDbLine
 10
13.92894699797034
 20
8.168895999900997
 11
8.007934998720884
 21
6.328580999746919
  0
LINE
  5
1AB
100
AcDbEntity
  8
Bauwerke_ Einrichtungen_ Verkehr
  6
CONTINUOUS
 62
  253
420
10066329
370
   18
100
AcDbLine
 10
8.007934998720884
 20
6.328580999746919
 11
2.087934996932745
 21
4.478581000119448
  0
LINE
  5
1AC
100
AcDbEntity
  8
Bauwerke_ Einrichtungen_ Verkehr
  6
CONTINUOUS
 62
  253
420
10066329
370
   18
100
AcDbLine
 10
2.087934996932745
 20
4.478581000119448
 11
-3.830595001578331
 21
2.639038000255823
  0
LINE
  5
1AD
100
AcDbEntity
  8
Bauwerke_ Einrichtungen_ Verkehr
  6
CONTINUOUS
 62
  253
420
10066329
370
   18
100
AcDbLine
 10
39.70207799971104
 20
37.36950800009072
 11
37.85122699663043
 21
36.61412500031292
  0
LINE
  5
1AE
100
AcDbEntity
  8
Bauwerke_ Einrichtungen_ Verkehr
  6
CONTINUOUS
 62
  253
420
10066329
370
   18
100
AcDbLine
 10
37.85122699663043
 20
36.61412500031292
 11
38.60660899803042
 21
34.76327400002629
  0
LINE
  5
1AF
100
AcDbEntity
  8
Bauwerke_ Einrichtungen_ Verkehr
  6
CONTINUOUS
 62
  253
420
10066329
370
   18
100
AcDbLine
 10
38.60660899803042
 20
34.76327400002629
 11
40.45745999738574
 21
35.51865699980408
  0
LINE
  5
1B0
100
AcDbEntity
  8
Bauwerke_ Einrichtungen_ Verkehr
  6
CONTINUOUS
 62
  253
420
10066329
370
   18
100
AcDbLine
 10
21.11408699676394
 20
68.36763400025666
 11
22.96616099774837
 21
69.12001300044358
  0
LINE
  5
1B1
100
AcDbEntity
  8
Bauwerke_ Einrichtungen_ Verkehr
  6
CONTINUOUS
 62
  253
420
10066329
370
   18
100
AcDbLine
 10
22.96616099774837
 20
69.12001300044358
 11
23.7185399979353
 21
67.26793900039047
  0
LINE
  5
1B2
100
AcDbEntity
  8
Bauwerke_ Einrichtungen_ Verkehr
  6
CONTINUOUS
 62
  253
420
10066329
370
   18
100
AcDbLine
 10
23.7185399979353
 20
67.26793900039047
 11
21.86646599695086
 21
66.51556000020355
  0
LINE
  5
1B3
100
AcDbEntity
  8
Bauwerke_ Einrichtungen_ Verkehr
  6
CONTINUOUS
 62
  253
420
10066329
370
   18
100
AcDbLine
 10
21.11408699676394
 20
68.36763400025666
 11
16.07481099665165
 21
80.77243600040674
  0
LINE
  5
1B4
100
AcDbEntity
  8
Bauwerke_ Einrichtungen_ Verkehr
  6
CONTINUOUS
 62
  253
420
10066329
370
   18
100
AcDbLine
 10
21.86646599695086
 20
66.51556000020355
 11
21.11408699676394
 21
68.36763400025666
  0
LINE
  5
1B5
100
AcDbEntity
  8
Gebäude
  6
CONTINUOUS
 62
    7
370
   18
100
AcDbLine
 10
51.45334899798036
 20
54.35531000047922
 11
62.23380299657583
 21
57.51775499992073
  0
LINE
  5
1B6
100
AcDbEntity
  8
Gebäude
  6
CONTINUOUS
 62
    7
370
   18
100
AcDbLine
 10
62.23380299657583
 20
57.51775499992073
 11
59.70159599930048
 21
66.14979100041091
  0
LINE
  5
1B7
100
AcDbEntity
  8
Gebäude
  6
CONTINUOUS
 62
    7
370
   18
100
AcDbLine
 10
48.92114199697971
 20
62.98734600003809
 11
56.34469299763441
 21
65.16504400037229
  0
LINE
  5
1B8
100
AcDbEntity
  8
Gebäude
  6
CONTINUOUS
 62
    7
370
   18
100
AcDbLine
 10
56.34469299763441
 20
65.16504400037229
 11
59.70159599930048
 21
66.14979100041091
  0
LINE
  5
1B9
100
AcDbEntity
  8
Gebäude
  6
CONTINUOUS
 62
    7
370
   18
100
AcDbLine
 10
50.18724599853158
 20
58.67132799979299
 11
51.45334899798036
 21
54.35531000047922
  0
LINE
  5
1BA
100
AcDbEntity
  8
Gebäude
  6
CONTINUOUS
 62
    7
370
   18
100
AcDbLine
 10
50.1169069968164
 20
58.91110699996352
 11
50.18724599853158
 21
58.67132799979299
  0
LINE
  5
1BB
100
AcDbEntity
  8
Gebäude
  6
CONTINUOUS
 62
    7
370
   18
100
AcDbLine
 10
48.92114199697971
 20
62.98734600003809
 11
48.9914809986949
 21
62.74756699986756
  0
LINE
  5
1BC
100
AcDbEntity
  8
Gebäude
  6
CONTINUOUS
 62
    7
370
   18
100
AcDbLine
 10
49.62453299760818
 20
60.58955799974501
 11
50.1169069968164
 21
58.91110699996352
  0
LINE
  5
1BD
100
AcDbEntity
  8
Gebäude
  6
CONTINUOUS
 62
    7
370
   18
100
AcDbLine
 10
48.9914809986949
 20
62.74756699986756
 11
49.06182099878788
 21
62.50778899993747
  0
LINE
  5
1BE
100
AcDbEntity
  8
Gebäude
  6
CONTINUOUS
 62
    7
370
   18
100
AcDbLine
 10
49.06182099878788
 20
62.50778899993747
 11
49.13215999677777
 21
62.26800999976695
  0
LINE
  5
1BF
100
AcDbEntity
  8
Gebäude
  6
CONTINUOUS
 62
    7
370
   18
100
AcDbLine
 10
49.13215999677777
 20
62.26800999976695
 11
49.20249899849296
 21
62.02823100052774
  0
LINE
  5
1C0
100
AcDbEntity
  8
Gebäude
  6
CONTINUOUS
 62
    7
370
   18
100
AcDbLine
 10
49.20249899849296
 20
62.02823100052774
 11
49.27283800020814
 21
61.78845200035721
  0
LINE
  5
1C1
100
AcDbEntity
  8
Gebäude
  6
CONTINUOUS
 62
    7
370
   18
100
AcDbLine
 10
49.27283800020814
 20
61.78845200035721
 11
49.34317699819803
 21
61.54867300018668
  0
LINE
  5
1C2
100
AcDbEntity
  8
Gebäude
  6
CONTINUOUS
 62
    7
370
   18
100
AcDbLine
 10
49.34317699819803
 20
61.54867300018668
 11
49.41351599991322
 21
61.3088950002566
  0
LINE
  5
1C3
100
AcDbEntity
  8
Gebäude
  6
CONTINUOUS
 62
    7
370
   18
100
AcDbLine
 10
49.41351599991322
 20
61.3088950002566
 11
49.48385499790311
 21
61.06911600008607
  0
LINE
  5
1C4
100
AcDbEntity
  8
Gebäude
  6
CONTINUOUS
 62
    7
370
   18
100
AcDbLine
 10
49.48385499790311
 20
61.06911600008607
 11
49.55419399961829
 21
60.82933699991554
  0
LINE
  5
1C5
100
AcDbEntity
  8
Gebäude
  6
CONTINUOUS
 62
    7
370
   18
100
AcDbLine
 10
49.55419399961829
 20
60.82933699991554
 11
49.62453299760818
 21
60.58955799974501
  0
LINE
  5
1C6
100
AcDbEntity
  8
Flurstücke_ Grenzpunkte
  6
CONTINUOUS
 62
    7
370
   35
100
AcDbLine
 10
-3.187263000756502
 20
13.26005700044334
 11
19.38273699954152
 21
20.41005699988455
  0
LINE
  5
1C7
100
AcDbEntity
  8
Flurstücke_ Grenzpunkte
  6
CONTINUOUS
 62
    7
370
   35
100
AcDbLine
 10
19.38273699954152
 20
20.41005699988455
 11
4.5927369967103
 21
51.61005700007081
  0
LINE
  5
1C8
100
AcDbEntity
  8
Flurstücke_ Grenzpunkte
  6
CONTINUOUS
 62
    7
370
   35
100
AcDbLine
 10
4.5927369967103
 20
51.61005700007081
 11
-7.19726300239563
 21
47.64005700033158
  0
LINE
  5
1C9
100
AcDbEntity
  8
Flurstücke_ Grenzpunkte
  6
CONTINUOUS
 62
    7
370
   35
100
AcDbLine
 10
19.38273699954152
 20
20.41005699988455
 11
25.95273699983954
 21
22.50005699973553
  0
ARC
  5
1CA
100
AcDbEntity
  8
Flurstücke_ Grenzpunkte
  6
CONTINUOUS
 62
    7
370
   35
100
AcDbCircle
 10
22.96812599897385
 20
32.04480599984527
 40
10.000507
100
AcDbArc
 50
287.3642910981741
 51
22.11742377699
  0
LINE
  5
1CB
100
AcDbEntity
  8
Flurstücke_ Grenzpunkte
  6
CONTINUOUS
 62
    7
370
   35
100
AcDbLine
 10
32.23273699730635
 20
35.81005700025707
 11
23.21273699775338
 21
57.89005700033158
  0
LINE
  5
1CC
100
AcDbEntity
  8
Flurstücke_ Grenzpunkte
  6
CONTINUOUS
 62
    7
370
   35
100
AcDbLine
 10
23.21273699775338
 20
57.89005700033158
 11
7.872736997902393
 21
52.72005700040609
  0
LINE
  5
1CD
100
AcDbEntity
  8
Flurstücke_ Grenzpunkte
  6
CONTINUOUS
 62
    7
370
   35
100
AcDbLine
 10
7.872736997902393
 20
52.72005700040609
 11
4.5927369967103
 21
51.61005700007081
  0
LINE
  5
1CE
100
AcDbEntity
  8
Flurstücke_ Grenzpunkte
  6
CONTINUOUS
 62
    7
370
   35
100
AcDbLine
 10
-3.23726300150156
 20
0.730057000182569
 11
2.682736996561289
 21
2.570057000033557
  0
LINE
  5
1CF
100
AcDbEntity
  8
Flurstücke_ Grenzpunkte
  6
CONTINUOUS
 62
    7
370
   35
100
AcDbLine
 10
2.682736996561289
 20
2.570057000033557
 11
8.602736998349428
 21
4.420056999661028
  0
LINE
  5
1D0
100
AcDbEntity
  8
Flurstücke_ Grenzpunkte
  6
CONTINUOUS
 62
    7
370
   35
100
AcDbLine
 10
8.602736998349428
 20
4.420056999661028
 11
14.52273700013757
 21
6.260057000443339
  0
LINE
  5
1D1
100
AcDbEntity
  8
Flurstücke_ Grenzpunkte
  6
CONTINUOUS
 62
    7
370
   35
100
AcDbLine
 10
14.52273700013757
 20
6.260057000443339
 11
20.43273699656129
 21
8.100057000294328
  0
LINE
  5
1D2
100
AcDbEntity
  8
Flurstücke_ Grenzpunkte
  6
CONTINUOUS
 62
    7
370
   35
100
AcDbLine
 10
20.43273699656129
 20
8.100057000294328
 11
31.67273699864745
 21
11.60005700029433
  0
ARC
  5
1D3
100
AcDbEntity
  8
Flurstücke_ Grenzpunkte
  6
CONTINUOUS
 62
    7
370
   35
100
AcDbCircle
 10
34.65818299725652
 20
2.064449000172317
 40
9.992032
100
AcDbArc
 50
25.017669193424
 51
107.384503783141
  0
LINE
  5
1D4
100
AcDbEntity
  8
Flurstücke_ Grenzpunkte
  6
CONTINUOUS
 62
    7
370
   35
100
AcDbLine
 10
43.71273699775338
 20
6.290056999772787
 11
39.65273699909449
 21
17.64005700033158
  0
LINE
  5
1D5
100
AcDbEntity
  8
Flurstücke_ Grenzpunkte
  6
CONTINUOUS
 62
    7
370
   35
100
AcDbLine
 10
39.65273699909449
 20
17.64005700033158
 11
32.23273699730635
 21
35.81005700025707
  0
LINE
  5
1D6
100
AcDbEntity
  8
Flurstücke_ Grenzpunkte
  6
CONTINUOUS
 62
    7
370
   35
100
AcDbLine
 10
14.52273700013757
 20
6.260057000443339
 11
26.11273699998856
 21
-18.02994299959391
  0
LINE
  5
1D7
100
AcDbEntity
  8
Flurstücke_ Grenzpunkte
  6
CONTINUOUS
 62
    7
370
   35
100
AcDbLine
 10
31.69273699820042
 20
-15.45994300022721
 11
20.43273699656129
 21
8.100057000294328
  0
LINE
  5
1D8
100
AcDbEntity
  8
Flurstücke_ Grenzpunkte
  6
CONTINUOUS
 62
    7
370
   35
100
AcDbLine
 10
46.0627369992435
 20
-2.209943000227213
 11
44.33273699879646
 21
4.550057000480592
  0
ARC
  5
1D9
100
AcDbEntity
  8
Flurstücke_ Grenzpunkte
  6
CONTINUOUS
 62
    7
370
   35
100
AcDbCircle
 10
34.56249899789691
 20
2.04916699975729
 40
10.085237
100
AcDbArc
 50
14.35773229911
 51
24.866455189101
  0
LINE
  5
1DA
100
AcDbEntity
  8
Flurstücke_ Grenzpunkte
  6
CONTINUOUS
 62
    7
370
   35
100
AcDbLine
 10
85.5927369967103
 20
24.43005700036883
 11
92.91273699700832
 21
-0.5099430000409484
  0
LINE
  5
1DB
100
AcDbEntity
  8
Flurstücke_ Grenzpunkte
  6
CONTINUOUS
 62
    7
370
   35
100
AcDbLine
 10
100.3627369999886
 20
28.76005700044334
 11
85.5927369967103
 21
24.43005700036883
  0
LINE
  5
1DC
100
AcDbEntity
  8
Flurstücke_ Grenzpunkte
  6
CONTINUOUS
 62
    7
370
   35
100
AcDbLine
 10
77.41273699700832
 20
-5.049943000078201
 11
70.10273699834943
 21
19.88005699962378
  0
LINE
  5
1DD
100
AcDbEntity
  8
Flurstücke_ Grenzpunkte
  6
CONTINUOUS
 62
    7
370
   35
100
AcDbLine
 10
70.10273699834943
 20
19.88005699962378
 11
59.5627369992435
 21
16.79005699977279
  0
LINE
  5
1DE
100
AcDbEntity
  8
Flurstücke_ Grenzpunkte
  6
CONTINUOUS
 62
    7
370
   35
100
AcDbLine
 10
59.5627369992435
 20
16.79005699977279
 11
66.87273699790239
 21
-8.13994299992919
  0
LINE
  5
1DF
100
AcDbEntity
  8
Flurstücke_ Grenzpunkte
  6
CONTINUOUS
 62
    7
370
   35
100
AcDbLine
 10
85.5927369967103
 20
24.43005700036883
 11
70.10273699834943
 21
19.88005699962378
  0
LINE
  5
1E0
100
AcDbEntity
  8
Flurstücke_ Grenzpunkte
  6
CONTINUOUS
 62
    7
370
   35
100
AcDbLine
 10
38.94273699820042
 20
39.23005700018257
 11
68.87273699790239
 21
48.01005700044334
  0
LINE
  5
1E1
100
AcDbEntity
  8
Flurstücke_ Grenzpunkte
  6
CONTINUOUS
 62
    7
370
   35
100
AcDbLine
 10
68.87273699790239
 20
48.01005700044334
 11
66.17273699864745
 21
57.23005700018257
  0
LINE
  5
1E2
100
AcDbEntity
  8
Flurstücke_ Grenzpunkte
  6
CONTINUOUS
 62
    7
370
   35
100
AcDbLine
 10
66.17273699864745
 20
57.23005700018257
 11
62.41273699700832
 21
70.07005700003356
  0
LINE
  5
1E3
100
AcDbEntity
  8
Flurstücke_ Grenzpunkte
  6
CONTINUOUS
 62
    7
370
   35
100
AcDbLine
 10
-7.94726300239563
 20
84.46005699969828
 11
5.782736998051405
 21
89.04005699977279
  0
LINE
  5
1E4
100
AcDbEntity
  8
Flurstücke_ Grenzpunkte
  6
CONTINUOUS
 62
    7
370
   35
100
AcDbLine
 10
5.782736998051405
 20
89.04005699977279
 11
-2.077263001352549
 21
108.420056999661
  0
LINE
  5
1E5
100
AcDbEntity
  8
Flurstücke_ Grenzpunkte
  6
CONTINUOUS
 62
    7
370
   35
100
AcDbLine
 10
-2.607263002544641
 20
78.34005700051785
 11
7.872736997902393
 21
52.72005700040609
  0
LINE
  5
1E6
100
AcDbEntity
  8
Flurstücke_ Grenzpunkte
  6
CONTINUOUS
 62
    7
370
   35
100
AcDbLine
 10
23.21273699775338
 20
57.89005700033158
 11
14.22273699939251
 21
80.02005700021982
  0
ARC
  5
1E7
100
AcDbEntity
  8
Flurstücke_ Grenzpunkte
  6
CONTINUOUS
 62
    7
370
   35
100
AcDbCircle
 10
10.51698099821806
 20
78.5156429996714
 40
3.999486
100
AcDbArc
 50
22.095516715378
 51
108.427330082427
  0
LINE
  5
1E8
100
AcDbEntity
  8
Flurstücke_ Grenzpunkte
  6
CONTINUOUS
 62
    7
370
   35
100
AcDbLine
 10
9.252736996859312
 20
82.31005700025707
 11
-2.607263002544641
 21
78.34005700051785
  0
LINE
  5
1E9
100
AcDbEntity
  8
Flurstücke_ Grenzpunkte
  6
CONTINUOUS
 62
    7
370
   35
100
AcDbLine
 10
59.5627369992435
 20
16.79005699977279
 11
52.77273700013757
 21
14.80005700048059
  0
ARC
  5
1EA
100
AcDbEntity
  8
Flurstücke_ Grenzpunkte
  6
CONTINUOUS
 62
    7
370
   35
100
AcDbCircle
 10
53.89320999756455
 20
10.9652519999072
 40
3.995146
100
AcDbArc
 50
106.287578612942
 51
196.507657639278
  0
LINE
  5
1EB
100
AcDbEntity
  8
Flurstücke_ Grenzpunkte
  6
CONTINUOUS
 62
    7
370
   35
100
AcDbLine
 10
50.0627369992435
 20
9.83005699981004
 11
56.32273699715734
 21
-11.23994299955666
  0
LINE
  5
1EC
100
AcDbEntity
  8
Flurstücke_ Grenzpunkte
  6
CONTINUOUS
 62
    7
370
   35
100
AcDbLine
 10
38.94273699820042
 20
39.23005700018257
 11
39.70207799971104
 21
37.36950800009072
  0
ARC
  5
1ED
100
AcDbEntity
  8
Flurstücke_ Grenzpunkte
  6
CONTINUOUS
 62
    7
370
   35
100
AcDbCircle
 10
49.57313799858093
 20
23.75447100028396
 40
3.994525
100
AcDbArc
 50
202.124407845561
 51
286.2771153354819
  0
LINE
  5
1EE
100
AcDbEntity
  8
Flurstücke_ Grenzpunkte
  6
CONTINUOUS
 62
    7
370
   35
100
AcDbLine
 10
50.69273699820042
 20
19.92005699966103
 11
75.02273700013757
 21
27.05005700048059
  0
LINE
  5
1EF
100
AcDbEntity
  8
Flurstücke_ Grenzpunkte
  6
CONTINUOUS
 62
    7
370
   35
100
AcDbLine
 10
75.02273700013757
 20
27.05005700048059
 11
68.87273699790239
 21
48.01005700044334
  0
LINE
  5
1F0
100
AcDbEntity
  8
Flurstücke_ Grenzpunkte
  6
CONTINUOUS
 62
    7
370
   35
100
AcDbLine
 10
9.252736996859312
 20
82.31005700025707
 11
20.93273699656129
 21
86.21005699969828
  0
LINE
  5
1F1
100
AcDbEntity
  8
Flurstücke_ Grenzpunkte
  6
CONTINUOUS
 62
    7
370
   35
100
AcDbLine
 10
20.93273699656129
 20
86.21005699969828
 11
54.89273699745536
 21
97.57005700003356
  0
ARC
  5
1F2
100
AcDbEntity
  8
Flurstücke_ Grenzpunkte
  6
CONTINUOUS
 62
    7
370
   35
100
AcDbCircle
 10
44.36243699863553
 20
128.9893709998578
 40
33.136996
100
AcDbArc
 50
288.528768763474
 51
299.188307838445
  0
LINE
  5
1F3
100
AcDbEntity
  8
Flurstücke_ Grenzpunkte
  6
CONTINUOUS
 62
    7
370
   35
100
AcDbLine
 10
60.52273700013757
 20
100.0600570002571
 11
65.49273699894547
 21
102.8400570005178
  0
LINE
  5
1F4
100
AcDbEntity
  8
Flurstücke_ Grenzpunkte
  6
CONTINUOUS
 62
    7
370
   35
100
AcDbLine
 10
50.46273699775338
 20
103.9900569999591
 11
13.37273699790239
 21
91.58005699981004
  0
LINE
  5
1F5
100
AcDbEntity
  8
Flurstücke_ Grenzpunkte
  6
CONTINUOUS
 62
    7
370
   35
100
AcDbLine
 10
13.37273699790239
 20
91.58005699981004
 11
5.782736998051405
 21
89.04005699977279
  0
LINE
  5
1F6
100
AcDbEntity
  8
Flurstücke_ Grenzpunkte
  6
CONTINUOUS
 62
    7
370
   35
100
AcDbLine
 10
45.87273699790239
 20
22.25005699973553
 11
50.0627369992435
 21
9.83005699981004
  0
LINE
  5
1F7
100
AcDbEntity
  8
Flurstücke_ Grenzpunkte
  6
CONTINUOUS
 62
    7
370
   35
100
AcDbLine
 10
96.60273699834943
 20
33.39005700033158
 11
85.77273700013757
 21
30.21005699969828
  0
LINE
  5
1F8
100
AcDbEntity
  8
Flurstücke_ Grenzpunkte
  6
CONTINUOUS
 62
    7
370
   35
100
AcDbLine
 10
85.77273700013757
 20
30.21005699969828
 11
75.02273700013757
 21
27.05005700048059
  0
LINE
  5
1F9
100
AcDbEntity
  8
Flurstücke_ Grenzpunkte
  6
CONTINUOUS
 62
    7
370
   35
100
AcDbLine
 10
13.37273699790239
 20
91.58005699981004
 11
7.852736998349428
 21
108.1300569996238
  0
LINE
  5
1FA
100
AcDbEntity
  8
Flurstücke_ Grenzpunkte
  6
CONTINUOUS
 62
    7
370
   35
100
AcDbLine
 10
30.23273699730635
 20
60.63005699962378
 11
20.98273699730635
 21
83.32005700003356
  0
ARC
  5
1FB
100
AcDbEntity
  8
Flurstücke_ Grenzpunkte
  6
CONTINUOUS
 62
    7
370
   35
100
AcDbCircle
 10
24.67485599964857
 20
84.82936699967831
 40
3.988704
100
AcDbArc
 50
159.747986740497
 51
202.234368434009
  0
LINE
  5
1FC
100
AcDbEntity
  8
Flurstücke_ Grenzpunkte
  6
CONTINUOUS
 62
    7
370
   35
100
AcDbLine
 10
66.17273699864745
 20
57.23005700018257
 11
76.92273699864745
 21
60.39005700033158
  0
LINE
  5
1FD
100
AcDbEntity
  8
Flurstücke_ Grenzpunkte
  6
CONTINUOUS
 62
    7
370
   35
100
AcDbLine
 10
76.92273699864745
 20
60.39005700033158
 11
81.94273699820042
 21
61.86005700007081
  0
LINE
  5
1FE
100
AcDbEntity
  8
Flurstücke_ Grenzpunkte
  6
CONTINUOUS
 62
    7
370
   35
100
AcDbLine
 10
81.94273699820042
 20
61.86005700007081
 11
90.0327369980514
 21
55.7800569999963
  0
LINE
  5
1FF
100
AcDbEntity
  8
Flurstücke_ Grenzpunkte
  6
CONTINUOUS
 62
    7
370
   35
100
AcDbLine
 10
129.3527369983494
 20
57.5300569999963
 11
69.30273699760437
 21
102.58005699981
  0
LINE
  5
200
100
AcDbEntity
  8
Flurstücke_ Grenzpunkte
  6
CONTINUOUS
 62
    7
370
   35
100
AcDbLine
 10
85.77273700013757
 20
30.21005699969828
 11
76.92273699864745
 21
60.39005700033158
  0
LINE
  5
201
100
AcDbEntity
  8
Flurstücke_ Grenzpunkte
  6
CONTINUOUS
 62
    7
370
   35
100
AcDbLine
 10
62.41273699700832
 20
70.07005700003356
 11
56.93929699808359
 21
68.46442400012165
  0
LINE
  5
202
100
AcDbEntity
  8
Flurstücke_ Grenzpunkte
  6
CONTINUOUS
 62
    7
370
   35
100
AcDbLine
 10
40.45745999738574
 20
35.51865699980408
 11
45.87273699790239
 21
22.25005699973553
  0
LINE
  5
203
100
AcDbEntity
  8
Flurstücke_ Grenzpunkte
  6
CONTINUOUS
 62
    7
370
   35
100
AcDbLine
 10
39.70207799971104
 20
37.36950800009072
 11
40.45745999738574
 21
35.51865699980408
  0
LINE
  5
204
100
AcDbEntity
  8
Flurstücke_ Grenzpunkte
  6
CONTINUOUS
 62
    7
370
   35
100
AcDbLine
 10
56.93929699808359
 20
68.46442400012165
 11
30.23273699730635
 21
60.63005699962378
  0
LINE
  5
205
100
AcDbEntity
  8
Flurstücke_ Grenzpunkte
  6
CONTINUOUS
 62
    7
370
   35
100
AcDbLine
 10
30.23273699730635
 20
60.63005699962378
 11
30.99021999910474
 21
58.76896299980581
  0
LINE
  5
206
100
AcDbEntity
  8
Flurstücke_ Grenzpunkte
  6
CONTINUOUS
 62
    7
370
   35
100
AcDbLine
 10
30.99021999910474
 20
58.76896299980581
 11
33.44825199991465
 21
52.72971099987626
  0
LINE
  5
207
100
AcDbEntity
  8
Flurstücke_ Grenzpunkte
  6
CONTINUOUS
 62
    7
370
   35
100
AcDbLine
 10
33.44825199991465
 20
52.72971099987626
 11
38.94273699820042
 21
39.23005700018257
  0
INSERT
  5
208
100
AcDbEntity
  8
Liniensymbolik
  6
ByLayer
 62
    7
370
   18
100
AcDbBlockReference
  2
S82
 10
48.18301899731159
 20
63.81767900008708
 30
0
 41
3
 42
3
 43
0
 50
196.349045885333
 70
    1
 71
    1
 44
0
 45
0
  0
INSERT
  5
209
100
AcDbEntity
  8
Liniensymbolik
  6
ByLayer
 62
    7
370
   18
100
AcDbBlockReference
  2
S82
 10
42.42563099786639
 20
62.12875000014901
 30
0
 41
3
 42
3
 43
0
 50
196.349045885333
 70
    1
 71
    1
 44
0
 45
0
  0
INSERT
  5
20A
100
AcDbEntity
  8
Liniensymbolik
  6
ByLayer
 62
    7
370
   18
100
AcDbBlockReference
  2
S82
 10
36.66824200004339
 20
60.43982100021094
 30
0
 41
3
 42
3
 43
0
 50
196.349045885333
 70
    1
 71
    1
 44
0
 45
0
  0
LINE
  5
20B
100
AcDbEntity
  8
Liniensymbolik
  6
CONTINUOUS
 62
    7
370
   18
100
AcDbLine
 10
53.86244899779558
 20
65.48374000005424
 11
30.9888119995594
 21
58.77376000024378
  0
INSERT
  5
20C
100
AcDbEntity
  8
Liniensymbolik
  6
ByLayer
 62
    7
370
   18
100
AcDbBlockReference
  2
S15
 10
59.67601699754596
 20
69.26723999995738
 30
0
 41
1
 42
1
 43
0
 50
196.349045885333
 70
    1
 71
    1
 44
0
 45
0
  0
LINE
  5
20D
100
AcDbEntity
  8
Liniensymbolik
  6
CONTINUOUS
 62
    7
370
   18
100
AcDbLine
 10
62.41273699700832
 20
70.07005700003356
 11
56.93929699808359
 21
68.46442400012165
  0
LINE
  5
20E
100
AcDbEntity
  8
Außenanlage_ Stellplätze_ Balkone
  6
CONTINUOUS
 62
    7
370
   18
100
AcDbLine
 10
47.44089199975133
 20
63.59476600028574
 11
47.72224799916148
 21
62.63565099984407
  0
LINE
  5
20F
100
AcDbEntity
  8
Außenanlage_ Stellplätze_ Balkone
  6
CONTINUOUS
 62
    7
370
   18
100
AcDbLine
 10
47.72224799916148
 20
62.63565099984407
 11
48.98835199698806
 21
58.3196330005303
  0
LINE
  5
210
100
AcDbEntity
  8
Farbige Flächendarstellung
  6
CONTINUOUS
 62
  200
420
10813695
370
  120
100
AcDbLine
 10
38.71002299711108
 20
38.73991900030524
 11
69.37015299871564
 21
47.7341029997915
  0
LINE
  5
211
100
AcDbEntity
  8
Farbige Flächendarstellung
  6
CONTINUOUS
 62
  200
420
10813695
370
  120
100
AcDbLine
 10
69.37354400008917
 20
47.74030600022525
 11
66.56123399734497
 21
57.34382500033826
  0
LINE
  5
212
100
AcDbEntity
  8
Farbige Flächendarstellung
  6
CONTINUOUS
 62
  200
420
10813695
370
  120
100
AcDbLine
 10
66.56123399734497
 20
57.34382500033826
 11
62.68882099911571
 21
70.56770400051028
  0
LINE
  5
213
100
AcDbEntity
  8
Farbige Flächendarstellung
  6
CONTINUOUS
 62
  200
420
10813695
370
  120
100
AcDbLine
 10
62.6826149970293
 20
70.57109700050205
 11
29.69421399757266
 21
60.89395300019532
  0
LINE
  5
214
100
AcDbEntity
  8
Farbige Flächendarstellung
  6
CONTINUOUS
 62
  200
420
10813695
370
  120
100
AcDbLine
 10
29.69099099934101
 20
60.88726999983191
 11
38.70398399978876
 21
38.74283200036734
  0
INSERT
  5
215
100
AcDbEntity
  8
Liniensymbolik
  6
ByLayer
 62
    7
370
   18
100
AcDbBlockReference
  2
S15
 10
88.78566099703312
 20
56.71729100029916
 30
0
 41
1
 42
1
 43
0
 50
143.073486053202
 70
    1
 71
    1
 44
0
 45
0
  0
INSERT
  5
216
100
AcDbEntity
  8
Liniensymbolik
  6
ByLayer
 62
    7
370
   18
100
AcDbBlockReference
  2
S15
 10
85.98773699998856
 20
58.82005700003356
 30
0
 41
1
 42
1
 43
0
 50
143.073486053202
 70
    1
 71
    1
 44
0
 45
0
  0
INSERT
  5
217
100
AcDbEntity
  8
Liniensymbolik
  6
ByLayer
 62
    7
370
   18
100
AcDbBlockReference
  2
S15
 10
83.1898129992187
 20
60.92282299976796
 30
0
 41
1
 42
1
 43
0
 50
143.073486053202
 70
    1
 71
    1
 44
0
 45
0
  0
LINE
  5
218
100
AcDbEntity
  8
Liniensymbolik
  6
CONTINUOUS
 62
    7
370
   18
100
AcDbLine
 10
90.0327369980514
 20
55.7800569999963
 11
81.94273699820042
 21
61.86005700007081
  0
INSERT
  5
219
100
AcDbEntity
  8
Liniensymbolik
  6
ByLayer
 62
    7
370
   18
100
AcDbBlockReference
  2
S15
 10
80.77424399927258
 20
61.51699300017208
 30
0
 41
1
 42
1
 43
0
 50
196.361998093506
 70
    1
 71
    1
 44
0
 45
0
  0
INSERT
  5
21A
100
AcDbEntity
  8
Liniensymbolik
  6
ByLayer
 62
    7
370
   18
100
AcDbBlockReference
  2
S15
 10
77.41599099710584
 20
60.53102499991655
 30
0
 41
1
 42
1
 43
0
 50
196.361998093506
 70
    1
 71
    1
 44
0
 45
0
  0
INSERT
  5
21B
100
AcDbEntity
  8
Liniensymbolik
  6
ByLayer
 62
    7
370
   18
100
AcDbBlockReference
  2
S15
 10
74.05773699656129
 20
59.54505699966103
 30
0
 41
1
 42
1
 43
0
 50
196.361998093506
 70
    1
 71
    1
 44
0
 45
0
  0
INSERT
  5
21C
100
AcDbEntity
  8
Liniensymbolik
  6
ByLayer
 62
    7
370
   18
100
AcDbBlockReference
  2
S15
 10
70.69948299974203
 20
58.55908900033683
 30
0
 41
1
 42
1
 43
0
 50
196.361998093506
 70
    1
 71
    1
 44
0
 45
0
  0
INSERT
  5
21D
100
AcDbEntity
  8
Liniensymbolik
  6
ByLayer
 62
    7
370
   18
100
AcDbBlockReference
  2
S15
 10
67.34122999757528
 20
57.5731210000813
 30
0
 41
1
 42
1
 43
0
 50
196.361998093506
 70
    1
 71
    1
 44
0
 45
0
  0
LINE
  5
21E
100
AcDbEntity
  8
Liniensymbolik
  6
CONTINUOUS
 62
    7
370
   18
100
AcDbLine
 10
81.94273699820042
 20
61.86005700007081
 11
66.17273699864745
 21
57.23005700018257
  0
INSERT
  5
21F
100
AcDbEntity
  8
Liniensymbolik
  6
ByLayer
 62
    7
370
   18
100
AcDbBlockReference
  2
S15
 10
65.27635299786925
 20
60.29111399967223
 30
0
 41
1
 42
1
 43
0
 50
106.321872039338
 70
    1
 71
    1
 44
0
 45
0
  0
INSERT
  5
220
100
AcDbEntity
  8
Liniensymbolik
  6
ByLayer
 62
    7
370
   18
100
AcDbBlockReference
  2
S15
 10
64.29273699969053
 20
63.65005700010806
 30
0
 41
1
 42
1
 43
0
 50
106.321872039338
 70
    1
 71
    1
 44
0
 45
0
  0
INSERT
  5
221
100
AcDbEntity
  8
Liniensymbolik
  6
ByLayer
 62
    7
370
   18
100
AcDbBlockReference
  2
S15
 10
63.30912099778652
 20
67.00899999961257
 30
0
 41
1
 42
1
 43
0
 50
106.321872039338
 70
    1
 71
    1
 44
0
 45
0
  0
LINE
  5
222
100
AcDbEntity
  8
Liniensymbolik
  6
CONTINUOUS
 62
    7
370
   18
100
AcDbLine
 10
66.17273699864745
 20
57.23005700018257
 11
62.41273699700832
 21
70.07005700003356
  0
LINE
  5
223
100
AcDbEntity
  8
Außenanlage_ Stellplätze_ Balkone
  6
CONTINUOUS
 62
    7
370
   18
100
AcDbLine
 10
56.93929699808359
 20
68.46442400012165
 11
57.78336599841714
 21
65.58707899972796
  0
LINE
  5
224
100
AcDbEntity
  8
Außenanlage_ Stellplätze_ Balkone
  6
CONTINUOUS
 62
    7
370
   18
100
AcDbLine
 10
56.34469299763441
 20
65.16504400037229
 11
56.06333699822426
 21
66.12415899988264
  0
LINE
  5
225
100
AcDbEntity
  8
Liniensymbolik
  6
CONTINUOUS
 62
    7
370
   25
100
AcDbLine
 10
60.09719399735332
 20
67.3074909998104
 11
63.75482399761677
 21
54.83899400010705
  0
LINE
  5
226
100
AcDbEntity
  8
Liniensymbolik
  6
CONTINUOUS
 62
    7
370
   25
100
AcDbLine
 10
63.75482399761677
 20
54.83899400010705
 11
43.13384899869561
 21
48.78983299992979
  0
LINE
  5
227
100
AcDbEntity
  8
Liniensymbolik
  6
CONTINUOUS
 62
    7
370
   25
100
AcDbLine
 10
43.13384899869561
 20
48.78983299992979
 11
39.47621699795127
 21
61.25832900032401
  0
LINE
  5
228
100
AcDbEntity
  8
Farbige Flächendarstellung
  6
CONTINUOUS
 62
  150
420
3965695
370
   70
100
AcDbLine
 10
39.78774299845099
 20
61.08409200049937
 11
59.92916199937463
 21
66.99257500004023
  0
LINE
  5
229
100
AcDbEntity
  8
Farbige Flächendarstellung
  6
CONTINUOUS
 62
  150
420
3965695
370
   70
100
AcDbLine
 10
59.92295699939132
 20
66.99596600048244
 11
63.4399079978466
 21
55.00702599994838
  0
LINE
  5
22A
100
AcDbEntity
  8
Farbige Flächendarstellung
  6
CONTINUOUS
 62
  150
420
3965695
370
   70
100
AcDbLine
 10
63.44329899922013
 20
55.01323099993169
 11
43.30188199877739
 21
49.10474899969995
  0
LINE
  5
22B
100
AcDbEntity
  8
Farbige Flächendarstellung
  6
CONTINUOUS
 62
  150
420
3965695
370
   70
100
AcDbLine
 10
43.3080869987607
 20
49.10135800018907
 11
39.79113299772143
 21
61.09029700048268
  0
LINE
  5
22C
100
AcDbEntity
  8
Dachverlauf_ Vordächer_ Dachvorsprünge
  6
CONTINUOUS
 62
    7
370
   18
100
AcDbLine
 10
33.81666199862957
 20
59.59809899982065
 11
34.72966299951077
 21
56.48577100038528
  0
LINE
  5
22D
100
AcDbEntity
  8
Außenanlage_ Stellplätze_ Balkone
  6
CONTINUOUS
 62
    7
370
   18
100
AcDbLine
 10
53.86385599896312
 20
65.47894200030714
 11
48.63978599756956
 21
63.94646100047976
  0
LINE
  5
22E
100
AcDbEntity
  8
Liniensymbolik
  6
CONTINUOUS
 62
    7
370
   18
100
AcDbLine
 10
53.86385599896312
 20
65.47894200030714
 11
53.30114400014281
 21
67.39717200025916
  0
LINE
  5
22F
100
AcDbEntity
  8
Dachverlauf_ Vordächer_ Dachvorsprünge
  6
CONTINUOUS
 62
    7
370
   18
100
AcDbLine
 10
34.72966299951077
 20
56.48577100038528
 11
43.40965499728918
 21
59.03204500023276
  0
INSERT
  5
230
100
AcDbEntity
  8
Liniensymbolik
  6
ByLayer
 62
    7
370
   18
100
AcDbBlockReference
  2
S82
 10
38.22735299915075
 20
62.97006599977612
 30
0
 41
3
 42
3
 43
0
 50
16.349045885333
 70
    1
 71
    1
 44
0
 45
0
  0
INSERT
  5
231
100
AcDbEntity
  8
Liniensymbolik
  6
ByLayer
 62
    7
370
   18
100
AcDbBlockReference
  2
S82
 10
43.98474199697375
 20
64.65899599995464
 30
0
 41
3
 42
3
 43
0
 50
16.349045885333
 70
    1
 71
    1
 44
0
 45
0
  0
INSERT
  5
232
100
AcDbEntity
  8
Liniensymbolik
  6
ByLayer
 62
    7
370
   18
100
AcDbBlockReference
  2
S82
 10
49.74213000014424
 20
66.34792499989271
 30
0
 41
3
 42
3
 43
0
 50
16.349045885333
 70
    1
 71
    1
 44
0
 45
0
  0
LINE
  5
233
100
AcDbEntity
  8
Liniensymbolik
  6
CONTINUOUS
 62
    7
370
   18
100
AcDbLine
 10
34.66693199798465
 20
61.9256170000881
 11
53.30255099758506
 21
67.39237400051206
  0
LINE
  5
234
100
AcDbEntity
  8
Liniensymbolik
  6
CONTINUOUS
 62
    1
370
   25
100
AcDbLine
 10
31.95426599681377
 20
59.05176599975675
 11
34.22671499848366
 21
53.46848199982196
  0
LINE
  5
235
100
AcDbEntity
  8
Liniensymbolik
  6
CONTINUOUS
 62
    1
370
   25
100
AcDbLine
 10
34.22671499848366
 20
53.46848199982196
 11
41.16435499861836
 21
55.50363900046796
  0
LINE
  5
236
100
AcDbEntity
  8
Liniensymbolik
  6
CONTINUOUS
 62
    1
370
   25
100
AcDbLine
 10
42.99238699674606
 20
49.27206300012767
 11
36.68748099729419
 21
47.4225110001862
  0
LINE
  5
237
100
AcDbEntity
  8
Liniensymbolik
  6
CONTINUOUS
 62
    1
370
   25
100
AcDbLine
 10
36.68748099729419
 20
47.4225110001862
 11
38.95992999896407
 21
41.83922899980098
  0
LINE
  5
238
100
AcDbEntity
  8
Liniensymbolik
  6
CONTINUOUS
 62
    1
370
   25
100
AcDbLine
 10
38.95992999896407
 20
41.83922899980098
 11
47.11240499839187
 21
44.23076700046659
  0
LINE
  5
239
100
AcDbEntity
  8
Liniensymbolik
  6
CONTINUOUS
 62
    1
370
   25
100
AcDbLine
 10
45.56572999805212
 20
49.50322499964386
 11
47.11240499839187
 21
44.23076700046659
  0
INSERT
  5
23A
100
AcDbEntity
  8
Liniensymbolik
  6
ByLayer
 62
    7
370
   18
100
AcDbBlockReference
  2
S15
 10
55.69578399881721
 20
68.09963999968022
 30
0
 41
1
 42
1
 43
0
 50
196.349045885333
 70
    1
 71
    1
 44
0
 45
0
  0
INSERT
  5
23B
100
AcDbEntity
  8
Liniensymbolik
  6
ByLayer
 62
    7
370
   18
100
AcDbBlockReference
  2
S15
 10
52.3373079970479
 20
67.11443100031465
 30
0
 41
1
 42
1
 43
0
 50
196.349045885333
 70
    1
 71
    1
 44
0
 45
0
  0
INSERT
  5
23C
100
AcDbEntity
  8
Liniensymbolik
  6
ByLayer
 62
    7
370
   18
100
AcDbBlockReference
  2
S15
 10
48.97883199900389
 20
66.12922200001776
 30
0
 41
1
 42
1
 43
0
 50
196.349045885333
 70
    1
 71
    1
 44
0
 45
0
  0
INSERT
  5
23D
100
AcDbEntity
  8
Liniensymbolik
  6
ByLayer
 62
    7
370
   18
100
AcDbBlockReference
  2
S15
 10
45.62035499885678
 20
65.14401299972087
 30
0
 41
1
 42
1
 43
0
 50
196.349045885333
 70
    1
 71
    1
 44
0
 45
0
  0
INSERT
  5
23E
100
AcDbEntity
  8
Liniensymbolik
  6
ByLayer
 62
    7
370
   18
100
AcDbBlockReference
  2
S15
 10
42.26187899708748
 20
64.15880499966443
 30
0
 41
1
 42
1
 43
0
 50
196.349045885333
 70
    1
 71
    1
 44
0
 45
0
  0
INSERT
  5
23F
100
AcDbEntity
  8
Liniensymbolik
  6
ByLayer
 62
    7
370
   18
100
AcDbBlockReference
  2
S15
 10
38.90340199694037
 20
63.17359600029886
 30
0
 41
1
 42
1
 43
0
 50
196.349045885333
 70
    1
 71
    1
 44
0
 45
0
  0
INSERT
  5
240
100
AcDbEntity
  8
Liniensymbolik
  6
ByLayer
 62
    7
370
   18
100
AcDbBlockReference
  2
S15
 10
35.54492599889636
 20
62.18838700000197
 30
0
 41
1
 42
1
 43
0
 50
196.349045885333
 70
    1
 71
    1
 44
0
 45
0
  0
INSERT
  5
241
100
AcDbEntity
  8
Liniensymbolik
  6
ByLayer
 62
    7
370
   18
100
AcDbBlockReference
  2
S15
 10
32.18644999712706
 20
61.20317799970508
 30
0
 41
1
 42
1
 43
0
 50
196.349045885333
 70
    1
 71
    1
 44
0
 45
0
  0
LINE
  5
242
100
AcDbEntity
  8
Liniensymbolik
  6
CONTINUOUS
 62
    7
370
   18
100
AcDbLine
 10
56.93929699808359
 20
68.46442400012165
 11
30.23273699730635
 21
60.63005699962378
  0
LINE
  5
243
100
AcDbEntity
  8
Liniensymbolik
  6
CONTINUOUS
 62
    7
370
   25
100
AcDbLine
 10
39.47621699795127
 20
61.25832900032401
 11
60.09719399735332
 21
67.3074909998104
  0
LINE
  5
244
100
AcDbEntity
  8
Außenanlage_ Stellplätze_ Balkone
  6
CONTINUOUS
 62
    7
370
   18
100
AcDbLine
 10
47.96202699840069
 20
62.70598999969661
 11
47.72224799916148
 21
62.63565099984407
  0
LINE
  5
245
100
AcDbEntity
  8
Außenanlage_ Stellplätze_ Balkone
  6
CONTINUOUS
 62
    7
370
   18
100
AcDbLine
 10
48.98835199698806
 20
58.3196330005303
 11
50.18724599853158
 21
58.67132799979299
  0
LINE
  5
246
100
AcDbEntity
  8
Außenanlage_ Stellplätze_ Balkone
  6
CONTINUOUS
 62
    7
370
   18
100
AcDbLine
 10
48.66541799902916
 20
60.30820200033486
 11
49.62453299760818
 21
60.58955799974501
  0
LINE
  5
247
100
AcDbEntity
  8
Außenanlage_ Stellplätze_ Balkone
  6
CONTINUOUS
 62
    7
370
   18
100
AcDbLine
 10
48.03236600011587
 20
62.46621100045741
 11
48.9914809986949
 21
62.74756699986756
  0
LINE
  5
248
100
AcDbEntity
  8
Außenanlage_ Stellplätze_ Balkone
  6
CONTINUOUS
 62
    7
370
   18
100
AcDbLine
 10
49.15779199823737
 20
58.62975099962205
 11
50.1169069968164
 21
58.91110699996352
  0
LINE
  5
249
100
AcDbEntity
  8
Außenanlage_ Stellplätze_ Balkone
  6
CONTINUOUS
 62
    7
370
   18
100
AcDbLine
 10
47.96202699840069
 20
62.70598999969661
 11
48.03236600011587
 21
62.46621100045741
  0
LINE
  5
24A
100
AcDbEntity
  8
Außenanlage_ Stellplätze_ Balkone
  6
CONTINUOUS
 62
    7
370
   18
100
AcDbLine
 10
48.66541799902916
 20
60.30820200033486
 11
49.15779199823737
 21
58.62975099962205
  0
LINE
  5
24B
100
AcDbEntity
  8
Außenanlage_ Stellplätze_ Balkone
  6
CONTINUOUS
 62
    7
370
   18
100
AcDbLine
 10
47.96202699840069
 20
62.70598999969661
 11
48.4415849968791
 21
62.84666800033301
  0
LINE
  5
24C
100
AcDbEntity
  8
Außenanlage_ Stellplätze_ Balkone
  6
CONTINUOUS
 62
    7
370
   18
100
AcDbLine
 10
48.4415849968791
 20
62.84666800033301
 11
48.92114199697971
 21
62.98734600003809
  0
LINE
  5
24D
100
AcDbEntity
  8
Außenanlage_ Stellplätze_ Balkone
  6
CONTINUOUS
 62
    7
370
   18
100
AcDbLine
 10
48.03236600011587
 20
62.46621100045741
 11
48.10270499810576
 21
62.22643200028688
  0
LINE
  5
24E
100
AcDbEntity
  8
Außenanlage_ Stellplätze_ Balkone
  6
CONTINUOUS
 62
    7
370
   18
100
AcDbLine
 10
48.10270499810576
 20
62.22643200028688
 11
48.17304499819875
 21
61.98665300011635
  0
LINE
  5
24F
100
AcDbEntity
  8
Außenanlage_ Stellplätze_ Balkone
  6
CONTINUOUS
 62
    7
370
   18
100
AcDbLine
 10
48.17304499819875
 20
61.98665300011635
 11
48.24338399991393
 21
61.74687500018626
  0
LINE
  5
250
100
AcDbEntity
  8
Außenanlage_ Stellplätze_ Balkone
  6
CONTINUOUS
 62
    7
370
   18
100
AcDbLine
 10
48.24338399991393
 20
61.74687500018626
 11
48.31372299790382
 21
61.50709600001574
  0
LINE
  5
251
100
AcDbEntity
  8
Außenanlage_ Stellplätze_ Balkone
  6
CONTINUOUS
 62
    7
370
   18
100
AcDbLine
 10
48.31372299790382
 20
61.50709600001574
 11
48.38406199961901
 21
61.26731699984521
  0
LINE
  5
252
100
AcDbEntity
  8
Außenanlage_ Stellplätze_ Balkone
  6
CONTINUOUS
 62
    7
370
   18
100
AcDbLine
 10
48.38406199961901
 20
61.26731699984521
 11
48.4544009976089
 21
61.02753799967468
  0
LINE
  5
253
100
AcDbEntity
  8
Außenanlage_ Stellplätze_ Balkone
  6
CONTINUOUS
 62
    7
370
   18
100
AcDbLine
 10
48.4544009976089
 20
61.02753799967468
 11
48.52473999932408
 21
60.78775999974459
  0
LINE
  5
254
100
AcDbEntity
  8
Außenanlage_ Stellplätze_ Balkone
  6
CONTINUOUS
 62
    7
370
   18
100
AcDbLine
 10
48.52473999932408
 20
60.78775999974459
 11
48.59507899731398
 21
60.54798100050539
  0
LINE
  5
255
100
AcDbEntity
  8
Außenanlage_ Stellplätze_ Balkone
  6
CONTINUOUS
 62
    7
370
   18
100
AcDbLine
 10
48.59507899731398
 20
60.54798100050539
 11
48.66541799902916
 21
60.30820200033486
  0
LINE
  5
256
100
AcDbEntity
  8
Außenanlage_ Stellplätze_ Balkone
  6
CONTINUOUS
 62
    7
370
   18
100
AcDbLine
 10
48.10270499810576
 20
62.22643200028688
 11
49.06182099878788
 21
62.50778899993747
  0
LINE
  5
257
100
AcDbEntity
  8
Außenanlage_ Stellplätze_ Balkone
  6
CONTINUOUS
 62
    7
370
   18
100
AcDbLine
 10
48.17304499819875
 20
61.98665300011635
 11
49.13215999677777
 21
62.26800999976695
  0
LINE
  5
258
100
AcDbEntity
  8
Außenanlage_ Stellplätze_ Balkone
  6
CONTINUOUS
 62
    7
370
   18
100
AcDbLine
 10
48.24338399991393
 20
61.74687500018626
 11
49.20249899849296
 21
62.02823100052774
  0
LINE
  5
259
100
AcDbEntity
  8
Außenanlage_ Stellplätze_ Balkone
  6
CONTINUOUS
 62
    7
370
   18
100
AcDbLine
 10
48.31372299790382
 20
61.50709600001574
 11
49.27283800020814
 21
61.78845200035721
  0
LINE
  5
25A
100
AcDbEntity
  8
Außenanlage_ Stellplätze_ Balkone
  6
CONTINUOUS
 62
    7
370
   18
100
AcDbLine
 10
48.38406199961901
 20
61.26731699984521
 11
49.34317699819803
 21
61.54867300018668
  0
LINE
  5
25B
100
AcDbEntity
  8
Außenanlage_ Stellplätze_ Balkone
  6
CONTINUOUS
 62
    7
370
   18
100
AcDbLine
 10
48.4544009976089
 20
61.02753799967468
 11
49.41351599991322
 21
61.3088950002566
  0
LINE
  5
25C
100
AcDbEntity
  8
Außenanlage_ Stellplätze_ Balkone
  6
CONTINUOUS
 62
    7
370
   18
100
AcDbLine
 10
48.52473999932408
 20
60.78775999974459
 11
49.48385499790311
 21
61.06911600008607
  0
LINE
  5
25D
100
AcDbEntity
  8
Außenanlage_ Stellplätze_ Balkone
  6
CONTINUOUS
 62
    7
370
   18
100
AcDbLine
 10
48.59507899731398
 20
60.54798100050539
 11
49.55419399961829
 21
60.82933699991554
  0
LINE
  5
25E
100
AcDbEntity
  8
Außenanlage_ Stellplätze_ Balkone
  6
CONTINUOUS
 62
    7
370
   18
100
AcDbLine
 10
48.66541799902916
 20
60.30820200033486
 11
48.4415849968791
 21
62.84666800033301
  0
LINE
  5
25F
100
AcDbEntity
  8
Außenanlage_ Stellplätze_ Balkone
  6
CONTINUOUS
 62
    7
370
   18
100
AcDbLine
 10
48.4415849968791
 20
62.84666800033301
 11
49.62453299760818
 21
60.58955799974501
  0
LINE
  5
260
100
AcDbEntity
  8
Hauptbaukörper
  6
CONTINUOUS
 62
    7
370
   25
100
AcDbLine
 10
43.65127599984407
 20
55.72276800032705
 11
35.97835499793291
 21
53.47191699966788
  0
LINE
  5
261
100
AcDbEntity
  8
Maßketten
  6
CONTINUOUS
 62
    7
370
   18
100
AcDbLine
 10
32.18219899758697
 20
66.4126279996708
 11
28.78612300008535
 21
65.41638899967074
  0
LINE
  5
262
100
AcDbEntity
  8
Liniensymbolik
  6
CONTINUOUS
 62
    7
370
   18
100
AcDbLine
 10
41.82527299970388
 20
61.94742500036955
 11
42.49665400013328
 21
62.14437399990857
  0
LINE
  5
263
100
AcDbEntity
  8
Außenanlage_ Stellplätze_ Balkone
  6
CONTINUOUS
 62
    7
370
   18
100
AcDbLine
 10
48.63978599756956
 20
63.94646100047976
 11
48.92114199697971
 21
62.98734600003809
  0
LINE
  5
264
100
AcDbEntity
  8
Außenanlage_ Stellplätze_ Balkone
  6
CONTINUOUS
 62
    7
370
   18
100
AcDbLine
 10
56.06333699822426
 20
66.12415899988264
 11
53.86385599896312
 21
65.47894200030714
  0
LINE
  5
265
100
AcDbEntity
  8
Maßketten
  6
CONTINUOUS
 62
    7
370
   18
100
AcDbLine
 10
39.85511999949813
 20
68.66347800008953
 11
32.18219899758697
 21
66.4126279996708
  0
LINE
  5
266
100
AcDbEntity
  8
Außenanlage_ Stellplätze_ Balkone
  6
CONTINUOUS
 62
    7
370
   18
100
AcDbLine
 10
47.44089199975133
 20
63.59476600028574
 11
42.49665400013328
 21
62.14437399990857
  0
LINE
  5
267
100
AcDbEntity
  8
Maßketten
  6
CONTINUOUS
 62
    7
370
   18
100
AcDbLine
 10
23.5040139965713
 20
49.81257000006735
 11
21.6780119985342
 21
56.03722700010985
  0
LINE
  5
268
100
AcDbEntity
  8
Dachverlauf_ Vordächer_ Dachvorsprünge
  6
CONTINUOUS
 62
    7
370
   18
100
AcDbLine
 10
44.42113099992275
 20
55.5840269997716
 11
35.74113899841905
 21
53.03775199968368
  0
LINE
  5
269
100
AcDbEntity
  8
Liniensymbolik
  6
CONTINUOUS
 62
    7
370
   25
100
AcDbLine
 10
39.47621699795127
 20
61.25832900032401
 11
41.82527299970388
 21
61.94742500036955
  0
LINE
  5
26A
100
AcDbEntity
  8
Hauptbaukörper
  6
CONTINUOUS
 62
    7
370
   25
100
AcDbLine
 10
41.82527299970388
 20
61.94742500036955
 11
43.65127599984407
 21
55.72276800032705
  0
LINE
  5
26B
100
AcDbEntity
  8
Maßketten
  6
CONTINUOUS
 62
    7
370
   18
100
AcDbLine
 10
21.6780119985342
 20
56.03722700010985
 11
21.11529899761081
 21
57.95545700006187
  0
LINE
  5
26C
100
AcDbEntity
  8
Dachverlauf_ Vordächer_ Dachvorsprünge
  6
CONTINUOUS
 62
    7
370
   18
100
AcDbLine
 10
43.40965499728918
 20
59.03204500023276
 11
44.42113099992275
 21
55.5840269997716
  0
LINE
  5
26D
100
AcDbEntity
  8
Dachverlauf_ Vordächer_ Dachvorsprünge
  6
CONTINUOUS
 62
    7
370
   18
100
AcDbLine
 10
42.3981789983809
 20
62.48006400000304
 11
42.49665400013328
 21
62.14437399990857
  0
LINE
  5
26E
100
AcDbEntity
  8
Liniensymbolik
  6
CONTINUOUS
 62
    7
370
   18
100
AcDbLine
 10
30.99021999910474
 20
58.76896299980581
 11
33.81666199862957
 21
59.59809899982065
  0
LINE
  5
26F
100
AcDbEntity
  8
Hauptbaukörper
  6
CONTINUOUS
 62
    7
370
   25
100
AcDbLine
 10
35.97835499793291
 20
53.47191699966788
 11
34.15235199779272
 21
59.69657399971038
  0
LINE
  5
270
100
AcDbEntity
  8
Dachverlauf_ Vordächer_ Dachvorsprünge
  6
CONTINUOUS
 62
    7
370
   18
100
AcDbLine
 10
42.3981789983809
 20
62.48006400000304
 11
33.71818699687719
 21
59.93379000015557
  0
LINE
  5
271
100
AcDbEntity
  8
Liniensymbolik
  6
CONTINUOUS
 62
    7
370
   18
100
AcDbLine
 10
33.81525499746203
 20
59.60289700049907
 11
30.9888119995594
 21
58.77376000024378
  0
LINE
  5
272
100
AcDbEntity
  8
Außenanlage_ Stellplätze_ Balkone
  6
CONTINUOUS
 62
    7
370
   18
100
AcDbLine
 10
35.64266499876976
 20
53.37344199977815
 11
35.97835499793291
 21
53.47191699966788
  0
LINE
  5
273
100
AcDbEntity
  8
Dachverlauf_ Vordächer_ Dachvorsprünge
  6
CONTINUOUS
 62
    7
370
   18
100
AcDbLine
 10
42.49665400013328
 20
62.14437399990857
 11
43.40965499728918
 21
59.03204500023276
  0
LINE
  5
274
100
AcDbEntity
  8
Dachverlauf_ Vordächer_ Dachvorsprünge
  6
CONTINUOUS
 62
    7
370
   18
100
AcDbLine
 10
35.64266499876976
 20
53.37344199977815
 11
35.74113899841905
 21
53.03775199968368
  0
LINE
  5
275
100
AcDbEntity
  8
Liniensymbolik
  6
CONTINUOUS
 62
    7
370
   18
100
AcDbLine
 10
34.15094499662519
 20
59.7013720003888
 11
33.81525499746203
 21
59.60289700049907
  0
LINE
  5
276
100
AcDbEntity
  8
Hauptbaukörper
  6
CONTINUOUS
 62
    7
370
   25
100
AcDbLine
 10
34.15235199779272
 20
59.69657399971038
 11
41.82527299970388
 21
61.94742500036955
  0
LINE
  5
277
100
AcDbEntity
  8
Dachverlauf_ Vordächer_ Dachvorsprünge
  6
CONTINUOUS
 62
    7
370
   18
100
AcDbLine
 10
33.71818699687719
 20
59.93379000015557
 11
33.81666199862957
 21
59.59809899982065
  0
LINE
  5
278
100
AcDbEntity
  8
Liniensymbolik
  6
CONTINUOUS
 62
    7
370
   18
100
AcDbLine
 10
33.81666199862957
 20
59.59809899982065
 11
34.15235199779272
 21
59.69657399971038
  0
LINE
  5
279
100
AcDbEntity
  8
Außenanlage_ Stellplätze_ Balkone
  6
CONTINUOUS
 62
    7
370
   18
100
AcDbLine
 10
33.44825199991465
 20
52.72971099987626
 11
35.64266499876976
 21
53.37344199977815
  0
LINE
  5
27A
100
AcDbEntity
  8
Dachverlauf_ Vordächer_ Dachvorsprünge
  6
CONTINUOUS
 62
    7
370
   18
100
AcDbLine
 10
34.72966299951077
 20
56.48577100038528
 11
35.64266499876976
 21
53.37344199977815
  0
LINE
  5
27B
100
AcDbEntity
  8
Liniensymbolik
  6
CONTINUOUS
 62
    7
370
   18
100
AcDbLine
 10
39.47621699795127
 20
61.25832900032401
 11
41.82527299970388
 21
61.94742500036955
  0
ENDSEC
  0
SECTION
  2
OBJECTS
  0
DICTIONARY
  5
C
330
0
100
AcDbDictionary
281
    1
  3
ACAD_GROUP
350
D
  0
DICTIONARY
  5
D
330
C
100
AcDbDictionary
281
    1
  0
PLOTSETTINGS
  5
27C
  6
1x1
 40
0
 41
0
 42
0
 43
0
  0
ENDSEC
  0
EOF
