0
SECTION
2
HEADER
0
ENDSEC
0
SECTION
2
ENTITIES
0
LINE
8
Gas
62
0
10
576.336597
20
 12.207000
30
  0.000000
11
573.587051
21
 12.180312
31
  0.000000
0
LINE
8
Gas
62
0
10
573.587051
20
 12.180312
30
  0.000000
11
570.837522
21
 12.154194
31
  0.000000
0
LINE
8
Gas
62
0
10
570.837522
20
 12.154194
30
  0.000000
11
568.088026
21
 12.129216
31
  0.000000
0
LINE
8
Gas
62
0
10
568.088026
20
 12.129216
30
  0.000000
11
565.338581
21
 12.105950
31
  0.000000
0
LINE
8
Gas
62
0
10
565.338581
20
 12.105950
30
  0.000000
11
562.589203
21
 12.084965
31
  0.000000
0
LINE
8
Gas
62
0
10
562.589203
20
 12.084965
30
  0.000000
11
559.839908
21
 12.066832
31
  0.000000
0
LINE
8
Gas
62
0
10
559.839908
20
 12.066832
30
  0.000000
11
557.090715
21
 12.052121
31
  0.000000
0
LINE
8
Gas
62
0
10
557.090715
20
 12.052121
30
  0.000000
11
554.341639
21
 12.041402
31
  0.000000
0
LINE
8
Gas
62
0
10
554.341639
20
 12.041402
30
  0.000000
11
551.592697
21
 12.035247
31
  0.000000
0
LINE
8
Gas
62
0
10
551.592697
20
 12.035247
30
  0.000000
11
548.843906
21
 12.034224
31
  0.000000
0
LINE
8
Gas
62
0
10
548.843906
20
 12.034224
30
  0.000000
11
546.095283
21
 12.038905
31
  0.000000
0
LINE
8
Gas
62
0
10
546.095283
20
 12.038905
30
  0.000000
11
543.346845
21
 12.049860
31
  0.000000
0
LINE
8
Gas
62
0
10
543.346845
20
 12.049860
30
  0.000000
11
540.598608
21
 12.067660
31
  0.000000
0
LINE
8
Gas
62
0
10
540.598608
20
 12.067660
30
  0.000000
11
537.850589
21
 12.092874
31
  0.000000
0
LINE
8
Gas
62
0
10
537.850589
20
 12.092874
30
  0.000000
11
535.102805
21
 12.126073
31
  0.000000
0
LINE
8
Gas
62
0
10
535.102805
20
 12.126073
30
  0.000000
11
532.355273
21
 12.167827
31
  0.000000
0
LINE
8
Gas
62
0
10
532.355273
20
 12.167827
30
  0.000000
11
530.196870
21
 12.207004
31
  0.000000
0
LINE
8
Gas
62
0
10
530.196870
20
 12.207004
30
  0.000000
11
526.861022
21
 12.279002
31
  0.000000
0
LINE
8
Gas
62
0
10
526.861022
20
 12.279002
30
  0.000000
11
524.114301
21
 12.348424
31
  0.000000
0
LINE
8
Gas
62
0
10
524.114301
20
 12.348424
30
  0.000000
11
521.367833
21
 12.426602
31
  0.000000
0
LINE
8
Gas
62
0
10
521.367833
20
 12.426602
30
  0.000000
11
518.621606
21
 12.513165
31
  0.000000
0
LINE
8
Gas
62
0
10
518.621606
20
 12.513165
30
  0.000000
11
515.875608
21
 12.607745
31
  0.000000
0
LINE
8
Gas
62
0
10
515.875608
20
 12.607745
30
  0.000000
11
513.129824
21
 12.709971
31
  0.000000
0
LINE
8
Gas
62
0
10
513.129824
20
 12.709971
30
  0.000000
11
510.384243
21
 12.819475
31
  0.000000
0
LINE
8
Gas
62
0
10
510.384243
20
 12.819475
30
  0.000000
11
507.638852
21
 12.935886
31
  0.000000
0
LINE
8
Gas
62
0
10
507.638852
20
 12.935886
30
  0.000000
11
504.893638
21
 13.058835
31
  0.000000
0
LINE
8
Gas
62
0
10
504.893638
20
 13.058835
30
  0.000000
11
502.148588
21
 13.187952
31
  0.000000
0
LINE
8
Gas
62
0
10
502.148588
20
 13.187952
30
  0.000000
11
499.403690
21
 13.322868
31
  0.000000
0
LINE
8
Gas
62
0
10
499.403690
20
 13.322868
30
  0.000000
11
496.658930
21
 13.463214
31
  0.000000
0
LINE
8
Gas
62
0
10
496.658930
20
 13.463214
30
  0.000000
11
493.914297
21
 13.608619
31
  0.000000
0
LINE
8
Gas
62
0
10
493.914297
20
 13.608619
30
  0.000000
11
491.169777
21
 13.758715
31
  0.000000
0
LINE
8
Gas
62
0
10
491.169777
20
 13.758715
30
  0.000000
11
488.425358
21
 13.913131
31
  0.000000
0
LINE
8
Gas
62
0
10
488.425358
20
 13.913131
30
  0.000000
11
485.681026
21
 14.071498
31
  0.000000
0
LINE
8
Gas
62
0
10
485.681026
20
 14.071498
30
  0.000000
11
482.936770
21
 14.233446
31
  0.000000
0
LINE
8
Gas
62
0
10
482.936770
20
 14.233446
30
  0.000000
11
480.192576
21
 14.398606
31
  0.000000
0
LINE
8
Gas
62
0
10
480.192576
20
 14.398606
30
  0.000000
11
477.448432
21
 14.566609
31
  0.000000
0
LINE
8
Gas
62
0
10
477.448432
20
 14.566609
30
  0.000000
11
474.704325
21
 14.737084
31
  0.000000
0
LINE
8
Gas
62
0
10
474.704325
20
 14.737084
30
  0.000000
11
471.960242
21
 14.909662
31
  0.000000
0
LINE
8
Gas
62
0
10
471.960242
20
 14.909662
30
  0.000000
11
469.216171
21
 15.083974
31
  0.000000
0
LINE
8
Gas
62
0
10
469.216171
20
 15.083974
30
  0.000000
11
466.472098
21
 15.259649
31
  0.000000
0
LINE
8
Gas
62
0
10
466.472098
20
 15.259649
30
  0.000000
11
463.728011
21
 15.436320
31
  0.000000
0
LINE
8
Gas
62
0
10
463.728011
20
 15.436320
30
  0.000000
11
460.983898
21
 15.613615
31
  0.000000
0
LINE
8
Gas
62
0
10
460.983898
20
 15.613615
30
  0.000000
11
458.239745
21
 15.791165
31
  0.000000
0
LINE
8
Gas
62
0
10
458.239745
20
 15.791165
30
  0.000000
11
455.495540
21
 15.968601
31
  0.000000
0
LINE
8
Gas
62
0
10
455.495540
20
 15.968601
30
  0.000000
11
452.751270
21
 16.145553
31
  0.000000
0
LINE
8
Gas
62
0
10
452.751270
20
 16.145553
30
  0.000000
11
450.006923
21
 16.321651
31
  0.000000
0
LINE
8
Gas
62
0
10
450.006923
20
 16.321651
30
  0.000000
11
447.262485
21
 16.496527
31
  0.000000
0
LINE
8
Gas
62
0
10
447.262485
20
 16.496527
30
  0.000000
11
444.517943
21
 16.669810
31
  0.000000
0
LINE
8
Gas
62
0
10
444.517943
20
 16.669810
30
  0.000000
11
441.773286
21
 16.841130
31
  0.000000
0
LINE
8
Gas
62
0
10
441.773286
20
 16.841130
30
  0.000000
11
439.028501
21
 17.010119
31
  0.000000
0
LINE
8
Gas
62
0
10
439.028501
20
 17.010119
30
  0.000000
11
436.283574
21
 17.176407
31
  0.000000
0
LINE
8
Gas
62
0
10
436.283574
20
 17.176407
30
  0.000000
11
433.538493
21
 17.339624
31
  0.000000
0
LINE
8
Gas
62
0
10
433.538493
20
 17.339624
30
  0.000000
11
430.345090
21
 17.525130
31
  0.000000
0
LINE
8
Gas
62
0
10
430.345090
20
 17.525130
30
  0.000000
11
428.047820
21
 17.655428
31
  0.000000
0
LINE
8
Gas
62
0
10
428.047820
20
 17.655428
30
  0.000000
11
425.302228
21
 17.807812
31
  0.000000
0
LINE
8
Gas
62
0
10
425.302228
20
 17.807812
30
  0.000000
11
422.556487
21
 17.956819
31
  0.000000
0
LINE
8
Gas
62
0
10
422.556487
20
 17.956819
30
  0.000000
11
419.810612
21
 18.102718
31
  0.000000
0
LINE
8
Gas
62
0
10
419.810612
20
 18.102718
30
  0.000000
11
417.064622
21
 18.245777
31
  0.000000
0
LINE
8
Gas
62
0
10
417.064622
20
 18.245777
30
  0.000000
11
414.318534
21
 18.386267
31
  0.000000
0
LINE
8
Gas
62
0
10
414.318534
20
 18.386267
30
  0.000000
11
411.572364
21
 18.524455
31
  0.000000
0
LINE
8
Gas
62
0
10
411.572364
20
 18.524455
30
  0.000000
11
408.826131
21
 18.660610
31
  0.000000
0
LINE
8
Gas
62
0
10
408.826131
20
 18.660610
30
  0.000000
11
406.079851
21
 18.795002
31
  0.000000
0
LINE
8
Gas
62
0
10
406.079851
20
 18.795002
30
  0.000000
11
403.333541
21
 18.927898
31
  0.000000
0
LINE
8
Gas
62
0
10
403.333541
20
 18.927898
30
  0.000000
11
400.587219
21
 19.059568
31
  0.000000
0
LINE
8
Gas
62
0
10
400.587219
20
 19.059568
30
  0.000000
11
397.840903
21
 19.190281
31
  0.000000
0
LINE
8
Gas
62
0
10
397.840903
20
 19.190281
30
  0.000000
11
395.094608
21
 19.320305
31
  0.000000
0
LINE
8
Gas
62
0
10
395.094608
20
 19.320305
30
  0.000000
11
392.348353
21
 19.449909
31
  0.000000
0
LINE
8
Gas
62
0
10
392.348353
20
 19.449909
30
  0.000000
11
389.602155
21
 19.579362
31
  0.000000
0
LINE
8
Gas
62
0
10
389.602155
20
 19.579362
30
  0.000000
11
386.856030
21
 19.708932
31
  0.000000
0
LINE
8
Gas
62
0
10
386.856030
20
 19.708932
30
  0.000000
11
384.109997
21
 19.838889
31
  0.000000
0
LINE
8
Gas
62
0
10
384.109997
20
 19.838889
30
  0.000000
11
381.364071
21
 19.969501
31
  0.000000
0
LINE
8
Gas
62
0
10
381.364071
20
 19.969501
30
  0.000000
11
378.618272
21
 20.101037
31
  0.000000
0
LINE
8
Gas
62
0
10
378.618272
20
 20.101037
30
  0.000000
11
375.872615
21
 20.233766
31
  0.000000
0
LINE
8
Gas
62
0
10
375.872615
20
 20.233766
30
  0.000000
11
373.127118
21
 20.367957
31
  0.000000
0
LINE
8
Gas
62
0
10
373.127118
20
 20.367957
30
  0.000000
11
370.381799
21
 20.503878
31
  0.000000
0
LINE
8
Gas
62
0
10
370.381799
20
 20.503878
30
  0.000000
11
367.636674
21
 20.641799
31
  0.000000
0
LINE
8
Gas
62
0
10
367.636674
20
 20.641799
30
  0.000000
11
364.891760
21
 20.781987
31
  0.000000
0
LINE
8
Gas
62
0
10
364.891760
20
 20.781987
30
  0.000000
11
362.147075
21
 20.924712
31
  0.000000
0
LINE
8
Gas
62
0
10
362.147075
20
 20.924712
30
  0.000000
11
359.402637
21
 21.070243
31
  0.000000
0
LINE
8
Gas
62
0
10
359.402637
20
 21.070243
30
  0.000000
11
356.658462
21
 21.218848
31
  0.000000
0
LINE
8
Gas
62
0
10
356.658462
20
 21.218848
30
  0.000000
11
353.914567
21
 21.370797
31
  0.000000
0
LINE
8
Gas
62
0
10
353.914567
20
 21.370797
30
  0.000000
11
351.170970
21
 21.526357
31
  0.000000
0
LINE
8
Gas
62
0
10
351.170970
20
 21.526357
30
  0.000000
11
348.427689
21
 21.685798
31
  0.000000
0
LINE
8
Gas
62
0
10
348.427689
20
 21.685798
30
  0.000000
11
345.684739
21
 21.849389
31
  0.000000
0
LINE
8
Gas
62
0
10
345.684739
20
 21.849389
30
  0.000000
11
342.942139
21
 22.017398
31
  0.000000
0
LINE
8
Gas
62
0
10
342.942139
20
 22.017398
30
  0.000000
11
340.199905
21
 22.190095
31
  0.000000
0
LINE
8
Gas
62
0
10
340.199905
20
 22.190095
30
  0.000000
11
337.458056
21
 22.367747
31
  0.000000
0
LINE
8
Gas
62
0
10
337.458056
20
 22.367747
30
  0.000000
11
334.716607
21
 22.550624
31
  0.000000
0
LINE
8
Gas
62
0
10
334.716607
20
 22.550624
30
  0.000000
11
331.975577
21
 22.738995
31
  0.000000
0
LINE
8
Gas
62
0
10
331.975577
20
 22.738995
30
  0.000000
11
330.493310
21
 22.843256
31
  0.000000
0
LINE
8
Gas
62
0
10
330.493310
20
 22.843256
30
  0.000000
11
326.494817
21
 23.132997
31
  0.000000
0
LINE
8
Gas
62
0
10
326.494817
20
 23.132997
30
  0.000000
11
323.755056
21
 23.338344
31
  0.000000
0
LINE
8
Gas
62
0
10
323.755056
20
 23.338344
30
  0.000000
11
321.015672
21
 23.548859
31
  0.000000
0
LINE
8
Gas
62
0
10
321.015672
20
 23.548859
30
  0.000000
11
318.276636
21
 23.764242
31
  0.000000
0
LINE
8
Gas
62
0
10
318.276636
20
 23.764242
30
  0.000000
11
315.537920
21
 23.984190
31
  0.000000
0
LINE
8
Gas
62
0
10
315.537920
20
 23.984190
30
  0.000000
11
312.799497
21
 24.208405
31
  0.000000
0
LINE
8
Gas
62
0
10
312.799497
20
 24.208405
30
  0.000000
11
310.061338
21
 24.436583
31
  0.000000
0
LINE
8
Gas
62
0
10
310.061338
20
 24.436583
30
  0.000000
11
307.323415
21
 24.668426
31
  0.000000
0
LINE
8
Gas
62
0
10
307.323415
20
 24.668426
30
  0.000000
11
304.585701
21
 24.903632
31
  0.000000
0
LINE
8
Gas
62
0
10
304.585701
20
 24.903632
30
  0.000000
11
301.848168
21
 25.141900
31
  0.000000
0
LINE
8
Gas
62
0
10
301.848168
20
 25.141900
30
  0.000000
11
299.110787
21
 25.382929
31
  0.000000
0
LINE
8
Gas
62
0
10
299.110787
20
 25.382929
30
  0.000000
11
296.373531
21
 25.626419
31
  0.000000
0
LINE
8
Gas
62
0
10
296.373531
20
 25.626419
30
  0.000000
11
293.636372
21
 25.872069
31
  0.000000
0
LINE
8
Gas
62
0
10
293.636372
20
 25.872069
30
  0.000000
11
290.899281
21
 26.119578
31
  0.000000
0
LINE
8
Gas
62
0
10
290.899281
20
 26.119578
30
  0.000000
11
288.162232
21
 26.368645
31
  0.000000
0
LINE
8
Gas
62
0
10
288.162232
20
 26.368645
30
  0.000000
11
285.425195
21
 26.618969
31
  0.000000
0
LINE
8
Gas
62
0
10
285.425195
20
 26.618969
30
  0.000000
11
282.688144
21
 26.870250
31
  0.000000
0
LINE
8
Gas
62
0
10
282.688144
20
 26.870250
30
  0.000000
11
279.951050
21
 27.122186
31
  0.000000
0
LINE
8
Gas
62
0
10
279.951050
20
 27.122186
30
  0.000000
11
277.213884
21
 27.374478
31
  0.000000
0
LINE
8
Gas
62
0
10
277.213884
20
 27.374478
30
  0.000000
11
274.476620
21
 27.626823
31
  0.000000
0
LINE
8
Gas
62
0
10
274.476620
20
 27.626823
30
  0.000000
11
271.739230
21
 27.878922
31
  0.000000
0
LINE
8
Gas
62
0
10
271.739230
20
 27.878922
30
  0.000000
11
269.001684
21
 28.130473
31
  0.000000
0
LINE
8
Gas
62
0
10
269.001684
20
 28.130473
30
  0.000000
11
266.263956
21
 28.381175
31
  0.000000
0
LINE
8
Gas
62
0
10
266.263956
20
 28.381175
30
  0.000000
11
263.526018
21
 28.630729
31
  0.000000
0
LINE
8
Gas
62
0
10
263.526018
20
 28.630729
30
  0.000000
11
260.787841
21
 28.878832
31
  0.000000
0
LINE
8
Gas
62
0
10
260.787841
20
 28.878832
30
  0.000000
11
258.049397
21
 29.125184
31
  0.000000
0
LINE
8
Gas
62
0
10
258.049397
20
 29.125184
30
  0.000000
11
255.310659
21
 29.369485
31
  0.000000
0
LINE
8
Gas
62
0
10
255.310659
20
 29.369485
30
  0.000000
11
252.571599
21
 29.611433
31
  0.000000
0
LINE
8
Gas
62
0
10
252.571599
20
 29.611433
30
  0.000000
11
249.832189
21
 29.850728
31
  0.000000
0
LINE
8
Gas
62
0
10
249.832189
20
 29.850728
30
  0.000000
11
247.092401
21
 30.087069
31
  0.000000
0
LINE
8
Gas
62
0
10
247.092401
20
 30.087069
30
  0.000000
11
244.352206
21
 30.320155
31
  0.000000
0
LINE
8
Gas
62
0
10
244.352206
20
 30.320155
30
  0.000000
11
241.611578
21
 30.549685
31
  0.000000
0
LINE
8
Gas
62
0
10
241.611578
20
 30.549685
30
  0.000000
11
238.870487
21
 30.775358
31
  0.000000
0
LINE
8
Gas
62
0
10
238.870487
20
 30.775358
30
  0.000000
11
236.128907
21
 30.996874
31
  0.000000
0
LINE
8
Gas
62
0
10
236.128907
20
 30.996874
30
  0.000000
11
233.386808
21
 31.213932
31
  0.000000
0
LINE
8
Gas
62
0
10
233.386808
20
 31.213932
30
  0.000000
11
230.435137
21
 31.442205
31
  0.000000
0
LINE
8
Gas
62
0
10
230.435137
20
 31.442205
30
  0.000000
11
227.900959
21
 31.633579
31
  0.000000
0
LINE
8
Gas
62
0
10
227.900959
20
 31.633579
30
  0.000000
11
225.157240
21
 31.836342
31
  0.000000
0
LINE
8
Gas
62
0
10
225.157240
20
 31.836342
30
  0.000000
11
222.413073
21
 32.035056
31
  0.000000
0
LINE
8
Gas
62
0
10
222.413073
20
 32.035056
30
  0.000000
11
219.668527
21
 32.230259
31
  0.000000
0
LINE
8
Gas
62
0
10
219.668527
20
 32.230259
30
  0.000000
11
216.923668
21
 32.422488
31
  0.000000
0
LINE
8
Gas
62
0
10
216.923668
20
 32.422488
30
  0.000000
11
214.178563
21
 32.612281
31
  0.000000
0
LINE
8
Gas
62
0
10
214.178563
20
 32.612281
30
  0.000000
11
211.433279
21
 32.800175
31
  0.000000
0
LINE
8
Gas
62
0
10
211.433279
20
 32.800175
30
  0.000000
11
208.687883
21
 32.986707
31
  0.000000
0
LINE
8
Gas
62
0
10
208.687883
20
 32.986707
30
  0.000000
11
205.942442
21
 33.172417
31
  0.000000
0
LINE
8
Gas
62
0
10
205.942442
20
 33.172417
30
  0.000000
11
203.197024
21
 33.357840
31
  0.000000
0
LINE
8
Gas
62
0
10
203.197024
20
 33.357840
30
  0.000000
11
200.451694
21
 33.543514
31
  0.000000
0
LINE
8
Gas
62
0
10
200.451694
20
 33.543514
30
  0.000000
11
197.706521
21
 33.729977
31
  0.000000
0
LINE
8
Gas
62
0
10
197.706521
20
 33.729977
30
  0.000000
11
194.961570
21
 33.917766
31
  0.000000
0
LINE
8
Gas
62
0
10
194.961570
20
 33.917766
30
  0.000000
11
192.216910
21
 34.107419
31
  0.000000
0
LINE
8
Gas
62
0
10
192.216910
20
 34.107419
30
  0.000000
11
189.472607
21
 34.299474
31
  0.000000
0
LINE
8
Gas
62
0
10
189.472607
20
 34.299474
30
  0.000000
11
186.728727
21
 34.494467
31
  0.000000
0
LINE
8
Gas
62
0
10
186.728727
20
 34.494467
30
  0.000000
11
183.985339
21
 34.692937
31
  0.000000
0
LINE
8
Gas
62
0
10
183.985339
20
 34.692937
30
  0.000000
11
181.242509
21
 34.895420
31
  0.000000
0
LINE
8
Gas
62
0
10
181.242509
20
 34.895420
30
  0.000000
11
178.500305
21
 35.102455
31
  0.000000
0
LINE
8
Gas
62
0
10
178.500305
20
 35.102455
30
  0.000000
11
175.758792
21
 35.314579
31
  0.000000
0
LINE
8
Gas
62
0
10
175.758792
20
 35.314579
30
  0.000000
11
173.018039
21
 35.532329
31
  0.000000
0
LINE
8
Gas
62
0
10
173.018039
20
 35.532329
30
  0.000000
11
170.278111
21
 35.756243
31
  0.000000
0
LINE
8
Gas
62
0
10
170.278111
20
 35.756243
30
  0.000000
11
167.539077
21
 35.986858
31
  0.000000
0
LINE
8
Gas
62
0
10
167.539077
20
 35.986858
30
  0.000000
11
164.801003
21
 36.224712
31
  0.000000
0
LINE
8
Gas
62
0
10
164.801003
20
 36.224712
30
  0.000000
11
162.063956
21
 36.470343
31
  0.000000
0
LINE
8
Gas
62
0
10
162.063956
20
 36.470343
30
  0.000000
11
159.328003
21
 36.724287
31
  0.000000
0
LINE
8
Gas
62
0
10
159.328003
20
 36.724287
30
  0.000000
11
156.593212
21
 36.987083
31
  0.000000
0
LINE
8
Gas
62
0
10
156.593212
20
 36.987083
30
  0.000000
11
153.859648
21
 37.259268
31
  0.000000
0
LINE
8
Gas
62
0
10
153.859648
20
 37.259268
30
  0.000000
11
151.127380
21
 37.541379
31
  0.000000
0
LINE
8
Gas
62
0
10
151.127380
20
 37.541379
30
  0.000000
11
148.396474
21
 37.833954
31
  0.000000
0
LINE
8
Gas
62
0
10
148.396474
20
 37.833954
30
  0.000000
11
145.666997
21
 38.137531
31
  0.000000
0
LINE
8
Gas
62
0
10
145.666997
20
 38.137531
30
  0.000000
11
142.939016
21
 38.452647
31
  0.000000
0
LINE
8
Gas
62
0
10
142.939016
20
 38.452647
30
  0.000000
11
140.212599
21
 38.779838
31
  0.000000
0
LINE
8
Gas
62
0
10
140.212599
20
 38.779838
30
  0.000000
11
137.487811
21
 39.119644
31
  0.000000
0
LINE
8
Gas
62
0
10
137.487811
20
 39.119644
30
  0.000000
11
134.764721
21
 39.472602
31
  0.000000
0
LINE
8
Gas
62
0
10
134.764721
20
 39.472602
30
  0.000000
11
132.043395
21
 39.839248
31
  0.000000
0
LINE
8
Gas
62
0
10
132.043395
20
 39.839248
30
  0.000000
11
130.588643
21
 40.041154
31
  0.000000
0
LINE
8
Gas
62
0
10
130.588643
20
 40.041154
30
  0.000000
11
126.606214
21
 40.615048
31
  0.000000
0
LINE
8
Gas
62
0
10
126.606214
20
 40.615048
30
  0.000000
11
123.890243
21
 41.023316
31
  0.000000
0
LINE
8
Gas
62
0
10
123.890243
20
 41.023316
30
  0.000000
11
121.175881
21
 41.444087
31
  0.000000
0
LINE
8
Gas
62
0
10
121.175881
20
 41.444087
30
  0.000000
11
118.463022
21
 41.876544
31
  0.000000
0
LINE
8
Gas
62
0
10
118.463022
20
 41.876544
30
  0.000000
11
115.751561
21
 42.319871
31
  0.000000
0
LINE
8
Gas
62
0
10
115.751561
20
 42.319871
30
  0.000000
11
113.041394
21
 42.773252
31
  0.000000
0
LINE
8
Gas
62
0
10
113.041394
20
 42.773252
30
  0.000000
11
110.332415
21
 43.235872
31
  0.000000
0
LINE
8
Gas
62
0
10
110.332415
20
 43.235872
30
  0.000000
11
107.624520
21
 43.706913
31
  0.000000
0
LINE
8
Gas
62
0
10
107.624520
20
 43.706913
30
  0.000000
11
104.917602
21
 44.185561
31
  0.000000
0
LINE
8
Gas
62
0
10
104.917602
20
 44.185561
30
  0.000000
11
102.211559
21
 44.670999
31
  0.000000
0
LINE
8
Gas
62
0
10
102.211559
20
 44.670999
30
  0.000000
11
 99.506284
21
 45.162411
31
  0.000000
0
LINE
8
Gas
62
0
10
 99.506284
20
 45.162411
30
  0.000000
11
 96.801672
21
 45.658981
31
  0.000000
0
LINE
8
Gas
62
0
10
 96.801672
20
 45.658981
30
  0.000000
11
 94.097619
21
 46.159893
31
  0.000000
0
LINE
8
Gas
62
0
10
 94.097619
20
 46.159893
30
  0.000000
11
 91.394020
21
 46.664331
31
  0.000000
0
LINE
8
Gas
62
0
10
 91.394020
20
 46.664331
30
  0.000000
11
 88.690769
21
 47.171480
31
  0.000000
0
LINE
8
Gas
62
0
10
 88.690769
20
 47.171480
30
  0.000000
11
 85.987762
21
 47.680522
31
  0.000000
0
LINE
8
Gas
62
0
10
 85.987762
20
 47.680522
30
  0.000000
11
 83.284893
21
 48.190641
31
  0.000000
0
LINE
8
Gas
62
0
10
 83.284893
20
 48.190641
30
  0.000000
11
 80.582058
21
 48.701023
31
  0.000000
0
LINE
8
Gas
62
0
10
 80.582058
20
 48.701023
30
  0.000000
11
 77.879152
21
 49.210851
31
  0.000000
0
LINE
8
Gas
62
0
10
 77.879152
20
 49.210851
30
  0.000000
11
 75.176070
21
 49.719308
31
  0.000000
0
LINE
8
Gas
62
0
10
 75.176070
20
 49.719308
30
  0.000000
11
 72.472706
21
 50.225579
31
  0.000000
0
LINE
8
Gas
62
0
10
 72.472706
20
 50.225579
30
  0.000000
11
 70.397822
21
 50.612111
31
  0.000000
0
LINE
8
Gas
62
0
10
 70.397822
20
 50.612111
30
  0.000000
11
 67.064754
21
 51.228605
31
  0.000000
0
LINE
8
Gas
62
0
10
 67.064754
20
 51.228605
30
  0.000000
11
 64.360112
21
 51.724931
31
  0.000000
0
LINE
8
Gas
62
0
10
 64.360112
20
 51.724931
30
  0.000000
11
 61.655049
21
 52.217994
31
  0.000000
0
LINE
8
Gas
62
0
10
 61.655049
20
 52.217994
30
  0.000000
11
 58.949587
21
 52.707956
31
  0.000000
0
LINE
8
Gas
62
0
10
 58.949587
20
 52.707956
30
  0.000000
11
 56.243748
21
 53.194980
31
  0.000000
0
LINE
8
Gas
62
0
10
 56.243748
20
 53.194980
30
  0.000000
11
 53.537551
21
 53.679230
31
  0.000000
0
LINE
8
Gas
62
0
10
 53.537551
20
 53.679230
30
  0.000000
11
 50.831019
21
 54.160868
31
  0.000000
0
LINE
8
Gas
62
0
10
 50.831019
20
 54.160868
30
  0.000000
11
 48.124171
21
 54.640059
31
  0.000000
0
LINE
8
Gas
62
0
10
 48.124171
20
 54.640059
30
  0.000000
11
 45.417030
21
 55.116964
31
  0.000000
0
LINE
8
Gas
62
0
10
 45.417030
20
 55.116964
30
  0.000000
11
 42.709616
21
 55.591748
31
  0.000000
0
LINE
8
Gas
62
0
10
 42.709616
20
 55.591748
30
  0.000000
11
 40.001950
21
 56.064573
31
  0.000000
0
LINE
8
Gas
62
0
10
 40.001950
20
 56.064573
30
  0.000000
11
 37.294053
21
 56.535603
31
  0.000000
0
LINE
8
Gas
62
0
10
 37.294053
20
 56.535603
30
  0.000000
11
 34.585946
21
 57.005001
31
  0.000000
0
LINE
8
Gas
62
0
10
 34.585946
20
 57.005001
30
  0.000000
11
 31.877650
21
 57.472930
31
  0.000000
0
LINE
8
Gas
62
0
10
 31.877650
20
 57.472930
30
  0.000000
11
 29.169186
21
 57.939553
31
  0.000000
0
LINE
8
Gas
62
0
10
 29.169186
20
 57.939553
30
  0.000000
11
 26.460576
21
 58.405034
31
  0.000000
0
LINE
8
Gas
62
0
10
 26.460576
20
 58.405034
30
  0.000000
11
 23.751839
21
 58.869536
31
  0.000000
0
LINE
8
Gas
62
0
10
 23.751839
20
 58.869536
30
  0.000000
11
 21.042997
21
 59.333222
31
  0.000000
0
LINE
8
Gas
62
0
10
 21.042997
20
 59.333222
30
  0.000000
11
 18.334071
21
 59.796255
31
  0.000000
0
LINE
8
Gas
62
0
10
 18.334071
20
 59.796255
30
  0.000000
11
 15.625083
21
 60.258798
31
  0.000000
0
LINE
8
Gas
62
0
10
 15.625083
20
 60.258798
30
  0.000000
11
 12.916052
21
 60.721015
31
  0.000000
0
LINE
8
Gas
62
0
10
 12.916052
20
 60.721015
30
  0.000000
11
 10.207000
21
 61.183069
31
  0.000000
0
LINE
8
Gas
62
0
10
 10.207000
20
 61.183069
30
  0.000000
11
 10.207020
21
586.725649
31
  0.000000
0
LINE
8
Gas
62
0
10
 10.207020
20
586.725649
30
  0.000000
11
 12.916072
21
587.187703
31
  0.000000
0
LINE
8
Gas
62
0
10
 12.916072
20
587.187703
30
  0.000000
11
 15.625103
21
587.649920
31
  0.000000
0
LINE
8
Gas
62
0
10
 15.625103
20
587.649920
30
  0.000000
11
 18.334091
21
588.112463
31
  0.000000
0
LINE
8
Gas
62
0
10
 18.334091
20
588.112463
30
  0.000000
11
 21.043017
21
588.575495
31
  0.000000
0
LINE
8
Gas
62
0
10
 21.043017
20
588.575495
30
  0.000000
11
 23.751859
21
589.039181
31
  0.000000
0
LINE
8
Gas
62
0
10
 23.751859
20
589.039181
30
  0.000000
11
 26.460596
21
589.503682
31
  0.000000
0
LINE
8
Gas
62
0
10
 26.460596
20
589.503682
30
  0.000000
11
 29.169207
21
589.969163
31
  0.000000
0
LINE
8
Gas
62
0
10
 29.169207
20
589.969163
30
  0.000000
11
 31.877671
21
590.435786
31
  0.000000
0
LINE
8
Gas
62
0
10
 31.877671
20
590.435786
30
  0.000000
11
 34.585966
21
590.903715
31
  0.000000
0
LINE
8
Gas
62
0
10
 34.585966
20
590.903715
30
  0.000000
11
 37.294073
21
591.373113
31
  0.000000
0
LINE
8
Gas
62
0
10
 37.294073
20
591.373113
30
  0.000000
11
 40.001970
21
591.844143
31
  0.000000
0
LINE
8
Gas
62
0
10
 40.001970
20
591.844143
30
  0.000000
11
 42.709637
21
592.316968
31
  0.000000
0
LINE
8
Gas
62
0
10
 42.709637
20
592.316968
30
  0.000000
11
 45.417051
21
592.791751
31
  0.000000
0
LINE
8
Gas
62
0
10
 45.417051
20
592.791751
30
  0.000000
11
 48.124192
21
593.268657
31
  0.000000
0
LINE
8
Gas
62
0
10
 48.124192
20
593.268657
30
  0.000000
11
 50.831039
21
593.747847
31
  0.000000
0
LINE
8
Gas
62
0
10
 50.831039
20
593.747847
30
  0.000000
11
 53.537572
21
594.229485
31
  0.000000
0
LINE
8
Gas
62
0
10
 53.537572
20
594.229485
30
  0.000000
11
 56.243768
21
594.713734
31
  0.000000
0
LINE
8
Gas
62
0
10
 56.243768
20
594.713734
30
  0.000000
11
 58.949608
21
595.200758
31
  0.000000
0
LINE
8
Gas
62
0
10
 58.949608
20
595.200758
30
  0.000000
11
 61.655069
21
595.690720
31
  0.000000
0
LINE
8
Gas
62
0
10
 61.655069
20
595.690720
30
  0.000000
11
 64.360132
21
596.183782
31
  0.000000
0
LINE
8
Gas
62
0
10
 64.360132
20
596.183782
30
  0.000000
11
 67.064775
21
596.680109
31
  0.000000
0
LINE
8
Gas
62
0
10
 67.064775
20
596.680109
30
  0.000000
11
 70.397842
21
597.296602
31
  0.000000
0
LINE
8
Gas
62
0
10
 70.397842
20
597.296602
30
  0.000000
11
 72.472727
21
597.683134
31
  0.000000
0
LINE
8
Gas
62
0
10
 72.472727
20
597.683134
30
  0.000000
11
 75.176090
21
598.189405
31
  0.000000
0
LINE
8
Gas
62
0
10
 75.176090
20
598.189405
30
  0.000000
11
 77.879173
21
598.697862
31
  0.000000
0
LINE
8
Gas
62
0
10
 77.879173
20
598.697862
30
  0.000000
11
 80.582079
21
599.207690
31
  0.000000
0
LINE
8
Gas
62
0
10
 80.582079
20
599.207690
30
  0.000000
11
 83.284914
21
599.718071
31
  0.000000
0
LINE
8
Gas
62
0
10
 83.284914
20
599.718071
30
  0.000000
11
 85.987783
21
600.228191
31
  0.000000
0
LINE
8
Gas
62
0
10
 85.987783
20
600.228191
30
  0.000000
11
 88.690790
21
600.737233
31
  0.000000
0
LINE
8
Gas
62
0
10
 88.690790
20
600.737233
30
  0.000000
11
 91.394041
21
601.244380
31
  0.000000
0
LINE
8
Gas
62
0
10
 91.394041
20
601.244380
30
  0.000000
11
 94.097640
21
601.748818
31
  0.000000
0
LINE
8
Gas
62
0
10
 94.097640
20
601.748818
30
  0.000000
11
 96.801693
21
602.249730
31
  0.000000
0
LINE
8
Gas
62
0
10
 96.801693
20
602.249730
30
  0.000000
11
 99.506305
21
602.746300
31
  0.000000
0
LINE
8
Gas
62
0
10
 99.506305
20
602.746300
30
  0.000000
11
102.211580
21
603.237712
31
  0.000000
0
LINE
8
Gas
62
0
10
102.211580
20
603.237712
30
  0.000000
11
104.917624
21
603.723150
31
  0.000000
0
LINE
8
Gas
62
0
10
104.917624
20
603.723150
30
  0.000000
11
107.624541
21
604.201797
31
  0.000000
0
LINE
8
Gas
62
0
10
107.624541
20
604.201797
30
  0.000000
11
110.332436
21
604.672839
31
  0.000000
0
LINE
8
Gas
62
0
10
110.332436
20
604.672839
30
  0.000000
11
113.041415
21
605.135458
31
  0.000000
0
LINE
8
Gas
62
0
10
113.041415
20
605.135458
30
  0.000000
11
115.751583
21
605.588839
31
  0.000000
0
LINE
8
Gas
62
0
10
115.751583
20
605.588839
30
  0.000000
11
118.463043
21
606.032166
31
  0.000000
0
LINE
8
Gas
62
0
10
118.463043
20
606.032166
30
  0.000000
11
121.175902
21
606.464623
31
  0.000000
0
LINE
8
Gas
62
0
10
121.175902
20
606.464623
30
  0.000000
11
123.890265
21
606.885393
31
  0.000000
0
LINE
8
Gas
62
0
10
123.890265
20
606.885393
30
  0.000000
11
126.606235
21
607.293661
31
  0.000000
0
LINE
8
Gas
62
0
10
126.606235
20
607.293661
30
  0.000000
11
130.588665
21
607.867555
31
  0.000000
0
LINE
8
Gas
62
0
10
130.588665
20
607.867555
30
  0.000000
11
132.043417
21
608.069461
31
  0.000000
0
LINE
8
Gas
62
0
10
132.043417
20
608.069461
30
  0.000000
11
134.764743
21
608.436107
31
  0.000000
0
LINE
8
Gas
62
0
10
134.764743
20
608.436107
30
  0.000000
11
137.487833
21
608.789064
31
  0.000000
0
LINE
8
Gas
62
0
10
137.487833
20
608.789064
30
  0.000000
11
140.212620
21
609.128870
31
  0.000000
0
LINE
8
Gas
62
0
10
140.212620
20
609.128870
30
  0.000000
11
142.939038
21
609.456061
31
  0.000000
0
LINE
8
Gas
62
0
10
142.939038
20
609.456061
30
  0.000000
11
145.667019
21
609.771177
31
  0.000000
0
LINE
8
Gas
62
0
10
145.667019
20
609.771177
30
  0.000000
11
148.396495
21
610.074753
31
  0.000000
0
LINE
8
Gas
62
0
10
148.396495
20
610.074753
30
  0.000000
11
151.127402
21
610.367328
31
  0.000000
0
LINE
8
Gas
62
0
10
151.127402
20
610.367328
30
  0.000000
11
153.859670
21
610.649439
31
  0.000000
0
LINE
8
Gas
62
0
10
153.859670
20
610.649439
30
  0.000000
11
156.593233
21
610.921624
31
  0.000000
0
LINE
8
Gas
62
0
10
156.593233
20
610.921624
30
  0.000000
11
159.328025
21
611.184419
31
  0.000000
0
LINE
8
Gas
62
0
10
159.328025
20
611.184419
30
  0.000000
11
162.063978
21
611.438364
31
  0.000000
0
LINE
8
Gas
62
0
10
162.063978
20
611.438364
30
  0.000000
11
164.801025
21
611.683994
31
  0.000000
0
LINE
8
Gas
62
0
10
164.801025
20
611.683994
30
  0.000000
11
167.539099
21
611.921848
31
  0.000000
0
LINE
8
Gas
62
0
10
167.539099
20
611.921848
30
  0.000000
11
170.278133
21
612.152463
31
  0.000000
0
LINE
8
Gas
62
0
10
170.278133
20
612.152463
30
  0.000000
11
173.018060
21
612.376377
31
  0.000000
0
LINE
8
Gas
62
0
10
173.018060
20
612.376377
30
  0.000000
11
175.758814
21
612.594127
31
  0.000000
0
LINE
8
Gas
62
0
10
175.758814
20
612.594127
30
  0.000000
11
178.500327
21
612.806250
31
  0.000000
0
LINE
8
Gas
62
0
10
178.500327
20
612.806250
30
  0.000000
11
181.242531
21
613.013285
31
  0.000000
0
LINE
8
Gas
62
0
10
181.242531
20
613.013285
30
  0.000000
11
183.985361
21
613.215768
31
  0.000000
0
LINE
8
Gas
62
0
10
183.985361
20
613.215768
30
  0.000000
11
186.728749
21
613.414238
31
  0.000000
0
LINE
8
Gas
62
0
10
186.728749
20
613.414238
30
  0.000000
11
189.472629
21
613.609231
31
  0.000000
0
LINE
8
Gas
62
0
10
189.472629
20
613.609231
30
  0.000000
11
192.216932
21
613.801285
31
  0.000000
0
LINE
8
Gas
62
0
10
192.216932
20
613.801285
30
  0.000000
11
194.961592
21
613.990938
31
  0.000000
0
LINE
8
Gas
62
0
10
194.961592
20
613.990938
30
  0.000000
11
197.706543
21
614.178727
31
  0.000000
0
LINE
8
Gas
62
0
10
197.706543
20
614.178727
30
  0.000000
11
200.451716
21
614.365190
31
  0.000000
0
LINE
8
Gas
62
0
10
200.451716
20
614.365190
30
  0.000000
11
203.197046
21
614.550864
31
  0.000000
0
LINE
8
Gas
62
0
10
203.197046
20
614.550864
30
  0.000000
11
205.942465
21
614.736287
31
  0.000000
0
LINE
8
Gas
62
0
10
205.942465
20
614.736287
30
  0.000000
11
208.687905
21
614.921995
31
  0.000000
0
LINE
8
Gas
62
0
10
208.687905
20
614.921995
30
  0.000000
11
211.433301
21
615.108528
31
  0.000000
0
LINE
8
Gas
62
0
10
211.433301
20
615.108528
30
  0.000000
11
214.178585
21
615.296422
31
  0.000000
0
LINE
8
Gas
62
0
10
214.178585
20
615.296422
30
  0.000000
11
216.923690
21
615.486215
31
  0.000000
0
LINE
8
Gas
62
0
10
216.923690
20
615.486215
30
  0.000000
11
219.668549
21
615.678443
31
  0.000000
0
LINE
8
Gas
62
0
10
219.668549
20
615.678443
30
  0.000000
11
222.413096
21
615.873646
31
  0.000000
0
LINE
8
Gas
62
0
10
222.413096
20
615.873646
30
  0.000000
11
225.157262
21
616.072360
31
  0.000000
0
LINE
8
Gas
62
0
10
225.157262
20
616.072360
30
  0.000000
11
227.900981
21
616.275122
31
  0.000000
0
LINE
8
Gas
62
0
10
227.900981
20
616.275122
30
  0.000000
11
230.435159
21
616.466496
31
  0.000000
0
LINE
8
Gas
62
0
10
230.435159
20
616.466496
30
  0.000000
11
233.386831
21
616.694769
31
  0.000000
0
LINE
8
Gas
62
0
10
233.386831
20
616.694769
30
  0.000000
11
236.128929
21
616.911827
31
  0.000000
0
LINE
8
Gas
62
0
10
236.128929
20
616.911827
30
  0.000000
11
238.870509
21
617.133343
31
  0.000000
0
LINE
8
Gas
62
0
10
238.870509
20
617.133343
30
  0.000000
11
241.611600
21
617.359016
31
  0.000000
0
LINE
8
Gas
62
0
10
241.611600
20
617.359016
30
  0.000000
11
244.352228
21
617.588546
31
  0.000000
0
LINE
8
Gas
62
0
10
244.352228
20
617.588546
30
  0.000000
11
247.092423
21
617.821631
31
  0.000000
0
LINE
8
Gas
62
0
10
247.092423
20
617.821631
30
  0.000000
11
249.832211
21
618.057972
31
  0.000000
0
LINE
8
Gas
62
0
10
249.832211
20
618.057972
30
  0.000000
11
252.571622
21
618.297266
31
  0.000000
0
LINE
8
Gas
62
0
10
252.571622
20
618.297266
30
  0.000000
11
255.310682
21
618.539214
31
  0.000000
0
LINE
8
Gas
62
0
10
255.310682
20
618.539214
30
  0.000000
11
258.049420
21
618.783515
31
  0.000000
0
LINE
8
Gas
62
0
10
258.049420
20
618.783515
30
  0.000000
11
260.787863
21
619.029867
31
  0.000000
0
LINE
8
Gas
62
0
10
260.787863
20
619.029867
30
  0.000000
11
263.526040
21
619.277970
31
  0.000000
0
LINE
8
Gas
62
0
10
263.526040
20
619.277970
30
  0.000000
11
266.263979
21
619.527523
31
  0.000000
0
LINE
8
Gas
62
0
10
266.263979
20
619.527523
30
  0.000000
11
269.001707
21
619.778226
31
  0.000000
0
LINE
8
Gas
62
0
10
269.001707
20
619.778226
30
  0.000000
11
271.739252
21
620.029777
31
  0.000000
0
LINE
8
Gas
62
0
10
271.739252
20
620.029777
30
  0.000000
11
274.476643
21
620.281875
31
  0.000000
0
LINE
8
Gas
62
0
10
274.476643
20
620.281875
30
  0.000000
11
277.213907
21
620.534220
31
  0.000000
0
LINE
8
Gas
62
0
10
277.213907
20
620.534220
30
  0.000000
11
279.951072
21
620.786511
31
  0.000000
0
LINE
8
Gas
62
0
10
279.951072
20
620.786511
30
  0.000000
11
282.688167
21
621.038447
31
  0.000000
0
LINE
8
Gas
62
0
10
282.688167
20
621.038447
30
  0.000000
11
285.425218
21
621.289728
31
  0.000000
0
LINE
8
Gas
62
0
10
285.425218
20
621.289728
30
  0.000000
11
288.162255
21
621.540052
31
  0.000000
0
LINE
8
Gas
62
0
10
288.162255
20
621.540052
30
  0.000000
11
290.899304
21
621.789119
31
  0.000000
0
LINE
8
Gas
62
0
10
290.899304
20
621.789119
30
  0.000000
11
293.636395
21
622.036627
31
  0.000000
0
LINE
8
Gas
62
0
10
293.636395
20
622.036627
30
  0.000000
11
296.373554
21
622.282277
31
  0.000000
0
LINE
8
Gas
62
0
10
296.373554
20
622.282277
30
  0.000000
11
299.110810
21
622.525767
31
  0.000000
0
LINE
8
Gas
62
0
10
299.110810
20
622.525767
30
  0.000000
11
301.848191
21
622.766796
31
  0.000000
0
LINE
8
Gas
62
0
10
301.848191
20
622.766796
30
  0.000000
11
304.585724
21
623.005064
31
  0.000000
0
LINE
8
Gas
62
0
10
304.585724
20
623.005064
30
  0.000000
11
307.323438
21
623.240269
31
  0.000000
0
LINE
8
Gas
62
0
10
307.323438
20
623.240269
30
  0.000000
11
310.061361
21
623.472112
31
  0.000000
0
LINE
8
Gas
62
0
10
310.061361
20
623.472112
30
  0.000000
11
312.799520
21
623.700290
31
  0.000000
0
LINE
8
Gas
62
0
10
312.799520
20
623.700290
30
  0.000000
11
315.537943
21
623.924504
31
  0.000000
0
LINE
8
Gas
62
0
10
315.537943
20
623.924504
30
  0.000000
11
318.276659
21
624.144453
31
  0.000000
0
LINE
8
Gas
62
0
10
318.276659
20
624.144453
30
  0.000000
11
321.015695
21
624.359835
31
  0.000000
0
LINE
8
Gas
62
0
10
321.015695
20
624.359835
30
  0.000000
11
323.755079
21
624.570350
31
  0.000000
0
LINE
8
Gas
62
0
10
323.755079
20
624.570350
30
  0.000000
11
326.494840
21
624.775697
31
  0.000000
0
LINE
8
Gas
62
0
10
326.494840
20
624.775697
30
  0.000000
11
330.493333
21
625.065438
31
  0.000000
0
LINE
8
Gas
62
0
10
330.493333
20
625.065438
30
  0.000000
11
331.975600
21
625.169699
31
  0.000000
0
LINE
8
Gas
62
0
10
331.975600
20
625.169699
30
  0.000000
11
334.716630
21
625.358069
31
  0.000000
0
LINE
8
Gas
62
0
10
334.716630
20
625.358069
30
  0.000000
11
337.458079
21
625.540946
31
  0.000000
0
LINE
8
Gas
62
0
10
337.458079
20
625.540946
30
  0.000000
11
340.199928
21
625.718598
31
  0.000000
0
LINE
8
Gas
62
0
10
340.199928
20
625.718598
30
  0.000000
11
342.942162
21
625.891295
31
  0.000000
0
LINE
8
Gas
62
0
10
342.942162
20
625.891295
30
  0.000000
11
345.684762
21
626.059304
31
  0.000000
0
LINE
8
Gas
62
0
10
345.684762
20
626.059304
30
  0.000000
11
348.427712
21
626.222894
31
  0.000000
0
LINE
8
Gas
62
0
10
348.427712
20
626.222894
30
  0.000000
11
351.170993
21
626.382335
31
  0.000000
0
LINE
8
Gas
62
0
10
351.170993
20
626.382335
30
  0.000000
11
353.914590
21
626.537895
31
  0.000000
0
LINE
8
Gas
62
0
10
353.914590
20
626.537895
30
  0.000000
11
356.658485
21
626.689844
31
  0.000000
0
LINE
8
Gas
62
0
10
356.658485
20
626.689844
30
  0.000000
11
359.402660
21
626.838449
31
  0.000000
0
LINE
8
Gas
62
0
10
359.402660
20
626.838449
30
  0.000000
11
362.147099
21
626.983979
31
  0.000000
0
LINE
8
Gas
62
0
10
362.147099
20
626.983979
30
  0.000000
11
364.891783
21
627.126704
31
  0.000000
0
LINE
8
Gas
62
0
10
364.891783
20
627.126704
30
  0.000000
11
367.636697
21
627.266892
31
  0.000000
0
LINE
8
Gas
62
0
10
367.636697
20
627.266892
30
  0.000000
11
370.381822
21
627.404812
31
  0.000000
0
LINE
8
Gas
62
0
10
370.381822
20
627.404812
30
  0.000000
11
373.127141
21
627.540733
31
  0.000000
0
LINE
8
Gas
62
0
10
373.127141
20
627.540733
30
  0.000000
11
375.872638
21
627.674924
31
  0.000000
0
LINE
8
Gas
62
0
10
375.872638
20
627.674924
30
  0.000000
11
378.618295
21
627.807653
31
  0.000000
0
LINE
8
Gas
62
0
10
378.618295
20
627.807653
30
  0.000000
11
381.364095
21
627.939189
31
  0.000000
0
LINE
8
Gas
62
0
10
381.364095
20
627.939189
30
  0.000000
11
384.110020
21
628.069801
31
  0.000000
0
LINE
8
Gas
62
0
10
384.110020
20
628.069801
30
  0.000000
11
386.856053
21
628.199757
31
  0.000000
0
LINE
8
Gas
62
0
10
386.856053
20
628.199757
30
  0.000000
11
389.602178
21
628.329328
31
  0.000000
0
LINE
8
Gas
62
0
10
389.602178
20
628.329328
30
  0.000000
11
392.348376
21
628.458780
31
  0.000000
0
LINE
8
Gas
62
0
10
392.348376
20
628.458780
30
  0.000000
11
395.094631
21
628.588384
31
  0.000000
0
LINE
8
Gas
62
0
10
395.094631
20
628.588384
30
  0.000000
11
397.840926
21
628.718408
31
  0.000000
0
LINE
8
Gas
62
0
10
397.840926
20
628.718408
30
  0.000000
11
400.587243
21
628.849120
31
  0.000000
0
LINE
8
Gas
62
0
10
400.587243
20
628.849120
30
  0.000000
11
403.333564
21
628.980790
31
  0.000000
0
LINE
8
Gas
62
0
10
403.333564
20
628.980790
30
  0.000000
11
406.079874
21
629.113686
31
  0.000000
0
LINE
8
Gas
62
0
10
406.079874
20
629.113686
30
  0.000000
11
408.826154
21
629.248077
31
  0.000000
0
LINE
8
Gas
62
0
10
408.826154
20
629.248077
30
  0.000000
11
411.572387
21
629.384232
31
  0.000000
0
LINE
8
Gas
62
0
10
411.572387
20
629.384232
30
  0.000000
11
414.318557
21
629.522420
31
  0.000000
0
LINE
8
Gas
62
0
10
414.318557
20
629.522420
30
  0.000000
11
417.064645
21
629.662910
31
  0.000000
0
LINE
8
Gas
62
0
10
417.064645
20
629.662910
30
  0.000000
11
419.810635
21
629.805969
31
  0.000000
0
LINE
8
Gas
62
0
10
419.810635
20
629.805969
30
  0.000000
11
422.556510
21
629.951868
31
  0.000000
0
LINE
8
Gas
62
0
10
422.556510
20
629.951868
30
  0.000000
11
425.302252
21
630.100875
31
  0.000000
0
LINE
8
Gas
62
0
10
425.302252
20
630.100875
30
  0.000000
11
428.047843
21
630.253258
31
  0.000000
0
LINE
8
Gas
62
0
10
428.047843
20
630.253258
30
  0.000000
11
430.345113
21
630.383556
31
  0.000000
0
LINE
8
Gas
62
0
10
430.345113
20
630.383556
30
  0.000000
11
433.538516
21
630.569062
31
  0.000000
0
LINE
8
Gas
62
0
10
433.538516
20
630.569062
30
  0.000000
11
436.283597
21
630.732279
31
  0.000000
0
LINE
8
Gas
62
0
10
436.283597
20
630.732279
30
  0.000000
11
439.028524
21
630.898566
31
  0.000000
0
LINE
8
Gas
62
0
10
439.028524
20
630.898566
30
  0.000000
11
441.773310
21
631.067555
31
  0.000000
0
LINE
8
Gas
62
0
10
441.773310
20
631.067555
30
  0.000000
11
444.517967
21
631.238875
31
  0.000000
0
LINE
8
Gas
62
0
10
444.517967
20
631.238875
30
  0.000000
11
447.262508
21
631.412158
31
  0.000000
0
LINE
8
Gas
62
0
10
447.262508
20
631.412158
30
  0.000000
11
450.006946
21
631.587033
31
  0.000000
0
LINE
8
Gas
62
0
10
450.006946
20
631.587033
30
  0.000000
11
452.751294
21
631.763132
31
  0.000000
0
LINE
8
Gas
62
0
10
452.751294
20
631.763132
30
  0.000000
11
455.495564
21
631.940084
31
  0.000000
0
LINE
8
Gas
62
0
10
455.495564
20
631.940084
30
  0.000000
11
458.239769
21
632.117519
31
  0.000000
0
LINE
8
Gas
62
0
10
458.239769
20
632.117519
30
  0.000000
11
460.983921
21
632.295069
31
  0.000000
0
LINE
8
Gas
62
0
10
460.983921
20
632.295069
30
  0.000000
11
463.728035
21
632.472364
31
  0.000000
0
LINE
8
Gas
62
0
10
463.728035
20
632.472364
30
  0.000000
11
466.472122
21
632.649034
31
  0.000000
0
LINE
8
Gas
62
0
10
466.472122
20
632.649034
30
  0.000000
11
469.216194
21
632.824709
31
  0.000000
0
LINE
8
Gas
62
0
10
469.216194
20
632.824709
30
  0.000000
11
471.960266
21
632.999021
31
  0.000000
0
LINE
8
Gas
62
0
10
471.960266
20
632.999021
30
  0.000000
11
474.704349
21
633.171599
31
  0.000000
0
LINE
8
Gas
62
0
10
474.704349
20
633.171599
30
  0.000000
11
477.448456
21
633.342074
31
  0.000000
0
LINE
8
Gas
62
0
10
477.448456
20
633.342074
30
  0.000000
11
480.192600
21
633.510076
31
  0.000000
0
LINE
8
Gas
62
0
10
480.192600
20
633.510076
30
  0.000000
11
482.936794
21
633.675236
31
  0.000000
0
LINE
8
Gas
62
0
10
482.936794
20
633.675236
30
  0.000000
11
485.681050
21
633.837184
31
  0.000000
0
LINE
8
Gas
62
0
10
485.681050
20
633.837184
30
  0.000000
11
488.425381
21
633.995551
31
  0.000000
0
LINE
8
Gas
62
0
10
488.425381
20
633.995551
30
  0.000000
11
491.169800
21
634.149967
31
  0.000000
0
LINE
8
Gas
62
0
10
491.169800
20
634.149967
30
  0.000000
11
493.914320
21
634.300062
31
  0.000000
0
LINE
8
Gas
62
0
10
493.914320
20
634.300062
30
  0.000000
11
496.658954
21
634.445467
31
  0.000000
0
LINE
8
Gas
62
0
10
496.658954
20
634.445467
30
  0.000000
11
499.403713
21
634.585812
31
  0.000000
0
LINE
8
Gas
62
0
10
499.403713
20
634.585812
30
  0.000000
11
502.148611
21
634.720728
31
  0.000000
0
LINE
8
Gas
62
0
10
502.148611
20
634.720728
30
  0.000000
11
504.893661
21
634.849846
31
  0.000000
0
LINE
8
Gas
62
0
10
504.893661
20
634.849846
30
  0.000000
11
507.638875
21
634.972795
31
  0.000000
0
LINE
8
Gas
62
0
10
507.638875
20
634.972795
30
  0.000000
11
510.384267
21
635.089205
31
  0.000000
0
LINE
8
Gas
62
0
10
510.384267
20
635.089205
30
  0.000000
11
513.129848
21
635.198709
31
  0.000000
0
LINE
8
Gas
62
0
10
513.129848
20
635.198709
30
  0.000000
11
515.875631
21
635.300935
31
  0.000000
0
LINE
8
Gas
62
0
10
515.875631
20
635.300935
30
  0.000000
11
518.621630
21
635.395514
31
  0.000000
0
LINE
8
Gas
62
0
10
518.621630
20
635.395514
30
  0.000000
11
521.367857
21
635.482077
31
  0.000000
0
LINE
8
Gas
62
0
10
521.367857
20
635.482077
30
  0.000000
11
524.114324
21
635.560255
31
  0.000000
0
LINE
8
Gas
62
0
10
524.114324
20
635.560255
30
  0.000000
11
526.861045
21
635.629676
31
  0.000000
0
LINE
8
Gas
62
0
10
526.861045
20
635.629676
30
  0.000000
11
530.196893
21
635.701675
31
  0.000000
0
LINE
8
Gas
62
0
10
530.196893
20
635.701675
30
  0.000000
11
532.355296
21
635.740851
31
  0.000000
0
LINE
8
Gas
62
0
10
532.355296
20
635.740851
30
  0.000000
11
535.102829
21
635.782605
31
  0.000000
0
LINE
8
Gas
62
0
10
535.102829
20
635.782605
30
  0.000000
11
537.850613
21
635.815804
31
  0.000000
0
LINE
8
Gas
62
0
10
537.850613
20
635.815804
30
  0.000000
11
540.598632
21
635.841018
31
  0.000000
0
LINE
8
Gas
62
0
10
540.598632
20
635.841018
30
  0.000000
11
543.346869
21
635.858817
31
  0.000000
0
LINE
8
Gas
62
0
10
543.346869
20
635.858817
30
  0.000000
11
546.095307
21
635.869772
31
  0.000000
0
LINE
8
Gas
62
0
10
546.095307
20
635.869772
30
  0.000000
11
548.843930
21
635.874453
31
  0.000000
0
LINE
8
Gas
62
0
10
548.843930
20
635.874453
30
  0.000000
11
551.592721
21
635.873430
31
  0.000000
0
LINE
8
Gas
62
0
10
551.592721
20
635.873430
30
  0.000000
11
554.341663
21
635.867274
31
  0.000000
0
LINE
8
Gas
62
0
10
554.341663
20
635.867274
30
  0.000000
11
557.090739
21
635.856556
31
  0.000000
0
LINE
8
Gas
62
0
10
557.090739
20
635.856556
30
  0.000000
11
559.839932
21
635.841844
31
  0.000000
0
LINE
8
Gas
62
0
10
559.839932
20
635.841844
30
  0.000000
11
562.589226
21
635.823711
31
  0.000000
0
LINE
8
Gas
62
0
10
562.589226
20
635.823711
30
  0.000000
11
565.338604
21
635.802726
31
  0.000000
0
LINE
8
Gas
62
0
10
565.338604
20
635.802726
30
  0.000000
11
568.088050
21
635.779459
31
  0.000000
0
LINE
8
Gas
62
0
10
568.088050
20
635.779459
30
  0.000000
11
570.837545
21
635.754482
31
  0.000000
0
LINE
8
Gas
62
0
10
570.837545
20
635.754482
30
  0.000000
11
573.587074
21
635.728364
31
  0.000000
0
LINE
8
Gas
62
0
10
573.587074
20
635.728364
30
  0.000000
11
576.336620
21
635.701675
31
  0.000000
0
LINE
8
Gas
62
0
10
576.336620
20
635.701675
30
  0.000000
11
576.336597
21
 12.207000
31
  0.000000
0
LINE
8
Gas
62
0
10
1147.204726
20
879.998000
30
  0.000000
11
 10.207000
21
879.998000
31
  0.000000
0
LINE
8
Gas
62
0
10
 10.207000
20
879.998000
30
  0.000000
11
 10.207000
21
1099.997560
31
  0.000000
0
LINE
8
Gas
62
0
10
 10.207000
20
1099.997560
30
  0.000000
11
1147.204726
21
1099.997560
31
  0.000000
0
LINE
8
Gas
62
0
10
1147.204726
20
1099.997560
30
  0.000000
11
1147.204726
21
879.998000
31
  0.000000
0
LINE
8
Gas
62
0
10
1187.381252
20
657.618789
30
  0.000000
11
1182.382429
21
662.617655
31
  0.000000
0
LINE
8
Gas
62
0
10
1182.382429
20
662.617655
30
  0.000000
11
1182.382429
21
782.618316
31
  0.000000
0
LINE
8
Gas
62
0
10
1182.382429
20
782.618316
30
  0.000000
11
1187.381252
21
787.617161
31
  0.000000
0
LINE
8
Gas
62
0
10
1187.381252
20
787.617161
30
  0.000000
11
1237.380340
21
787.617161
31
  0.000000
0
LINE
8
Gas
62
0
10
1237.380340
20
787.617161
30
  0.000000
11
1242.379163
21
782.618316
31
  0.000000
0
LINE
8
Gas
62
0
10
1242.379163
20
782.618316
30
  0.000000
11
1242.379163
21
662.617655
31
  0.000000
0
LINE
8
Gas
62
0
10
1242.379163
20
662.617655
30
  0.000000
11
1237.380340
21
657.618789
31
  0.000000
0
LINE
8
Gas
62
0
10
1237.380340
20
657.618789
30
  0.000000
11
1187.381252
21
657.618789
31
  0.000000
0
LINE
8
Gas
62
0
10
1582.844974
20
688.218518
30
  0.000000
11
1587.843840
21
693.217341
31
  0.000000
0
LINE
8
Gas
62
0
10
1587.843840
20
693.217341
30
  0.000000
11
1707.844501
21
693.217341
31
  0.000000
0
LINE
8
Gas
62
0
10
1707.844501
20
693.217341
30
  0.000000
11
1712.843346
21
688.218518
31
  0.000000
0
LINE
8
Gas
62
0
10
1712.843346
20
688.218518
30
  0.000000
11
1712.843346
21
638.219430
31
  0.000000
0
LINE
8
Gas
62
0
10
1712.843346
20
638.219430
30
  0.000000
11
1707.844501
21
633.220607
31
  0.000000
0
LINE
8
Gas
62
0
10
1707.844501
20
633.220607
30
  0.000000
11
1587.843840
21
633.220607
31
  0.000000
0
LINE
8
Gas
62
0
10
1587.843840
20
633.220607
30
  0.000000
11
1582.844974
21
638.219430
31
  0.000000
0
LINE
8
Gas
62
0
10
1582.844974
20
638.219430
30
  0.000000
11
1582.844974
21
688.218518
31
  0.000000
0
LINE
8
Gas
62
0
10
1154.818436
20
1116.671519
30
  0.000000
11
1734.138419
21
1116.671519
31
  0.000000
0
LINE
8
Gas
62
0
10
1734.138419
20
1116.671519
30
  0.000000
11
1733.568454
21
1112.873866
31
  0.000000
0
LINE
8
Gas
62
0
10
1733.568454
20
1112.873866
30
  0.000000
11
1732.997693
21
1109.076323
31
  0.000000
0
LINE
8
Gas
62
0
10
1732.997693
20
1109.076323
30
  0.000000
11
1732.425343
21
1105.278998
31
  0.000000
0
LINE
8
Gas
62
0
10
1732.425343
20
1105.278998
30
  0.000000
11
1731.850609
21
1101.482002
31
  0.000000
0
LINE
8
Gas
62
0
10
1731.850609
20
1101.482002
30
  0.000000
11
1731.272695
21
1097.685444
31
  0.000000
0
LINE
8
Gas
62
0
10
1731.272695
20
1097.685444
30
  0.000000
11
1730.690807
21
1093.889433
31
  0.000000
0
LINE
8
Gas
62
0
10
1730.690807
20
1093.889433
30
  0.000000
11
1730.104151
21
1090.094079
31
  0.000000
0
LINE
8
Gas
62
0
10
1730.104151
20
1090.094079
30
  0.000000
11
1729.511931
21
1086.299491
31
  0.000000
0
LINE
8
Gas
62
0
10
1729.511931
20
1086.299491
30
  0.000000
11
1728.913352
21
1082.505780
31
  0.000000
0
LINE
8
Gas
62
0
10
1728.913352
20
1082.505780
30
  0.000000
11
1728.307621
21
1078.713053
31
  0.000000
0
LINE
8
Gas
62
0
10
1728.307621
20
1078.713053
30
  0.000000
11
1727.693941
21
1074.921422
31
  0.000000
0
LINE
8
Gas
62
0
10
1727.693941
20
1074.921422
30
  0.000000
11
1727.071518
21
1071.130995
31
  0.000000
0
LINE
8
Gas
62
0
10
1727.071518
20
1071.130995
30
  0.000000
11
1726.439558
21
1067.341881
31
  0.000000
0
LINE
8
Gas
62
0
10
1726.439558
20
1067.341881
30
  0.000000
11
1725.797266
21
1063.554191
31
  0.000000
0
LINE
8
Gas
62
0
10
1725.797266
20
1063.554191
30
  0.000000
11
1725.143846
21
1059.768034
31
  0.000000
0
LINE
8
Gas
62
0
10
1725.143846
20
1059.768034
30
  0.000000
11
1724.478504
21
1055.983519
31
  0.000000
0
LINE
8
Gas
62
0
10
1724.478504
20
1055.983519
30
  0.000000
11
1723.800446
21
1052.200756
31
  0.000000
0
LINE
8
Gas
62
0
10
1723.800446
20
1052.200756
30
  0.000000
11
1723.108876
21
1048.419853
31
  0.000000
0
LINE
8
Gas
62
0
10
1723.108876
20
1048.419853
30
  0.000000
11
1722.402999
21
1044.640922
31
  0.000000
0
LINE
8
Gas
62
0
10
1722.402999
20
1044.640922
30
  0.000000
11
1721.682021
21
1040.864071
31
  0.000000
0
LINE
8
Gas
62
0
10
1721.682021
20
1040.864071
30
  0.000000
11
1720.945147
21
1037.089409
31
  0.000000
0
LINE
8
Gas
62
0
10
1720.945147
20
1037.089409
30
  0.000000
11
1720.191583
21
1033.317047
31
  0.000000
0
LINE
8
Gas
62
0
10
1720.191583
20
1033.317047
30
  0.000000
11
1719.385258
21
1029.376764
31
  0.000000
0
LINE
8
Gas
62
0
10
1719.385258
20
1029.376764
30
  0.000000
11
1718.631324
21
1025.779668
31
  0.000000
0
LINE
8
Gas
62
0
10
1718.631324
20
1025.779668
30
  0.000000
11
1717.823842
21
1022.014941
31
  0.000000
0
LINE
8
Gas
62
0
10
1717.823842
20
1022.014941
30
  0.000000
11
1716.998133
21
1018.253093
31
  0.000000
0
LINE
8
Gas
62
0
10
1716.998133
20
1018.253093
30
  0.000000
11
1716.154243
21
1014.494309
31
  0.000000
0
LINE
8
Gas
62
0
10
1716.154243
20
1014.494309
30
  0.000000
11
1715.292216
21
1010.738771
31
  0.000000
0
LINE
8
Gas
62
0
10
1715.292216
20
1010.738771
30
  0.000000
11
1714.412099
21
1006.986662
31
  0.000000
0
LINE
8
Gas
62
0
10
1714.412099
20
1006.986662
30
  0.000000
11
1713.513936
21
1003.238164
31
  0.000000
0
LINE
8
Gas
62
0
10
1713.513936
20
1003.238164
30
  0.000000
11
1712.597775
21
999.493460
31
  0.000000
0
LINE
8
Gas
62
0
10
1712.597775
20
999.493460
30
  0.000000
11
1711.663659
21
995.752734
31
  0.000000
0
LINE
8
Gas
62
0
10
1711.663659
20
995.752734
30
  0.000000
11
1710.711634
21
992.016167
31
  0.000000
0
LINE
8
Gas
62
0
10
1710.711634
20
992.016167
30
  0.000000
11
1709.741747
21
988.283943
31
  0.000000
0
LINE
8
Gas
62
0
10
1709.741747
20
988.283943
30
  0.000000
11
1708.754043
21
984.556244
31
  0.000000
0
LINE
8
Gas
62
0
10
1708.754043
20
984.556244
30
  0.000000
11
1707.748567
21
980.833253
31
  0.000000
0
LINE
8
Gas
62
0
10
1707.748567
20
980.833253
30
  0.000000
11
1706.725365
21
977.115154
31
  0.000000
0
LINE
8
Gas
62
0
10
1706.725365
20
977.115154
30
  0.000000
11
1705.684482
21
973.402128
31
  0.000000
0
LINE
8
Gas
62
0
10
1705.684482
20
973.402128
30
  0.000000
11
1704.625964
21
969.694358
31
  0.000000
0
LINE
8
Gas
62
0
10
1704.625964
20
969.694358
30
  0.000000
11
1703.549857
21
965.992028
31
  0.000000
0
LINE
8
Gas
62
0
10
1703.549857
20
965.992028
30
  0.000000
11
1702.456205
21
962.295319
31
  0.000000
0
LINE
8
Gas
62
0
10
1702.456205
20
962.295319
30
  0.000000
11
1701.345056
21
958.604416
31
  0.000000
0
LINE
8
Gas
62
0
10
1701.345056
20
958.604416
30
  0.000000
11
1700.216453
21
954.919500
31
  0.000000
0
LINE
8
Gas
62
0
10
1700.216453
20
954.919500
30
  0.000000
11
1699.070443
21
951.240755
31
  0.000000
0
LINE
8
Gas
62
0
10
1699.070443
20
951.240755
30
  0.000000
11
1697.907072
21
947.568362
31
  0.000000
0
LINE
8
Gas
62
0
10
1697.907072
20
947.568362
30
  0.000000
11
1696.726384
21
943.902506
31
  0.000000
0
LINE
8
Gas
62
0
10
1696.726384
20
943.902506
30
  0.000000
11
1695.528426
21
940.243368
31
  0.000000
0
LINE
8
Gas
62
0
10
1695.528426
20
940.243368
30
  0.000000
11
1694.313242
21
936.591132
31
  0.000000
0
LINE
8
Gas
62
0
10
1694.313242
20
936.591132
30
  0.000000
11
1693.080880
21
932.945980
31
  0.000000
0
LINE
8
Gas
62
0
10
1693.080880
20
932.945980
30
  0.000000
11
1691.831383
21
929.308095
31
  0.000000
0
LINE
8
Gas
62
0
10
1691.831383
20
929.308095
30
  0.000000
11
1690.564798
21
925.677660
31
  0.000000
0
LINE
8
Gas
62
0
10
1690.564798
20
925.677660
30
  0.000000
11
1689.281170
21
922.054858
31
  0.000000
0
LINE
8
Gas
62
0
10
1689.281170
20
922.054858
30
  0.000000
11
1687.980545
21
918.439871
31
  0.000000
0
LINE
8
Gas
62
0
10
1687.980545
20
918.439871
30
  0.000000
11
1686.662968
21
914.832882
31
  0.000000
0
LINE
8
Gas
62
0
10
1686.662968
20
914.832882
30
  0.000000
11
1685.328485
21
911.234074
31
  0.000000
0
LINE
8
Gas
62
0
10
1685.328485
20
911.234074
30
  0.000000
11
1683.977141
21
907.643630
31
  0.000000
0
LINE
8
Gas
62
0
10
1683.977141
20
907.643630
30
  0.000000
11
1682.608983
21
904.061732
31
  0.000000
0
LINE
8
Gas
62
0
10
1682.608983
20
904.061732
30
  0.000000
11
1681.224054
21
900.488564
31
  0.000000
0
LINE
8
Gas
62
0
10
1681.224054
20
900.488564
30
  0.000000
11
1679.822402
21
896.924308
31
  0.000000
0
LINE
8
Gas
62
0
10
1679.822402
20
896.924308
30
  0.000000
11
1678.404072
21
893.369146
31
  0.000000
0
LINE
8
Gas
62
0
10
1678.404072
20
893.369146
30
  0.000000
11
1676.969109
21
889.823262
31
  0.000000
0
LINE
8
Gas
62
0
10
1676.969109
20
889.823262
30
  0.000000
11
1675.101142
21
885.281455
31
  0.000000
0
LINE
8
Gas
62
0
10
1675.101142
20
885.281455
30
  0.000000
11
1674.049478
21
882.760025
31
  0.000000
0
LINE
8
Gas
62
0
10
1674.049478
20
882.760025
30
  0.000000
11
1672.565050
21
879.242642
31
  0.000000
0
LINE
8
Gas
62
0
10
1672.565050
20
879.242642
30
  0.000000
11
1671.064521
21
875.734326
31
  0.000000
0
LINE
8
Gas
62
0
10
1671.064521
20
875.734326
30
  0.000000
11
1669.548143
21
872.234710
31
  0.000000
0
LINE
8
Gas
62
0
10
1669.548143
20
872.234710
30
  0.000000
11
1668.016165
21
868.743427
31
  0.000000
0
LINE
8
Gas
62
0
10
1668.016165
20
868.743427
30
  0.000000
11
1666.468837
21
865.260111
31
  0.000000
0
LINE
8
Gas
62
0
10
1666.468837
20
865.260111
30
  0.000000
11
1664.906410
21
861.784396
31
  0.000000
0
LINE
8
Gas
62
0
10
1664.906410
20
861.784396
30
  0.000000
11
1663.329133
21
858.315915
31
  0.000000
0
LINE
8
Gas
62
0
10
1663.329133
20
858.315915
30
  0.000000
11
1661.737257
21
854.854301
31
  0.000000
0
LINE
8
Gas
62
0
10
1661.737257
20
854.854301
30
  0.000000
11
1660.131031
21
851.399188
31
  0.000000
0
LINE
8
Gas
62
0
10
1660.131031
20
851.399188
30
  0.000000
11
1658.510706
21
847.950209
31
  0.000000
0
LINE
8
Gas
62
0
10
1658.510706
20
847.950209
30
  0.000000
11
1656.876532
21
844.506999
31
  0.000000
0
LINE
8
Gas
62
0
10
1656.876532
20
844.506999
30
  0.000000
11
1655.228759
21
841.069190
31
  0.000000
0
LINE
8
Gas
62
0
10
1655.228759
20
841.069190
30
  0.000000
11
1653.567636
21
837.636415
31
  0.000000
0
LINE
8
Gas
62
0
10
1653.567636
20
837.636415
30
  0.000000
11
1651.893415
21
834.208309
31
  0.000000
0
LINE
8
Gas
62
0
10
1651.893415
20
834.208309
30
  0.000000
11
1650.206344
21
830.784505
31
  0.000000
0
LINE
8
Gas
62
0
10
1650.206344
20
830.784505
30
  0.000000
11
1648.506674
21
827.364636
31
  0.000000
0
LINE
8
Gas
62
0
10
1648.506674
20
827.364636
30
  0.000000
11
1646.794656
21
823.948335
31
  0.000000
0
LINE
8
Gas
62
0
10
1646.794656
20
823.948335
30
  0.000000
11
1645.070539
21
820.535237
31
  0.000000
0
LINE
8
Gas
62
0
10
1645.070539
20
820.535237
30
  0.000000
11
1643.334573
21
817.124975
31
  0.000000
0
LINE
8
Gas
62
0
10
1643.334573
20
817.124975
30
  0.000000
11
1641.587008
21
813.717181
31
  0.000000
0
LINE
8
Gas
62
0
10
1641.587008
20
813.717181
30
  0.000000
11
1639.828095
21
810.311491
31
  0.000000
0
LINE
8
Gas
62
0
10
1639.828095
20
810.311491
30
  0.000000
11
1638.058083
21
806.907536
31
  0.000000
0
LINE
8
Gas
62
0
10
1638.058083
20
806.907536
30
  0.000000
11
1636.277223
21
803.504952
31
  0.000000
0
LINE
8
Gas
62
0
10
1636.277223
20
803.504952
30
  0.000000
11
1634.485764
21
800.103370
31
  0.000000
0
LINE
8
Gas
62
0
10
1634.485764
20
800.103370
30
  0.000000
11
1632.683956
21
796.702425
31
  0.000000
0
LINE
8
Gas
62
0
10
1632.683956
20
796.702425
30
  0.000000
11
1630.872051
21
793.301750
31
  0.000000
0
LINE
8
Gas
62
0
10
1630.872051
20
793.301750
30
  0.000000
11
1629.050297
21
789.900978
31
  0.000000
0
LINE
8
Gas
62
0
10
1629.050297
20
789.900978
30
  0.000000
11
1627.218945
21
786.499743
31
  0.000000
0
LINE
8
Gas
62
0
10
1627.218945
20
786.499743
30
  0.000000
11
1625.378245
21
783.097679
31
  0.000000
0
LINE
8
Gas
62
0
10
1625.378245
20
783.097679
30
  0.000000
11
1623.528447
21
779.694419
31
  0.000000
0
LINE
8
Gas
62
0
10
1623.528447
20
779.694419
30
  0.000000
11
1621.669800
21
776.289597
31
  0.000000
0
LINE
8
Gas
62
0
10
1621.669800
20
776.289597
30
  0.000000
11
1619.802556
21
772.882845
31
  0.000000
0
LINE
8
Gas
62
0
10
1619.802556
20
772.882845
30
  0.000000
11
1617.926964
21
769.473797
31
  0.000000
0
LINE
8
Gas
62
0
10
1617.926964
20
769.473797
30
  0.000000
11
1616.043274
21
766.062088
31
  0.000000
0
LINE
8
Gas
62
0
10
1616.043274
20
766.062088
30
  0.000000
11
1614.151736
21
762.647350
31
  0.000000
0
LINE
8
Gas
62
0
10
1614.151736
20
762.647350
30
  0.000000
11
1612.252601
21
759.229217
31
  0.000000
0
LINE
8
Gas
62
0
10
1612.252601
20
759.229217
30
  0.000000
11
1610.346118
21
755.807322
31
  0.000000
0
LINE
8
Gas
62
0
10
1610.346118
20
755.807322
30
  0.000000
11
1608.432537
21
752.381298
31
  0.000000
0
LINE
8
Gas
62
0
10
1608.432537
20
752.381298
30
  0.000000
11
1607.353905
21
750.453606
31
  0.000000
0
LINE
8
Gas
62
0
10
1607.353905
20
750.453606
30
  0.000000
11
1604.583569
21
745.517468
31
  0.000000
0
LINE
8
Gas
62
0
10
1604.583569
20
745.517468
30
  0.000000
11
1602.644328
21
742.084869
31
  0.000000
0
LINE
8
Gas
62
0
10
1602.644328
20
742.084869
30
  0.000000
11
1600.691537
21
738.656847
31
  0.000000
0
LINE
8
Gas
62
0
10
1600.691537
20
738.656847
30
  0.000000
11
1598.722390
21
735.237206
31
  0.000000
0
LINE
8
Gas
62
0
10
1598.722390
20
735.237206
30
  0.000000
11
1596.734078
21
731.829754
31
  0.000000
0
LINE
8
Gas
62
0
10
1596.734078
20
731.829754
30
  0.000000
11
1594.723796
21
728.438294
31
  0.000000
0
LINE
8
Gas
62
0
10
1594.723796
20
728.438294
30
  0.000000
11
1592.688736
21
725.066633
31
  0.000000
0
LINE
8
Gas
62
0
10
1592.688736
20
725.066633
30
  0.000000
11
1590.626091
21
721.718576
31
  0.000000
0
LINE
8
Gas
62
0
10
1590.626091
20
721.718576
30
  0.000000
11
1588.533055
21
718.397929
31
  0.000000
0
LINE
8
Gas
62
0
10
1588.533055
20
718.397929
30
  0.000000
11
1586.406820
21
715.108497
31
  0.000000
0
LINE
8
Gas
62
0
10
1586.406820
20
715.108497
30
  0.000000
11
1584.244579
21
711.854085
31
  0.000000
0
LINE
8
Gas
62
0
10
1584.244579
20
711.854085
30
  0.000000
11
1582.043526
21
708.638499
31
  0.000000
0
LINE
8
Gas
62
0
10
1582.043526
20
708.638499
30
  0.000000
11
1579.800854
21
705.465545
31
  0.000000
0
LINE
8
Gas
62
0
10
1579.800854
20
705.465545
30
  0.000000
11
1577.513756
21
702.339028
31
  0.000000
0
LINE
8
Gas
62
0
10
1577.513756
20
702.339028
30
  0.000000
11
1575.179424
21
699.262753
31
  0.000000
0
LINE
8
Gas
62
0
10
1575.179424
20
699.262753
30
  0.000000
11
1572.795052
21
696.240526
31
  0.000000
0
LINE
8
Gas
62
0
10
1572.795052
20
696.240526
30
  0.000000
11
1570.357832
21
693.276153
31
  0.000000
0
LINE
8
Gas
62
0
10
1570.357832
20
693.276153
30
  0.000000
11
1567.864959
21
690.373438
31
  0.000000
0
LINE
8
Gas
62
0
10
1567.864959
20
690.373438
30
  0.000000
11
1565.313625
21
687.536188
31
  0.000000
0
LINE
8
Gas
62
0
10
1565.313625
20
687.536188
30
  0.000000
11
1562.701023
21
684.768208
31
  0.000000
0
LINE
8
Gas
62
0
10
1562.701023
20
684.768208
30
  0.000000
11
1560.024346
21
682.073304
31
  0.000000
0
LINE
8
Gas
62
0
10
1560.024346
20
682.073304
30
  0.000000
11
1557.280787
21
679.455280
31
  0.000000
0
LINE
8
Gas
62
0
10
1557.280787
20
679.455280
30
  0.000000
11
1554.467539
21
676.917942
31
  0.000000
0
LINE
8
Gas
62
0
10
1554.467539
20
676.917942
30
  0.000000
11
1551.581796
21
674.465096
31
  0.000000
0
LINE
8
Gas
62
0
10
1551.581796
20
674.465096
30
  0.000000
11
1548.620750
21
672.100548
31
  0.000000
0
LINE
8
Gas
62
0
10
1548.620750
20
672.100548
30
  0.000000
11
1545.540231
21
669.798225
31
  0.000000
0
LINE
8
Gas
62
0
10
1545.540231
20
669.798225
30
  0.000000
11
1542.462731
21
667.650683
31
  0.000000
0
LINE
8
Gas
62
0
10
1542.462731
20
667.650683
30
  0.000000
11
1539.267593
21
665.567536
31
  0.000000
0
LINE
8
Gas
62
0
10
1539.267593
20
665.567536
30
  0.000000
11
1536.000925
21
663.576954
31
  0.000000
0
LINE
8
Gas
62
0
10
1536.000925
20
663.576954
30
  0.000000
11
1532.667470
21
661.677227
31
  0.000000
0
LINE
8
Gas
62
0
10
1532.667470
20
661.677227
30
  0.000000
11
1529.271972
21
659.866646
31
  0.000000
0
LINE
8
Gas
62
0
10
1529.271972
20
659.866646
30
  0.000000
11
1525.819174
21
658.143503
31
  0.000000
0
LINE
8
Gas
62
0
10
1525.819174
20
658.143503
30
  0.000000
11
1522.313821
21
656.506087
31
  0.000000
0
LINE
8
Gas
62
0
10
1522.313821
20
656.506087
30
  0.000000
11
1518.760656
21
654.952691
31
  0.000000
0
LINE
8
Gas
62
0
10
1518.760656
20
654.952691
30
  0.000000
11
1515.164423
21
653.481605
31
  0.000000
0
LINE
8
Gas
62
0
10
1515.164423
20
653.481605
30
  0.000000
11
1511.529865
21
652.091120
31
  0.000000
0
LINE
8
Gas
62
0
10
1511.529865
20
652.091120
30
  0.000000
11
1507.740202
21
650.737584
31
  0.000000
0
LINE
8
Gas
62
0
10
1507.740202
20
650.737584
30
  0.000000
11
1504.164298
21
649.545375
31
  0.000000
0
LINE
8
Gas
62
0
10
1504.164298
20
649.545375
30
  0.000000
11
1500.439873
21
648.388350
31
  0.000000
0
LINE
8
Gas
62
0
10
1500.439873
20
648.388350
30
  0.000000
11
1496.690195
21
647.308453
31
  0.000000
0
LINE
8
Gas
62
0
10
1496.690195
20
647.308453
30
  0.000000
11
1492.917003
21
646.305684
31
  0.000000
0
LINE
8
Gas
62
0
10
1492.917003
20
646.305684
30
  0.000000
11
1489.122041
21
645.380045
31
  0.000000
0
LINE
8
Gas
62
0
10
1489.122041
20
645.380045
30
  0.000000
11
1485.307050
21
644.531536
31
  0.000000
0
LINE
8
Gas
62
0
10
1485.307050
20
644.531536
30
  0.000000
11
1481.473772
21
643.760157
31
  0.000000
0
LINE
8
Gas
62
0
10
1481.473772
20
643.760157
30
  0.000000
11
1477.623949
21
643.065909
31
  0.000000
0
LINE
8
Gas
62
0
10
1477.623949
20
643.065909
30
  0.000000
11
1473.759323
21
642.448793
31
  0.000000
0
LINE
8
Gas
62
0
10
1473.759323
20
642.448793
30
  0.000000
11
1469.881636
21
641.908809
31
  0.000000
0
LINE
8
Gas
62
0
10
1469.881636
20
641.908809
30
  0.000000
11
1465.992628
21
641.445959
31
  0.000000
0
LINE
8
Gas
62
0
10
1465.992628
20
641.445959
30
  0.000000
11
1462.094043
21
641.060242
31
  0.000000
0
LINE
8
Gas
62
0
10
1462.094043
20
641.060242
30
  0.000000
11
1458.187622
21
640.751660
31
  0.000000
0
LINE
8
Gas
62
0
10
1458.187622
20
640.751660
30
  0.000000
11
1454.275108
21
640.520212
31
  0.000000
0
LINE
8
Gas
62
0
10
1454.275108
20
640.520212
30
  0.000000
11
1450.358240
21
640.365901
31
  0.000000
0
LINE
8
Gas
62
0
10
1450.358240
20
640.365901
30
  0.000000
11
1446.438763
21
640.288725
31
  0.000000
0
LINE
8
Gas
62
0
10
1446.438763
20
640.288725
30
  0.000000
11
1442.518417
21
640.288687
31
  0.000000
0
LINE
8
Gas
62
0
10
1442.518417
20
640.288687
30
  0.000000
11
1438.598945
21
640.365786
31
  0.000000
0
LINE
8
Gas
62
0
10
1438.598945
20
640.365786
30
  0.000000
11
1434.682087
21
640.520023
31
  0.000000
0
LINE
8
Gas
62
0
10
1434.682087
20
640.520023
30
  0.000000
11
1430.769587
21
640.751399
31
  0.000000
0
LINE
8
Gas
62
0
10
1430.769587
20
640.751399
30
  0.000000
11
1426.863186
21
641.059915
31
  0.000000
0
LINE
8
Gas
62
0
10
1426.863186
20
641.059915
30
  0.000000
11
1422.964626
21
641.445571
31
  0.000000
0
LINE
8
Gas
62
0
10
1422.964626
20
641.445571
30
  0.000000
11
1419.075648
21
641.908367
31
  0.000000
0
LINE
8
Gas
62
0
10
1419.075648
20
641.908367
30
  0.000000
11
1415.197995
21
642.448305
31
  0.000000
0
LINE
8
Gas
62
0
10
1415.197995
20
642.448305
30
  0.000000
11
1411.333408
21
643.065385
31
  0.000000
0
LINE
8
Gas
62
0
10
1411.333408
20
643.065385
30
  0.000000
11
1407.483629
21
643.759608
31
  0.000000
0
LINE
8
Gas
62
0
10
1407.483629
20
643.759608
30
  0.000000
11
1403.650400
21
644.530974
31
  0.000000
0
LINE
8
Gas
62
0
10
1403.650400
20
644.530974
30
  0.000000
11
1399.835463
21
645.379485
31
  0.000000
0
LINE
8
Gas
62
0
10
1399.835463
20
645.379485
30
  0.000000
11
1396.040560
21
646.305140
31
  0.000000
0
LINE
8
Gas
62
0
10
1396.040560
20
646.305140
30
  0.000000
11
1392.267432
21
647.307940
31
  0.000000
0
LINE
8
Gas
62
0
10
1392.267432
20
647.307940
30
  0.000000
11
1388.517822
21
648.387886
31
  0.000000
0
LINE
8
Gas
62
0
10
1388.517822
20
648.387886
30
  0.000000
11
1384.793471
21
649.544979
31
  0.000000
0
LINE
8
Gas
62
0
10
1384.793471
20
649.544979
30
  0.000000
11
1381.216740
21
650.737584
31
  0.000000
0
LINE
8
Gas
62
0
10
1381.216740
20
650.737584
30
  0.000000
11
1377.428066
21
652.090920
31
  0.000000
0
LINE
8
Gas
62
0
10
1377.428066
20
652.090920
30
  0.000000
11
1373.793594
21
653.481530
31
  0.000000
0
LINE
8
Gas
62
0
10
1373.793594
20
653.481530
30
  0.000000
11
1370.197447
21
654.952754
31
  0.000000
0
LINE
8
Gas
62
0
10
1370.197447
20
654.952754
30
  0.000000
11
1366.644369
21
656.506299
31
  0.000000
0
LINE
8
Gas
62
0
10
1366.644369
20
656.506299
30
  0.000000
11
1363.139101
21
658.143870
31
  0.000000
0
LINE
8
Gas
62
0
10
1363.139101
20
658.143870
30
  0.000000
11
1359.686386
21
659.867171
31
  0.000000
0
LINE
8
Gas
62
0
10
1359.686386
20
659.867171
30
  0.000000
11
1356.290966
21
661.677910
31
  0.000000
0
LINE
8
Gas
62
0
10
1356.290966
20
661.677910
30
  0.000000
11
1352.957583
21
663.577790
31
  0.000000
0
LINE
8
Gas
62
0
10
1352.957583
20
663.577790
30
  0.000000
11
1349.690980
21
665.568518
31
  0.000000
0
LINE
8
Gas
62
0
10
1349.690980
20
665.568518
30
  0.000000
11
1346.495899
21
667.651800
31
  0.000000
0
LINE
8
Gas
62
0
10
1346.495899
20
667.651800
30
  0.000000
11
1343.420156
21
669.798225
31
  0.000000
0
LINE
8
Gas
62
0
10
1343.420156
20
669.798225
30
  0.000000
11
1340.337960
21
672.101886
31
  0.000000
0
LINE
8
Gas
62
0
10
1340.337960
20
672.101886
30
  0.000000
11
1337.376933
21
674.466515
31
  0.000000
0
LINE
8
Gas
62
0
10
1337.376933
20
674.466515
30
  0.000000
11
1334.491195
21
676.919423
31
  0.000000
0
LINE
8
Gas
62
0
10
1334.491195
20
676.919423
30
  0.000000
11
1331.677940
21
679.456804
31
  0.000000
0
LINE
8
Gas
62
0
10
1331.677940
20
679.456804
30
  0.000000
11
1328.934361
21
682.074855
31
  0.000000
0
LINE
8
Gas
62
0
10
1328.934361
20
682.074855
30
  0.000000
11
1326.257653
21
684.769770
31
  0.000000
0
LINE
8
Gas
62
0
10
1326.257653
20
684.769770
30
  0.000000
11
1323.645009
21
687.537747
31
  0.000000
0
LINE
8
Gas
62
0
10
1323.645009
20
687.537747
30
  0.000000
11
1321.093623
21
690.374979
31
  0.000000
0
LINE
8
Gas
62
0
10
1321.093623
20
690.374979
30
  0.000000
11
1318.600689
21
693.277663
31
  0.000000
0
LINE
8
Gas
62
0
10
1318.600689
20
693.277663
30
  0.000000
11
1316.163402
21
696.241994
31
  0.000000
0
LINE
8
Gas
62
0
10
1316.163402
20
696.241994
30
  0.000000
11
1313.778955
21
699.264168
31
  0.000000
0
LINE
8
Gas
62
0
10
1313.778955
20
699.264168
30
  0.000000
11
1311.444541
21
702.340380
31
  0.000000
0
LINE
8
Gas
62
0
10
1311.444541
20
702.340380
30
  0.000000
11
1309.157355
21
705.466826
31
  0.000000
0
LINE
8
Gas
62
0
10
1309.157355
20
705.466826
30
  0.000000
11
1306.914591
21
708.639702
31
  0.000000
0
LINE
8
Gas
62
0
10
1306.914591
20
708.639702
30
  0.000000
11
1304.713443
21
711.855203
31
  0.000000
0
LINE
8
Gas
62
0
10
1304.713443
20
711.855203
30
  0.000000
11
1302.551103
21
715.109525
31
  0.000000
0
LINE
8
Gas
62
0
10
1302.551103
20
715.109525
30
  0.000000
11
1300.424768
21
718.398863
31
  0.000000
0
LINE
8
Gas
62
0
10
1300.424768
20
718.398863
30
  0.000000
11
1298.331629
21
721.719413
31
  0.000000
0
LINE
8
Gas
62
0
10
1298.331629
20
721.719413
30
  0.000000
11
1296.268882
21
725.067370
31
  0.000000
0
LINE
8
Gas
62
0
10
1296.268882
20
725.067370
30
  0.000000
11
1294.233720
21
728.438931
31
  0.000000
0
LINE
8
Gas
62
0
10
1294.233720
20
728.438931
30
  0.000000
11
1292.223336
21
731.830290
31
  0.000000
0
LINE
8
Gas
62
0
10
1292.223336
20
731.830290
30
  0.000000
11
1290.234926
21
735.237643
31
  0.000000
0
LINE
8
Gas
62
0
10
1290.234926
20
735.237643
30
  0.000000
11
1288.265682
21
738.657186
31
  0.000000
0
LINE
8
Gas
62
0
10
1288.265682
20
738.657186
30
  0.000000
11
1286.312799
21
742.085114
31
  0.000000
0
LINE
8
Gas
62
0
10
1286.312799
20
742.085114
30
  0.000000
11
1284.373471
21
745.517623
31
  0.000000
0
LINE
8
Gas
62
0
10
1284.373471
20
745.517623
30
  0.000000
11
1281.603037
21
750.453606
31
  0.000000
0
LINE
8
Gas
62
0
10
1281.603037
20
750.453606
30
  0.000000
11
1280.524343
21
752.381290
31
  0.000000
0
LINE
8
Gas
62
0
10
1280.524343
20
752.381290
30
  0.000000
11
1278.610693
21
755.807241
31
  0.000000
0
LINE
8
Gas
62
0
10
1278.610693
20
755.807241
30
  0.000000
11
1276.704146
21
759.229071
31
  0.000000
0
LINE
8
Gas
62
0
10
1276.704146
20
759.229071
30
  0.000000
11
1274.804953
21
762.647145
31
  0.000000
0
LINE
8
Gas
62
0
10
1274.804953
20
762.647145
30
  0.000000
11
1272.913364
21
766.061831
31
  0.000000
0
LINE
8
Gas
62
0
10
1272.913364
20
766.061831
30
  0.000000
11
1271.029628
21
769.473493
31
  0.000000
0
LINE
8
Gas
62
0
10
1271.029628
20
769.473493
30
  0.000000
11
1269.153995
21
772.882499
31
  0.000000
0
LINE
8
Gas
62
0
10
1269.153995
20
772.882499
30
  0.000000
11
1267.286715
21
776.289215
31
  0.000000
0
LINE
8
Gas
62
0
10
1267.286715
20
776.289215
30
  0.000000
11
1265.428038
21
779.694007
31
  0.000000
0
LINE
8
Gas
62
0
10
1265.428038
20
779.694007
30
  0.000000
11
1263.578214
21
783.097242
31
  0.000000
0
LINE
8
Gas
62
0
10
1263.578214
20
783.097242
30
  0.000000
11
1261.737493
21
786.499285
31
  0.000000
0
LINE
8
Gas
62
0
10
1261.737493
20
786.499285
30
  0.000000
11
1259.906124
21
789.900503
31
  0.000000
0
LINE
8
Gas
62
0
10
1259.906124
20
789.900503
30
  0.000000
11
1258.084358
21
793.301263
31
  0.000000
0
LINE
8
Gas
62
0
10
1258.084358
20
793.301263
30
  0.000000
11
1256.272443
21
796.701930
31
  0.000000
0
LINE
8
Gas
62
0
10
1256.272443
20
796.701930
30
  0.000000
11
1254.470631
21
800.102871
31
  0.000000
0
LINE
8
Gas
62
0
10
1254.470631
20
800.102871
30
  0.000000
11
1252.679171
21
803.504452
31
  0.000000
0
LINE
8
Gas
62
0
10
1252.679171
20
803.504452
30
  0.000000
11
1250.898312
21
806.907040
31
  0.000000
0
LINE
8
Gas
62
0
10
1250.898312
20
806.907040
30
  0.000000
11
1249.128305
21
810.311000
31
  0.000000
0
LINE
8
Gas
62
0
10
1249.128305
20
810.311000
30
  0.000000
11
1247.369400
21
813.716700
31
  0.000000
0
LINE
8
Gas
62
0
10
1247.369400
20
813.716700
30
  0.000000
11
1245.621846
21
817.124505
31
  0.000000
0
LINE
8
Gas
62
0
10
1245.621846
20
817.124505
30
  0.000000
11
1243.885892
21
820.534782
31
  0.000000
0
LINE
8
Gas
62
0
10
1243.885892
20
820.534782
30
  0.000000
11
1242.161790
21
823.947897
31
  0.000000
0
LINE
8
Gas
62
0
10
1242.161790
20
823.947897
30
  0.000000
11
1240.449789
21
827.364216
31
  0.000000
0
LINE
8
Gas
62
0
10
1240.449789
20
827.364216
30
  0.000000
11
1238.750139
21
830.784105
31
  0.000000
0
LINE
8
Gas
62
0
10
1238.750139
20
830.784105
30
  0.000000
11
1237.063089
21
834.207932
31
  0.000000
0
LINE
8
Gas
62
0
10
1237.063089
20
834.207932
30
  0.000000
11
1235.388889
21
837.636062
31
  0.000000
0
LINE
8
Gas
62
0
10
1235.388889
20
837.636062
30
  0.000000
11
1233.727790
21
841.068861
31
  0.000000
0
LINE
8
Gas
62
0
10
1233.727790
20
841.068861
30
  0.000000
11
1232.080041
21
844.506697
31
  0.000000
0
LINE
8
Gas
62
0
10
1232.080041
20
844.506697
30
  0.000000
11
1230.445891
21
847.949934
31
  0.000000
0
LINE
8
Gas
62
0
10
1230.445891
20
847.949934
30
  0.000000
11
1228.825592
21
851.398940
31
  0.000000
0
LINE
8
Gas
62
0
10
1228.825592
20
851.398940
30
  0.000000
11
1227.219392
21
854.854080
31
  0.000000
0
LINE
8
Gas
62
0
10
1227.219392
20
854.854080
30
  0.000000
11
1225.627542
21
858.315722
31
  0.000000
0
LINE
8
Gas
62
0
10
1225.627542
20
858.315722
30
  0.000000
11
1224.050291
21
861.784231
31
  0.000000
0
LINE
8
Gas
62
0
10
1224.050291
20
861.784231
30
  0.000000
11
1222.487889
21
865.259973
31
  0.000000
0
LINE
8
Gas
62
0
10
1222.487889
20
865.259973
30
  0.000000
11
1220.940586
21
868.743315
31
  0.000000
0
LINE
8
Gas
62
0
10
1220.940586
20
868.743315
30
  0.000000
11
1219.408633
21
872.234624
31
  0.000000
0
LINE
8
Gas
62
0
10
1219.408633
20
872.234624
30
  0.000000
11
1217.892278
21
875.734265
31
  0.000000
0
LINE
8
Gas
62
0
10
1217.892278
20
875.734265
30
  0.000000
11
1216.391771
21
879.242605
31
  0.000000
0
LINE
8
Gas
62
0
10
1216.391771
20
879.242605
30
  0.000000
11
1214.907363
21
882.760010
31
  0.000000
0
LINE
8
Gas
62
0
10
1214.907363
20
882.760010
30
  0.000000
11
1213.855714
21
885.281455
31
  0.000000
0
LINE
8
Gas
62
0
10
1213.855714
20
885.281455
30
  0.000000
11
1211.987770
21
889.823287
31
  0.000000
0
LINE
8
Gas
62
0
10
1211.987770
20
889.823287
30
  0.000000
11
1210.552823
21
893.369187
31
  0.000000
0
LINE
8
Gas
62
0
10
1210.552823
20
893.369187
30
  0.000000
11
1209.134507
21
896.924364
31
  0.000000
0
LINE
8
Gas
62
0
10
1209.134507
20
896.924364
30
  0.000000
11
1207.732868
21
900.488634
31
  0.000000
0
LINE
8
Gas
62
0
10
1207.732868
20
900.488634
30
  0.000000
11
1206.347951
21
904.061815
31
  0.000000
0
LINE
8
Gas
62
0
10
1206.347951
20
904.061815
30
  0.000000
11
1204.979802
21
907.643723
31
  0.000000
0
LINE
8
Gas
62
0
10
1204.979802
20
907.643723
30
  0.000000
11
1203.628467
21
911.234176
31
  0.000000
0
LINE
8
Gas
62
0
10
1203.628467
20
911.234176
30
  0.000000
11
1202.293991
21
914.832992
31
  0.000000
0
LINE
8
Gas
62
0
10
1202.293991
20
914.832992
30
  0.000000
11
1200.976421
21
918.439987
31
  0.000000
0
LINE
8
Gas
62
0
10
1200.976421
20
918.439987
30
  0.000000
11
1199.675800
21
922.054980
31
  0.000000
0
LINE
8
Gas
62
0
10
1199.675800
20
922.054980
30
  0.000000
11
1198.392176
21
925.677786
31
  0.000000
0
LINE
8
Gas
62
0
10
1198.392176
20
925.677786
30
  0.000000
11
1197.125594
21
929.308224
31
  0.000000
0
LINE
8
Gas
62
0
10
1197.125594
20
929.308224
30
  0.000000
11
1195.876099
21
932.946111
31
  0.000000
0
LINE
8
Gas
62
0
10
1195.876099
20
932.946111
30
  0.000000
11
1194.643737
21
936.591263
31
  0.000000
0
LINE
8
Gas
62
0
10
1194.643737
20
936.591263
30
  0.000000
11
1193.428553
21
940.243499
31
  0.000000
0
LINE
8
Gas
62
0
10
1193.428553
20
940.243499
30
  0.000000
11
1192.230594
21
943.902636
31
  0.000000
0
LINE
8
Gas
62
0
10
1192.230594
20
943.902636
30
  0.000000
11
1191.049904
21
947.568490
31
  0.000000
0
LINE
8
Gas
62
0
10
1191.049904
20
947.568490
30
  0.000000
11
1189.886530
21
951.240880
31
  0.000000
0
LINE
8
Gas
62
0
10
1189.886530
20
951.240880
30
  0.000000
11
1188.740517
21
954.919622
31
  0.000000
0
LINE
8
Gas
62
0
10
1188.740517
20
954.919622
30
  0.000000
11
1187.611911
21
958.604534
31
  0.000000
0
LINE
8
Gas
62
0
10
1187.611911
20
958.604534
30
  0.000000
11
1186.500757
21
962.295433
31
  0.000000
0
LINE
8
Gas
62
0
10
1186.500757
20
962.295433
30
  0.000000
11
1185.407101
21
965.992136
31
  0.000000
0
LINE
8
Gas
62
0
10
1185.407101
20
965.992136
30
  0.000000
11
1184.330988
21
969.694460
31
  0.000000
0
LINE
8
Gas
62
0
10
1184.330988
20
969.694460
30
  0.000000
11
1183.272465
21
973.402224
31
  0.000000
0
LINE
8
Gas
62
0
10
1183.272465
20
973.402224
30
  0.000000
11
1182.231576
21
977.115244
31
  0.000000
0
LINE
8
Gas
62
0
10
1182.231576
20
977.115244
30
  0.000000
11
1181.208367
21
980.833337
31
  0.000000
0
LINE
8
Gas
62
0
10
1181.208367
20
980.833337
30
  0.000000
11
1180.202885
21
984.556321
31
  0.000000
0
LINE
8
Gas
62
0
10
1180.202885
20
984.556321
30
  0.000000
11
1179.215174
21
988.284013
31
  0.000000
0
LINE
8
Gas
62
0
10
1179.215174
20
988.284013
30
  0.000000
11
1178.245280
21
992.016230
31
  0.000000
0
LINE
8
Gas
62
0
10
1178.245280
20
992.016230
30
  0.000000
11
1177.293249
21
995.752789
31
  0.000000
0
LINE
8
Gas
62
0
10
1177.293249
20
995.752789
30
  0.000000
11
1176.359127
21
999.493509
31
  0.000000
0
LINE
8
Gas
62
0
10
1176.359127
20
999.493509
30
  0.000000
11
1175.442958
21
1003.238205
31
  0.000000
0
LINE
8
Gas
62
0
10
1175.442958
20
1003.238205
30
  0.000000
11
1174.544789
21
1006.986696
31
  0.000000
0
LINE
8
Gas
62
0
10
1174.544789
20
1006.986696
30
  0.000000
11
1173.664666
21
1010.738799
31
  0.000000
0
LINE
8
Gas
62
0
10
1173.664666
20
1010.738799
30
  0.000000
11
1172.802633
21
1014.494331
31
  0.000000
0
LINE
8
Gas
62
0
10
1172.802633
20
1014.494331
30
  0.000000
11
1171.958737
21
1018.253109
31
  0.000000
0
LINE
8
Gas
62
0
10
1171.958737
20
1018.253109
30
  0.000000
11
1171.133023
21
1022.014950
31
  0.000000
0
LINE
8
Gas
62
0
10
1171.133023
20
1022.014950
30
  0.000000
11
1170.325536
21
1025.779672
31
  0.000000
0
LINE
8
Gas
62
0
10
1170.325536
20
1025.779672
30
  0.000000
11
1169.571598
21
1029.376764
31
  0.000000
0
LINE
8
Gas
62
0
10
1169.571598
20
1029.376764
30
  0.000000
11
1168.765269
21
1033.317043
31
  0.000000
0
LINE
8
Gas
62
0
10
1168.765269
20
1033.317043
30
  0.000000
11
1168.011701
21
1037.089401
31
  0.000000
0
LINE
8
Gas
62
0
10
1168.011701
20
1037.089401
30
  0.000000
11
1167.274824
21
1040.864060
31
  0.000000
0
LINE
8
Gas
62
0
10
1167.274824
20
1040.864060
30
  0.000000
11
1166.553844
21
1044.640909
31
  0.000000
0
LINE
8
Gas
62
0
10
1166.553844
20
1044.640909
30
  0.000000
11
1165.847966
21
1048.419838
31
  0.000000
0
LINE
8
Gas
62
0
10
1165.847966
20
1048.419838
30
  0.000000
11
1165.156394
21
1052.200738
31
  0.000000
0
LINE
8
Gas
62
0
10
1165.156394
20
1052.200738
30
  0.000000
11
1164.478334
21
1055.983501
31
  0.000000
0
LINE
8
Gas
62
0
10
1164.478334
20
1055.983501
30
  0.000000
11
1163.812992
21
1059.768015
31
  0.000000
0
LINE
8
Gas
62
0
10
1163.812992
20
1059.768015
30
  0.000000
11
1163.159572
21
1063.554172
31
  0.000000
0
LINE
8
Gas
62
0
10
1163.159572
20
1063.554172
30
  0.000000
11
1162.517279
21
1067.341862
31
  0.000000
0
LINE
8
Gas
62
0
10
1162.517279
20
1067.341862
30
  0.000000
11
1161.885319
21
1071.130975
31
  0.000000
0
LINE
8
Gas
62
0
10
1161.885319
20
1071.130975
30
  0.000000
11
1161.262897
21
1074.921403
31
  0.000000
0
LINE
8
Gas
62
0
10
1161.262897
20
1074.921403
30
  0.000000
11
1160.649218
21
1078.713035
31
  0.000000
0
LINE
8
Gas
62
0
10
1160.649218
20
1078.713035
30
  0.000000
11
1160.043488
21
1082.505763
31
  0.000000
0
LINE
8
Gas
62
0
10
1160.043488
20
1082.505763
30
  0.000000
11
1159.444910
21
1086.299476
31
  0.000000
0
LINE
8
Gas
62
0
10
1159.444910
20
1086.299476
30
  0.000000
11
1158.852692
21
1090.094065
31
  0.000000
0
LINE
8
Gas
62
0
10
1158.852692
20
1090.094065
30
  0.000000
11
1158.266037
21
1093.889420
31
  0.000000
0
LINE
8
Gas
62
0
10
1158.266037
20
1093.889420
30
  0.000000
11
1157.684151
21
1097.685433
31
  0.000000
0
LINE
8
Gas
62
0
10
1157.684151
20
1097.685433
30
  0.000000
11
1157.106239
21
1101.481993
31
  0.000000
0
LINE
8
Gas
62
0
10
1157.106239
20
1101.481993
30
  0.000000
11
1156.531506
21
1105.278991
31
  0.000000
0
LINE
8
Gas
62
0
10
1156.531506
20
1105.278991
30
  0.000000
11
1155.959158
21
1109.076318
31
  0.000000
0
LINE
8
Gas
62
0
10
1155.959158
20
1109.076318
30
  0.000000
11
1155.388400
21
1112.873864
31
  0.000000
0
LINE
8
Gas
62
0
10
1155.388400
20
1112.873864
30
  0.000000
11
1154.818436
21
1116.671519
31
  0.000000
0
LINE
8
Gas
62
0
10
1162.568597
20
 12.207000
30
  0.000000
11
1159.819051
21
 12.180312
31
  0.000000
0
LINE
8
Gas
62
0
10
1159.819051
20
 12.180312
30
  0.000000
11
1157.069522
21
 12.154194
31
  0.000000
0
LINE
8
Gas
62
0
10
1157.069522
20
 12.154194
30
  0.000000
11
1154.320026
21
 12.129216
31
  0.000000
0
LINE
8
Gas
62
0
10
1154.320026
20
 12.129216
30
  0.000000
11
1151.570581
21
 12.105950
31
  0.000000
0
LINE
8
Gas
62
0
10
1151.570581
20
 12.105950
30
  0.000000
11
1148.821203
21
 12.084965
31
  0.000000
0
LINE
8
Gas
62
0
10
1148.821203
20
 12.084965
30
  0.000000
11
1146.071908
21
 12.066832
31
  0.000000
0
LINE
8
Gas
62
0
10
1146.071908
20
 12.066832
30
  0.000000
11
1143.322715
21
 12.052121
31
  0.000000
0
LINE
8
Gas
62
0
10
1143.322715
20
 12.052121
30
  0.000000
11
1140.573639
21
 12.041402
31
  0.000000
0
LINE
8
Gas
62
0
10
1140.573639
20
 12.041402
30
  0.000000
11
1137.824697
21
 12.035247
31
  0.000000
0
LINE
8
Gas
62
0
10
1137.824697
20
 12.035247
30
  0.000000
11
1135.075906
21
 12.034224
31
  0.000000
0
LINE
8
Gas
62
0
10
1135.075906
20
 12.034224
30
  0.000000
11
1132.327283
21
 12.038905
31
  0.000000
0
LINE
8
Gas
62
0
10
1132.327283
20
 12.038905
30
  0.000000
11
1129.578845
21
 12.049860
31
  0.000000
0
LINE
8
Gas
62
0
10
1129.578845
20
 12.049860
30
  0.000000
11
1126.830608
21
 12.067660
31
  0.000000
0
LINE
8
Gas
62
0
10
1126.830608
20
 12.067660
30
  0.000000
11
1124.082589
21
 12.092874
31
  0.000000
0
LINE
8
Gas
62
0
10
1124.082589
20
 12.092874
30
  0.000000
11
1121.334805
21
 12.126073
31
  0.000000
0
LINE
8
Gas
62
0
10
1121.334805
20
 12.126073
30
  0.000000
11
1118.587273
21
 12.167827
31
  0.000000
0
LINE
8
Gas
62
0
10
1118.587273
20
 12.167827
30
  0.000000
11
1116.428870
21
 12.207004
31
  0.000000
0
LINE
8
Gas
62
0
10
1116.428870
20
 12.207004
30
  0.000000
11
1113.093022
21
 12.279002
31
  0.000000
0
LINE
8
Gas
62
0
10
1113.093022
20
 12.279002
30
  0.000000
11
1110.346301
21
 12.348424
31
  0.000000
0
LINE
8
Gas
62
0
10
1110.346301
20
 12.348424
30
  0.000000
11
1107.599833
21
 12.426602
31
  0.000000
0
LINE
8
Gas
62
0
10
1107.599833
20
 12.426602
30
  0.000000
11
1104.853606
21
 12.513165
31
  0.000000
0
LINE
8
Gas
62
0
10
1104.853606
20
 12.513165
30
  0.000000
11
1102.107608
21
 12.607745
31
  0.000000
0
LINE
8
Gas
62
0
10
1102.107608
20
 12.607745
30
  0.000000
11
1099.361824
21
 12.709971
31
  0.000000
0
LINE
8
Gas
62
0
10
1099.361824
20
 12.709971
30
  0.000000
11
1096.616243
21
 12.819475
31
  0.000000
0
LINE
8
Gas
62
0
10
1096.616243
20
 12.819475
30
  0.000000
11
1093.870852
21
 12.935886
31
  0.000000
0
LINE
8
Gas
62
0
10
1093.870852
20
 12.935886
30
  0.000000
11
1091.125638
21
 13.058835
31
  0.000000
0
LINE
8
Gas
62
0
10
1091.125638
20
 13.058835
30
  0.000000
11
1088.380588
21
 13.187952
31
  0.000000
0
LINE
8
Gas
62
0
10
1088.380588
20
 13.187952
30
  0.000000
11
1085.635690
21
 13.322868
31
  0.000000
0
LINE
8
Gas
62
0
10
1085.635690
20
 13.322868
30
  0.000000
11
1082.890930
21
 13.463214
31
  0.000000
0
LINE
8
Gas
62
0
10
1082.890930
20
 13.463214
30
  0.000000
11
1080.146297
21
 13.608619
31
  0.000000
0
LINE
8
Gas
62
0
10
1080.146297
20
 13.608619
30
  0.000000
11
1077.401777
21
 13.758715
31
  0.000000
0
LINE
8
Gas
62
0
10
1077.401777
20
 13.758715
30
  0.000000
11
1074.657358
21
 13.913131
31
  0.000000
0
LINE
8
Gas
62
0
10
1074.657358
20
 13.913131
30
  0.000000
11
1071.913026
21
 14.071498
31
  0.000000
0
LINE
8
Gas
62
0
10
1071.913026
20
 14.071498
30
  0.000000
11
1069.168770
21
 14.233446
31
  0.000000
0
LINE
8
Gas
62
0
10
1069.168770
20
 14.233446
30
  0.000000
11
1066.424576
21
 14.398606
31
  0.000000
0
LINE
8
Gas
62
0
10
1066.424576
20
 14.398606
30
  0.000000
11
1063.680432
21
 14.566609
31
  0.000000
0
LINE
8
Gas
62
0
10
1063.680432
20
 14.566609
30
  0.000000
11
1060.936325
21
 14.737084
31
  0.000000
0
LINE
8
Gas
62
0
10
1060.936325
20
 14.737084
30
  0.000000
11
1058.192242
21
 14.909662
31
  0.000000
0
LINE
8
Gas
62
0
10
1058.192242
20
 14.909662
30
  0.000000
11
1055.448171
21
 15.083974
31
  0.000000
0
LINE
8
Gas
62
0
10
1055.448171
20
 15.083974
30
  0.000000
11
1052.704098
21
 15.259649
31
  0.000000
0
LINE
8
Gas
62
0
10
1052.704098
20
 15.259649
30
  0.000000
11
1049.960011
21
 15.436320
31
  0.000000
0
LINE
8
Gas
62
0
10
1049.960011
20
 15.436320
30
  0.000000
11
1047.215898
21
 15.613615
31
  0.000000
0
LINE
8
Gas
62
0
10
1047.215898
20
 15.613615
30
  0.000000
11
1044.471745
21
 15.791165
31
  0.000000
0
LINE
8
Gas
62
0
10
1044.471745
20
 15.791165
30
  0.000000
11
1041.727540
21
 15.968601
31
  0.000000
0
LINE
8
Gas
62
0
10
1041.727540
20
 15.968601
30
  0.000000
11
1038.983270
21
 16.145553
31
  0.000000
0
LINE
8
Gas
62
0
10
1038.983270
20
 16.145553
30
  0.000000
11
1036.238923
21
 16.321651
31
  0.000000
0
LINE
8
Gas
62
0
10
1036.238923
20
 16.321651
30
  0.000000
11
1033.494485
21
 16.496527
31
  0.000000
0
LINE
8
Gas
62
0
10
1033.494485
20
 16.496527
30
  0.000000
11
1030.749943
21
 16.669810
31
  0.000000
0
LINE
8
Gas
62
0
10
1030.749943
20
 16.669810
30
  0.000000
11
1028.005286
21
 16.841130
31
  0.000000
0
LINE
8
Gas
62
0
10
1028.005286
20
 16.841130
30
  0.000000
11
1025.260501
21
 17.010119
31
  0.000000
0
LINE
8
Gas
62
0
10
1025.260501
20
 17.010119
30
  0.000000
11
1022.515574
21
 17.176407
31
  0.000000
0
LINE
8
Gas
62
0
10
1022.515574
20
 17.176407
30
  0.000000
11
1019.770493
21
 17.339624
31
  0.000000
0
LINE
8
Gas
62
0
10
1019.770493
20
 17.339624
30
  0.000000
11
1016.577090
21
 17.525130
31
  0.000000
0
LINE
8
Gas
62
0
10
1016.577090
20
 17.525130
30
  0.000000
11
1014.279820
21
 17.655428
31
  0.000000
0
LINE
8
Gas
62
0
10
1014.279820
20
 17.655428
30
  0.000000
11
1011.534228
21
 17.807812
31
  0.000000
0
LINE
8
Gas
62
0
10
1011.534228
20
 17.807812
30
  0.000000
11
1008.788487
21
 17.956819
31
  0.000000
0
LINE
8
Gas
62
0
10
1008.788487
20
 17.956819
30
  0.000000
11
1006.042612
21
 18.102718
31
  0.000000
0
LINE
8
Gas
62
0
10
1006.042612
20
 18.102718
30
  0.000000
11
1003.296622
21
 18.245777
31
  0.000000
0
LINE
8
Gas
62
0
10
1003.296622
20
 18.245777
30
  0.000000
11
1000.550534
21
 18.386267
31
  0.000000
0
LINE
8
Gas
62
0
10
1000.550534
20
 18.386267
30
  0.000000
11
997.804364
21
 18.524455
31
  0.000000
0
LINE
8
Gas
62
0
10
997.804364
20
 18.524455
30
  0.000000
11
995.058131
21
 18.660610
31
  0.000000
0
LINE
8
Gas
62
0
10
995.058131
20
 18.660610
30
  0.000000
11
992.311851
21
 18.795002
31
  0.000000
0
LINE
8
Gas
62
0
10
992.311851
20
 18.795002
30
  0.000000
11
989.565541
21
 18.927898
31
  0.000000
0
LINE
8
Gas
62
0
10
989.565541
20
 18.927898
30
  0.000000
11
986.819219
21
 19.059568
31
  0.000000
0
LINE
8
Gas
62
0
10
986.819219
20
 19.059568
30
  0.000000
11
984.072903
21
 19.190281
31
  0.000000
0
LINE
8
Gas
62
0
10
984.072903
20
 19.190281
30
  0.000000
11
981.326608
21
 19.320305
31
  0.000000
0
LINE
8
Gas
62
0
10
981.326608
20
 19.320305
30
  0.000000
11
978.580353
21
 19.449909
31
  0.000000
0
LINE
8
Gas
62
0
10
978.580353
20
 19.449909
30
  0.000000
11
975.834155
21
 19.579362
31
  0.000000
0
LINE
8
Gas
62
0
10
975.834155
20
 19.579362
30
  0.000000
11
973.088030
21
 19.708932
31
  0.000000
0
LINE
8
Gas
62
0
10
973.088030
20
 19.708932
30
  0.000000
11
970.341997
21
 19.838889
31
  0.000000
0
LINE
8
Gas
62
0
10
970.341997
20
 19.838889
30
  0.000000
11
967.596071
21
 19.969501
31
  0.000000
0
LINE
8
Gas
62
0
10
967.596071
20
 19.969501
30
  0.000000
11
964.850272
21
 20.101037
31
  0.000000
0
LINE
8
Gas
62
0
10
964.850272
20
 20.101037
30
  0.000000
11
962.104615
21
 20.233766
31
  0.000000
0
LINE
8
Gas
62
0
10
962.104615
20
 20.233766
30
  0.000000
11
959.359118
21
 20.367957
31
  0.000000
0
LINE
8
Gas
62
0
10
959.359118
20
 20.367957
30
  0.000000
11
956.613799
21
 20.503878
31
  0.000000
0
LINE
8
Gas
62
0
10
956.613799
20
 20.503878
30
  0.000000
11
953.868674
21
 20.641799
31
  0.000000
0
LINE
8
Gas
62
0
10
953.868674
20
 20.641799
30
  0.000000
11
951.123760
21
 20.781987
31
  0.000000
0
LINE
8
Gas
62
0
10
951.123760
20
 20.781987
30
  0.000000
11
948.379075
21
 20.924712
31
  0.000000
0
LINE
8
Gas
62
0
10
948.379075
20
 20.924712
30
  0.000000
11
945.634637
21
 21.070243
31
  0.000000
0
LINE
8
Gas
62
0
10
945.634637
20
 21.070243
30
  0.000000
11
942.890462
21
 21.218848
31
  0.000000
0
LINE
8
Gas
62
0
10
942.890462
20
 21.218848
30
  0.000000
11
940.146567
21
 21.370797
31
  0.000000
0
LINE
8
Gas
62
0
10
940.146567
20
 21.370797
30
  0.000000
11
937.402970
21
 21.526357
31
  0.000000
0
LINE
8
Gas
62
0
10
937.402970
20
 21.526357
30
  0.000000
11
934.659689
21
 21.685798
31
  0.000000
0
LINE
8
Gas
62
0
10
934.659689
20
 21.685798
30
  0.000000
11
931.916739
21
 21.849389
31
  0.000000
0
LINE
8
Gas
62
0
10
931.916739
20
 21.849389
30
  0.000000
11
929.174139
21
 22.017398
31
  0.000000
0
LINE
8
Gas
62
0
10
929.174139
20
 22.017398
30
  0.000000
11
926.431905
21
 22.190095
31
  0.000000
0
LINE
8
Gas
62
0
10
926.431905
20
 22.190095
30
  0.000000
11
923.690056
21
 22.367747
31
  0.000000
0
LINE
8
Gas
62
0
10
923.690056
20
 22.367747
30
  0.000000
11
920.948607
21
 22.550624
31
  0.000000
0
LINE
8
Gas
62
0
10
920.948607
20
 22.550624
30
  0.000000
11
918.207577
21
 22.738995
31
  0.000000
0
LINE
8
Gas
62
0
10
918.207577
20
 22.738995
30
  0.000000
11
916.725310
21
 22.843256
31
  0.000000
0
LINE
8
Gas
62
0
10
916.725310
20
 22.843256
30
  0.000000
11
912.726817
21
 23.132997
31
  0.000000
0
LINE
8
Gas
62
0
10
912.726817
20
 23.132997
30
  0.000000
11
909.987056
21
 23.338344
31
  0.000000
0
LINE
8
Gas
62
0
10
909.987056
20
 23.338344
30
  0.000000
11
907.247672
21
 23.548859
31
  0.000000
0
LINE
8
Gas
62
0
10
907.247672
20
 23.548859
30
  0.000000
11
904.508636
21
 23.764242
31
  0.000000
0
LINE
8
Gas
62
0
10
904.508636
20
 23.764242
30
  0.000000
11
901.769920
21
 23.984190
31
  0.000000
0
LINE
8
Gas
62
0
10
901.769920
20
 23.984190
30
  0.000000
11
899.031497
21
 24.208405
31
  0.000000
0
LINE
8
Gas
62
0
10
899.031497
20
 24.208405
30
  0.000000
11
896.293338
21
 24.436583
31
  0.000000
0
LINE
8
Gas
62
0
10
896.293338
20
 24.436583
30
  0.000000
11
893.555415
21
 24.668426
31
  0.000000
0
LINE
8
Gas
62
0
10
893.555415
20
 24.668426
30
  0.000000
11
890.817701
21
 24.903632
31
  0.000000
0
LINE
8
Gas
62
0
10
890.817701
20
 24.903632
30
  0.000000
11
888.080168
21
 25.141900
31
  0.000000
0
LINE
8
Gas
62
0
10
888.080168
20
 25.141900
30
  0.000000
11
885.342787
21
 25.382929
31
  0.000000
0
LINE
8
Gas
62
0
10
885.342787
20
 25.382929
30
  0.000000
11
882.605531
21
 25.626419
31
  0.000000
0
LINE
8
Gas
62
0
10
882.605531
20
 25.626419
30
  0.000000
11
879.868372
21
 25.872069
31
  0.000000
0
LINE
8
Gas
62
0
10
879.868372
20
 25.872069
30
  0.000000
11
877.131281
21
 26.119578
31
  0.000000
0
LINE
8
Gas
62
0
10
877.131281
20
 26.119578
30
  0.000000
11
874.394232
21
 26.368645
31
  0.000000
0
LINE
8
Gas
62
0
10
874.394232
20
 26.368645
30
  0.000000
11
871.657195
21
 26.618969
31
  0.000000
0
LINE
8
Gas
62
0
10
871.657195
20
 26.618969
30
  0.000000
11
868.920144
21
 26.870250
31
  0.000000
0
LINE
8
Gas
62
0
10
868.920144
20
 26.870250
30
  0.000000
11
866.183050
21
 27.122186
31
  0.000000
0
LINE
8
Gas
62
0
10
866.183050
20
 27.122186
30
  0.000000
11
863.445884
21
 27.374478
31
  0.000000
0
LINE
8
Gas
62
0
10
863.445884
20
 27.374478
30
  0.000000
11
860.708620
21
 27.626823
31
  0.000000
0
LINE
8
Gas
62
0
10
860.708620
20
 27.626823
30
  0.000000
11
857.971230
21
 27.878922
31
  0.000000
0
LINE
8
Gas
62
0
10
857.971230
20
 27.878922
30
  0.000000
11
855.233684
21
 28.130473
31
  0.000000
0
LINE
8
Gas
62
0
10
855.233684
20
 28.130473
30
  0.000000
11
852.495956
21
 28.381175
31
  0.000000
0
LINE
8
Gas
62
0
10
852.495956
20
 28.381175
30
  0.000000
11
849.758018
21
 28.630729
31
  0.000000
0
LINE
8
Gas
62
0
10
849.758018
20
 28.630729
30
  0.000000
11
847.019841
21
 28.878832
31
  0.000000
0
LINE
8
Gas
62
0
10
847.019841
20
 28.878832
30
  0.000000
11
844.281397
21
 29.125184
31
  0.000000
0
LINE
8
Gas
62
0
10
844.281397
20
 29.125184
30
  0.000000
11
841.542659
21
 29.369485
31
  0.000000
0
LINE
8
Gas
62
0
10
841.542659
20
 29.369485
30
  0.000000
11
838.803599
21
 29.611433
31
  0.000000
0
LINE
8
Gas
62
0
10
838.803599
20
 29.611433
30
  0.000000
11
836.064189
21
 29.850728
31
  0.000000
0
LINE
8
Gas
62
0
10
836.064189
20
 29.850728
30
  0.000000
11
833.324401
21
 30.087069
31
  0.000000
0
LINE
8
Gas
62
0
10
833.324401
20
 30.087069
30
  0.000000
11
830.584206
21
 30.320155
31
  0.000000
0
LINE
8
Gas
62
0
10
830.584206
20
 30.320155
30
  0.000000
11
827.843578
21
 30.549685
31
  0.000000
0
LINE
8
Gas
62
0
10
827.843578
20
 30.549685
30
  0.000000
11
825.102487
21
 30.775358
31
  0.000000
0
LINE
8
Gas
62
0
10
825.102487
20
 30.775358
30
  0.000000
11
822.360907
21
 30.996874
31
  0.000000
0
LINE
8
Gas
62
0
10
822.360907
20
 30.996874
30
  0.000000
11
819.618808
21
 31.213932
31
  0.000000
0
LINE
8
Gas
62
0
10
819.618808
20
 31.213932
30
  0.000000
11
816.667137
21
 31.442205
31
  0.000000
0
LINE
8
Gas
62
0
10
816.667137
20
 31.442205
30
  0.000000
11
814.132959
21
 31.633579
31
  0.000000
0
LINE
8
Gas
62
0
10
814.132959
20
 31.633579
30
  0.000000
11
811.389240
21
 31.836342
31
  0.000000
0
LINE
8
Gas
62
0
10
811.389240
20
 31.836342
30
  0.000000
11
808.645073
21
 32.035056
31
  0.000000
0
LINE
8
Gas
62
0
10
808.645073
20
 32.035056
30
  0.000000
11
805.900527
21
 32.230259
31
  0.000000
0
LINE
8
Gas
62
0
10
805.900527
20
 32.230259
30
  0.000000
11
803.155668
21
 32.422488
31
  0.000000
0
LINE
8
Gas
62
0
10
803.155668
20
 32.422488
30
  0.000000
11
800.410563
21
 32.612281
31
  0.000000
0
LINE
8
Gas
62
0
10
800.410563
20
 32.612281
30
  0.000000
11
797.665279
21
 32.800175
31
  0.000000
0
LINE
8
Gas
62
0
10
797.665279
20
 32.800175
30
  0.000000
11
794.919883
21
 32.986707
31
  0.000000
0
LINE
8
Gas
62
0
10
794.919883
20
 32.986707
30
  0.000000
11
792.174442
21
 33.172417
31
  0.000000
0
LINE
8
Gas
62
0
10
792.174442
20
 33.172417
30
  0.000000
11
789.429024
21
 33.357840
31
  0.000000
0
LINE
8
Gas
62
0
10
789.429024
20
 33.357840
30
  0.000000
11
786.683694
21
 33.543514
31
  0.000000
0
LINE
8
Gas
62
0
10
786.683694
20
 33.543514
30
  0.000000
11
783.938521
21
 33.729977
31
  0.000000
0
LINE
8
Gas
62
0
10
783.938521
20
 33.729977
30
  0.000000
11
781.193570
21
 33.917766
31
  0.000000
0
LINE
8
Gas
62
0
10
781.193570
20
 33.917766
30
  0.000000
11
778.448910
21
 34.107419
31
  0.000000
0
LINE
8
Gas
62
0
10
778.448910
20
 34.107419
30
  0.000000
11
775.704607
21
 34.299474
31
  0.000000
0
LINE
8
Gas
62
0
10
775.704607
20
 34.299474
30
  0.000000
11
772.960727
21
 34.494467
31
  0.000000
0
LINE
8
Gas
62
0
10
772.960727
20
 34.494467
30
  0.000000
11
770.217339
21
 34.692937
31
  0.000000
0
LINE
8
Gas
62
0
10
770.217339
20
 34.692937
30
  0.000000
11
767.474509
21
 34.895420
31
  0.000000
0
LINE
8
Gas
62
0
10
767.474509
20
 34.895420
30
  0.000000
11
764.732305
21
 35.102455
31
  0.000000
0
LINE
8
Gas
62
0
10
764.732305
20
 35.102455
30
  0.000000
11
761.990792
21
 35.314579
31
  0.000000
0
LINE
8
Gas
62
0
10
761.990792
20
 35.314579
30
  0.000000
11
759.250039
21
 35.532329
31
  0.000000
0
LINE
8
Gas
62
0
10
759.250039
20
 35.532329
30
  0.000000
11
756.510111
21
 35.756243
31
  0.000000
0
LINE
8
Gas
62
0
10
756.510111
20
 35.756243
30
  0.000000
11
753.771077
21
 35.986858
31
  0.000000
0
LINE
8
Gas
62
0
10
753.771077
20
 35.986858
30
  0.000000
11
751.033003
21
 36.224712
31
  0.000000
0
LINE
8
Gas
62
0
10
751.033003
20
 36.224712
30
  0.000000
11
748.295956
21
 36.470343
31
  0.000000
0
LINE
8
Gas
62
0
10
748.295956
20
 36.470343
30
  0.000000
11
745.560003
21
 36.724287
31
  0.000000
0
LINE
8
Gas
62
0
10
745.560003
20
 36.724287
30
  0.000000
11
742.825212
21
 36.987083
31
  0.000000
0
LINE
8
Gas
62
0
10
742.825212
20
 36.987083
30
  0.000000
11
740.091648
21
 37.259268
31
  0.000000
0
LINE
8
Gas
62
0
10
740.091648
20
 37.259268
30
  0.000000
11
737.359380
21
 37.541379
31
  0.000000
0
LINE
8
Gas
62
0
10
737.359380
20
 37.541379
30
  0.000000
11
734.628474
21
 37.833954
31
  0.000000
0
LINE
8
Gas
62
0
10
734.628474
20
 37.833954
30
  0.000000
11
731.898997
21
 38.137531
31
  0.000000
0
LINE
8
Gas
62
0
10
731.898997
20
 38.137531
30
  0.000000
11
729.171016
21
 38.452647
31
  0.000000
0
LINE
8
Gas
62
0
10
729.171016
20
 38.452647
30
  0.000000
11
726.444599
21
 38.779838
31
  0.000000
0
LINE
8
Gas
62
0
10
726.444599
20
 38.779838
30
  0.000000
11
723.719811
21
 39.119644
31
  0.000000
0
LINE
8
Gas
62
0
10
723.719811
20
 39.119644
30
  0.000000
11
720.996721
21
 39.472602
31
  0.000000
0
LINE
8
Gas
62
0
10
720.996721
20
 39.472602
30
  0.000000
11
718.275395
21
 39.839248
31
  0.000000
0
LINE
8
Gas
62
0
10
718.275395
20
 39.839248
30
  0.000000
11
716.820643
21
 40.041154
31
  0.000000
0
LINE
8
Gas
62
0
10
716.820643
20
 40.041154
30
  0.000000
11
712.838214
21
 40.615048
31
  0.000000
0
LINE
8
Gas
62
0
10
712.838214
20
 40.615048
30
  0.000000
11
710.122243
21
 41.023316
31
  0.000000
0
LINE
8
Gas
62
0
10
710.122243
20
 41.023316
30
  0.000000
11
707.407881
21
 41.444087
31
  0.000000
0
LINE
8
Gas
62
0
10
707.407881
20
 41.444087
30
  0.000000
11
704.695022
21
 41.876544
31
  0.000000
0
LINE
8
Gas
62
0
10
704.695022
20
 41.876544
30
  0.000000
11
701.983561
21
 42.319871
31
  0.000000
0
LINE
8
Gas
62
0
10
701.983561
20
 42.319871
30
  0.000000
11
699.273394
21
 42.773252
31
  0.000000
0
LINE
8
Gas
62
0
10
699.273394
20
 42.773252
30
  0.000000
11
696.564415
21
 43.235872
31
  0.000000
0
LINE
8
Gas
62
0
10
696.564415
20
 43.235872
30
  0.000000
11
693.856520
21
 43.706913
31
  0.000000
0
LINE
8
Gas
62
0
10
693.856520
20
 43.706913
30
  0.000000
11
691.149602
21
 44.185561
31
  0.000000
0
LINE
8
Gas
62
0
10
691.149602
20
 44.185561
30
  0.000000
11
688.443559
21
 44.670999
31
  0.000000
0
LINE
8
Gas
62
0
10
688.443559
20
 44.670999
30
  0.000000
11
685.738284
21
 45.162411
31
  0.000000
0
LINE
8
Gas
62
0
10
685.738284
20
 45.162411
30
  0.000000
11
683.033672
21
 45.658981
31
  0.000000
0
LINE
8
Gas
62
0
10
683.033672
20
 45.658981
30
  0.000000
11
680.329619
21
 46.159893
31
  0.000000
0
LINE
8
Gas
62
0
10
680.329619
20
 46.159893
30
  0.000000
11
677.626020
21
 46.664331
31
  0.000000
0
LINE
8
Gas
62
0
10
677.626020
20
 46.664331
30
  0.000000
11
674.922769
21
 47.171480
31
  0.000000
0
LINE
8
Gas
62
0
10
674.922769
20
 47.171480
30
  0.000000
11
672.219762
21
 47.680522
31
  0.000000
0
LINE
8
Gas
62
0
10
672.219762
20
 47.680522
30
  0.000000
11
669.516893
21
 48.190641
31
  0.000000
0
LINE
8
Gas
62
0
10
669.516893
20
 48.190641
30
  0.000000
11
666.814058
21
 48.701023
31
  0.000000
0
LINE
8
Gas
62
0
10
666.814058
20
 48.701023
30
  0.000000
11
664.111152
21
 49.210851
31
  0.000000
0
LINE
8
Gas
62
0
10
664.111152
20
 49.210851
30
  0.000000
11
661.408070
21
 49.719308
31
  0.000000
0
LINE
8
Gas
62
0
10
661.408070
20
 49.719308
30
  0.000000
11
658.704706
21
 50.225579
31
  0.000000
0
LINE
8
Gas
62
0
10
658.704706
20
 50.225579
30
  0.000000
11
656.629822
21
 50.612111
31
  0.000000
0
LINE
8
Gas
62
0
10
656.629822
20
 50.612111
30
  0.000000
11
653.296754
21
 51.228605
31
  0.000000
0
LINE
8
Gas
62
0
10
653.296754
20
 51.228605
30
  0.000000
11
650.592112
21
 51.724931
31
  0.000000
0
LINE
8
Gas
62
0
10
650.592112
20
 51.724931
30
  0.000000
11
647.887049
21
 52.217994
31
  0.000000
0
LINE
8
Gas
62
0
10
647.887049
20
 52.217994
30
  0.000000
11
645.181587
21
 52.707956
31
  0.000000
0
LINE
8
Gas
62
0
10
645.181587
20
 52.707956
30
  0.000000
11
642.475748
21
 53.194980
31
  0.000000
0
LINE
8
Gas
62
0
10
642.475748
20
 53.194980
30
  0.000000
11
639.769551
21
 53.679230
31
  0.000000
0
LINE
8
Gas
62
0
10
639.769551
20
 53.679230
30
  0.000000
11
637.063019
21
 54.160868
31
  0.000000
0
LINE
8
Gas
62
0
10
637.063019
20
 54.160868
30
  0.000000
11
634.356171
21
 54.640059
31
  0.000000
0
LINE
8
Gas
62
0
10
634.356171
20
 54.640059
30
  0.000000
11
631.649030
21
 55.116964
31
  0.000000
0
LINE
8
Gas
62
0
10
631.649030
20
 55.116964
30
  0.000000
11
628.941616
21
 55.591748
31
  0.000000
0
LINE
8
Gas
62
0
10
628.941616
20
 55.591748
30
  0.000000
11
626.233950
21
 56.064573
31
  0.000000
0
LINE
8
Gas
62
0
10
626.233950
20
 56.064573
30
  0.000000
11
623.526053
21
 56.535603
31
  0.000000
0
LINE
8
Gas
62
0
10
623.526053
20
 56.535603
30
  0.000000
11
620.817946
21
 57.005001
31
  0.000000
0
LINE
8
Gas
62
0
10
620.817946
20
 57.005001
30
  0.000000
11
618.109650
21
 57.472930
31
  0.000000
0
LINE
8
Gas
62
0
10
618.109650
20
 57.472930
30
  0.000000
11
615.401186
21
 57.939553
31
  0.000000
0
LINE
8
Gas
62
0
10
615.401186
20
 57.939553
30
  0.000000
11
612.692576
21
 58.405034
31
  0.000000
0
LINE
8
Gas
62
0
10
612.692576
20
 58.405034
30
  0.000000
11
609.983839
21
 58.869536
31
  0.000000
0
LINE
8
Gas
62
0
10
609.983839
20
 58.869536
30
  0.000000
11
607.274997
21
 59.333222
31
  0.000000
0
LINE
8
Gas
62
0
10
607.274997
20
 59.333222
30
  0.000000
11
604.566071
21
 59.796255
31
  0.000000
0
LINE
8
Gas
62
0
10
604.566071
20
 59.796255
30
  0.000000
11
601.857083
21
 60.258798
31
  0.000000
0
LINE
8
Gas
62
0
10
601.857083
20
 60.258798
30
  0.000000
11
599.148052
21
 60.721015
31
  0.000000
0
LINE
8
Gas
62
0
10
599.148052
20
 60.721015
30
  0.000000
11
596.439000
21
 61.183069
31
  0.000000
0
LINE
8
Gas
62
0
10
596.439000
20
 61.183069
30
  0.000000
11
596.439020
21
586.725649
31
  0.000000
0
LINE
8
Gas
62
0
10
596.439020
20
586.725649
30
  0.000000
11
599.148072
21
587.187703
31
  0.000000
0
LINE
8
Gas
62
0
10
599.148072
20
587.187703
30
  0.000000
11
601.857103
21
587.649920
31
  0.000000
0
LINE
8
Gas
62
0
10
601.857103
20
587.649920
30
  0.000000
11
604.566091
21
588.112463
31
  0.000000
0
LINE
8
Gas
62
0
10
604.566091
20
588.112463
30
  0.000000
11
607.275017
21
588.575495
31
  0.000000
0
LINE
8
Gas
62
0
10
607.275017
20
588.575495
30
  0.000000
11
609.983859
21
589.039181
31
  0.000000
0
LINE
8
Gas
62
0
10
609.983859
20
589.039181
30
  0.000000
11
612.692596
21
589.503682
31
  0.000000
0
LINE
8
Gas
62
0
10
612.692596
20
589.503682
30
  0.000000
11
615.401207
21
589.969163
31
  0.000000
0
LINE
8
Gas
62
0
10
615.401207
20
589.969163
30
  0.000000
11
618.109671
21
590.435786
31
  0.000000
0
LINE
8
Gas
62
0
10
618.109671
20
590.435786
30
  0.000000
11
620.817966
21
590.903715
31
  0.000000
0
LINE
8
Gas
62
0
10
620.817966
20
590.903715
30
  0.000000
11
623.526073
21
591.373113
31
  0.000000
0
LINE
8
Gas
62
0
10
623.526073
20
591.373113
30
  0.000000
11
626.233970
21
591.844143
31
  0.000000
0
LINE
8
Gas
62
0
10
626.233970
20
591.844143
30
  0.000000
11
628.941637
21
592.316968
31
  0.000000
0
LINE
8
Gas
62
0
10
628.941637
20
592.316968
30
  0.000000
11
631.649051
21
592.791751
31
  0.000000
0
LINE
8
Gas
62
0
10
631.649051
20
592.791751
30
  0.000000
11
634.356192
21
593.268657
31
  0.000000
0
LINE
8
Gas
62
0
10
634.356192
20
593.268657
30
  0.000000
11
637.063039
21
593.747847
31
  0.000000
0
LINE
8
Gas
62
0
10
637.063039
20
593.747847
30
  0.000000
11
639.769572
21
594.229485
31
  0.000000
0
LINE
8
Gas
62
0
10
639.769572
20
594.229485
30
  0.000000
11
642.475768
21
594.713734
31
  0.000000
0
LINE
8
Gas
62
0
10
642.475768
20
594.713734
30
  0.000000
11
645.181608
21
595.200758
31
  0.000000
0
LINE
8
Gas
62
0
10
645.181608
20
595.200758
30
  0.000000
11
647.887069
21
595.690720
31
  0.000000
0
LINE
8
Gas
62
0
10
647.887069
20
595.690720
30
  0.000000
11
650.592132
21
596.183782
31
  0.000000
0
LINE
8
Gas
62
0
10
650.592132
20
596.183782
30
  0.000000
11
653.296775
21
596.680109
31
  0.000000
0
LINE
8
Gas
62
0
10
653.296775
20
596.680109
30
  0.000000
11
656.629842
21
597.296602
31
  0.000000
0
LINE
8
Gas
62
0
10
656.629842
20
597.296602
30
  0.000000
11
658.704727
21
597.683134
31
  0.000000
0
LINE
8
Gas
62
0
10
658.704727
20
597.683134
30
  0.000000
11
661.408090
21
598.189405
31
  0.000000
0
LINE
8
Gas
62
0
10
661.408090
20
598.189405
30
  0.000000
11
664.111173
21
598.697862
31
  0.000000
0
LINE
8
Gas
62
0
10
664.111173
20
598.697862
30
  0.000000
11
666.814079
21
599.207690
31
  0.000000
0
LINE
8
Gas
62
0
10
666.814079
20
599.207690
30
  0.000000
11
669.516914
21
599.718071
31
  0.000000
0
LINE
8
Gas
62
0
10
669.516914
20
599.718071
30
  0.000000
11
672.219783
21
600.228191
31
  0.000000
0
LINE
8
Gas
62
0
10
672.219783
20
600.228191
30
  0.000000
11
674.922790
21
600.737233
31
  0.000000
0
LINE
8
Gas
62
0
10
674.922790
20
600.737233
30
  0.000000
11
677.626041
21
601.244380
31
  0.000000
0
LINE
8
Gas
62
0
10
677.626041
20
601.244380
30
  0.000000
11
680.329640
21
601.748818
31
  0.000000
0
LINE
8
Gas
62
0
10
680.329640
20
601.748818
30
  0.000000
11
683.033693
21
602.249730
31
  0.000000
0
LINE
8
Gas
62
0
10
683.033693
20
602.249730
30
  0.000000
11
685.738305
21
602.746300
31
  0.000000
0
LINE
8
Gas
62
0
10
685.738305
20
602.746300
30
  0.000000
11
688.443580
21
603.237712
31
  0.000000
0
LINE
8
Gas
62
0
10
688.443580
20
603.237712
30
  0.000000
11
691.149624
21
603.723150
31
  0.000000
0
LINE
8
Gas
62
0
10
691.149624
20
603.723150
30
  0.000000
11
693.856541
21
604.201797
31
  0.000000
0
LINE
8
Gas
62
0
10
693.856541
20
604.201797
30
  0.000000
11
696.564436
21
604.672839
31
  0.000000
0
LINE
8
Gas
62
0
10
696.564436
20
604.672839
30
  0.000000
11
699.273415
21
605.135458
31
  0.000000
0
LINE
8
Gas
62
0
10
699.273415
20
605.135458
30
  0.000000
11
701.983583
21
605.588839
31
  0.000000
0
LINE
8
Gas
62
0
10
701.983583
20
605.588839
30
  0.000000
11
704.695043
21
606.032166
31
  0.000000
0
LINE
8
Gas
62
0
10
704.695043
20
606.032166
30
  0.000000
11
707.407902
21
606.464623
31
  0.000000
0
LINE
8
Gas
62
0
10
707.407902
20
606.464623
30
  0.000000
11
710.122265
21
606.885393
31
  0.000000
0
LINE
8
Gas
62
0
10
710.122265
20
606.885393
30
  0.000000
11
712.838235
21
607.293661
31
  0.000000
0
LINE
8
Gas
62
0
10
712.838235
20
607.293661
30
  0.000000
11
716.820665
21
607.867555
31
  0.000000
0
LINE
8
Gas
62
0
10
716.820665
20
607.867555
30
  0.000000
11
718.275417
21
608.069461
31
  0.000000
0
LINE
8
Gas
62
0
10
718.275417
20
608.069461
30
  0.000000
11
720.996743
21
608.436107
31
  0.000000
0
LINE
8
Gas
62
0
10
720.996743
20
608.436107
30
  0.000000
11
723.719833
21
608.789064
31
  0.000000
0
LINE
8
Gas
62
0
10
723.719833
20
608.789064
30
  0.000000
11
726.444620
21
609.128870
31
  0.000000
0
LINE
8
Gas
62
0
10
726.444620
20
609.128870
30
  0.000000
11
729.171038
21
609.456061
31
  0.000000
0
LINE
8
Gas
62
0
10
729.171038
20
609.456061
30
  0.000000
11
731.899019
21
609.771177
31
  0.000000
0
LINE
8
Gas
62
0
10
731.899019
20
609.771177
30
  0.000000
11
734.628495
21
610.074753
31
  0.000000
0
LINE
8
Gas
62
0
10
734.628495
20
610.074753
30
  0.000000
11
737.359402
21
610.367328
31
  0.000000
0
LINE
8
Gas
62
0
10
737.359402
20
610.367328
30
  0.000000
11
740.091670
21
610.649439
31
  0.000000
0
LINE
8
Gas
62
0
10
740.091670
20
610.649439
30
  0.000000
11
742.825233
21
610.921624
31
  0.000000
0
LINE
8
Gas
62
0
10
742.825233
20
610.921624
30
  0.000000
11
745.560025
21
611.184419
31
  0.000000
0
LINE
8
Gas
62
0
10
745.560025
20
611.184419
30
  0.000000
11
748.295978
21
611.438364
31
  0.000000
0
LINE
8
Gas
62
0
10
748.295978
20
611.438364
30
  0.000000
11
751.033025
21
611.683994
31
  0.000000
0
LINE
8
Gas
62
0
10
751.033025
20
611.683994
30
  0.000000
11
753.771099
21
611.921848
31
  0.000000
0
LINE
8
Gas
62
0
10
753.771099
20
611.921848
30
  0.000000
11
756.510133
21
612.152463
31
  0.000000
0
LINE
8
Gas
62
0
10
756.510133
20
612.152463
30
  0.000000
11
759.250060
21
612.376377
31
  0.000000
0
LINE
8
Gas
62
0
10
759.250060
20
612.376377
30
  0.000000
11
761.990814
21
612.594127
31
  0.000000
0
LINE
8
Gas
62
0
10
761.990814
20
612.594127
30
  0.000000
11
764.732327
21
612.806250
31
  0.000000
0
LINE
8
Gas
62
0
10
764.732327
20
612.806250
30
  0.000000
11
767.474531
21
613.013285
31
  0.000000
0
LINE
8
Gas
62
0
10
767.474531
20
613.013285
30
  0.000000
11
770.217361
21
613.215768
31
  0.000000
0
LINE
8
Gas
62
0
10
770.217361
20
613.215768
30
  0.000000
11
772.960749
21
613.414238
31
  0.000000
0
LINE
8
Gas
62
0
10
772.960749
20
613.414238
30
  0.000000
11
775.704629
21
613.609231
31
  0.000000
0
LINE
8
Gas
62
0
10
775.704629
20
613.609231
30
  0.000000
11
778.448932
21
613.801285
31
  0.000000
0
LINE
8
Gas
62
0
10
778.448932
20
613.801285
30
  0.000000
11
781.193592
21
613.990938
31
  0.000000
0
LINE
8
Gas
62
0
10
781.193592
20
613.990938
30
  0.000000
11
783.938543
21
614.178727
31
  0.000000
0
LINE
8
Gas
62
0
10
783.938543
20
614.178727
30
  0.000000
11
786.683716
21
614.365190
31
  0.000000
0
LINE
8
Gas
62
0
10
786.683716
20
614.365190
30
  0.000000
11
789.429046
21
614.550864
31
  0.000000
0
LINE
8
Gas
62
0
10
789.429046
20
614.550864
30
  0.000000
11
792.174465
21
614.736287
31
  0.000000
0
LINE
8
Gas
62
0
10
792.174465
20
614.736287
30
  0.000000
11
794.919905
21
614.921995
31
  0.000000
0
LINE
8
Gas
62
0
10
794.919905
20
614.921995
30
  0.000000
11
797.665301
21
615.108528
31
  0.000000
0
LINE
8
Gas
62
0
10
797.665301
20
615.108528
30
  0.000000
11
800.410585
21
615.296422
31
  0.000000
0
LINE
8
Gas
62
0
10
800.410585
20
615.296422
30
  0.000000
11
803.155690
21
615.486215
31
  0.000000
0
LINE
8
Gas
62
0
10
803.155690
20
615.486215
30
  0.000000
11
805.900549
21
615.678443
31
  0.000000
0
LINE
8
Gas
62
0
10
805.900549
20
615.678443
30
  0.000000
11
808.645096
21
615.873646
31
  0.000000
0
LINE
8
Gas
62
0
10
808.645096
20
615.873646
30
  0.000000
11
811.389262
21
616.072360
31
  0.000000
0
LINE
8
Gas
62
0
10
811.389262
20
616.072360
30
  0.000000
11
814.132981
21
616.275122
31
  0.000000
0
LINE
8
Gas
62
0
10
814.132981
20
616.275122
30
  0.000000
11
816.667159
21
616.466496
31
  0.000000
0
LINE
8
Gas
62
0
10
816.667159
20
616.466496
30
  0.000000
11
819.618831
21
616.694769
31
  0.000000
0
LINE
8
Gas
62
0
10
819.618831
20
616.694769
30
  0.000000
11
822.360929
21
616.911827
31
  0.000000
0
LINE
8
Gas
62
0
10
822.360929
20
616.911827
30
  0.000000
11
825.102509
21
617.133343
31
  0.000000
0
LINE
8
Gas
62
0
10
825.102509
20
617.133343
30
  0.000000
11
827.843600
21
617.359016
31
  0.000000
0
LINE
8
Gas
62
0
10
827.843600
20
617.359016
30
  0.000000
11
830.584228
21
617.588546
31
  0.000000
0
LINE
8
Gas
62
0
10
830.584228
20
617.588546
30
  0.000000
11
833.324423
21
617.821631
31
  0.000000
0
LINE
8
Gas
62
0
10
833.324423
20
617.821631
30
  0.000000
11
836.064211
21
618.057972
31
  0.000000
0
LINE
8
Gas
62
0
10
836.064211
20
618.057972
30
  0.000000
11
838.803622
21
618.297266
31
  0.000000
0
LINE
8
Gas
62
0
10
838.803622
20
618.297266
30
  0.000000
11
841.542682
21
618.539214
31
  0.000000
0
LINE
8
Gas
62
0
10
841.542682
20
618.539214
30
  0.000000
11
844.281420
21
618.783515
31
  0.000000
0
LINE
8
Gas
62
0
10
844.281420
20
618.783515
30
  0.000000
11
847.019863
21
619.029867
31
  0.000000
0
LINE
8
Gas
62
0
10
847.019863
20
619.029867
30
  0.000000
11
849.758040
21
619.277970
31
  0.000000
0
LINE
8
Gas
62
0
10
849.758040
20
619.277970
30
  0.000000
11
852.495979
21
619.527523
31
  0.000000
0
LINE
8
Gas
62
0
10
852.495979
20
619.527523
30
  0.000000
11
855.233707
21
619.778226
31
  0.000000
0
LINE
8
Gas
62
0
10
855.233707
20
619.778226
30
  0.000000
11
857.971252
21
620.029777
31
  0.000000
0
LINE
8
Gas
62
0
10
857.971252
20
620.029777
30
  0.000000
11
860.708643
21
620.281875
31
  0.000000
0
LINE
8
Gas
62
0
10
860.708643
20
620.281875
30
  0.000000
11
863.445907
21
620.534220
31
  0.000000
0
LINE
8
Gas
62
0
10
863.445907
20
620.534220
30
  0.000000
11
866.183072
21
620.786511
31
  0.000000
0
LINE
8
Gas
62
0
10
866.183072
20
620.786511
30
  0.000000
11
868.920167
21
621.038447
31
  0.000000
0
LINE
8
Gas
62
0
10
868.920167
20
621.038447
30
  0.000000
11
871.657218
21
621.289728
31
  0.000000
0
LINE
8
Gas
62
0
10
871.657218
20
621.289728
30
  0.000000
11
874.394255
21
621.540052
31
  0.000000
0
LINE
8
Gas
62
0
10
874.394255
20
621.540052
30
  0.000000
11
877.131304
21
621.789119
31
  0.000000
0
LINE
8
Gas
62
0
10
877.131304
20
621.789119
30
  0.000000
11
879.868395
21
622.036627
31
  0.000000
0
LINE
8
Gas
62
0
10
879.868395
20
622.036627
30
  0.000000
11
882.605554
21
622.282277
31
  0.000000
0
LINE
8
Gas
62
0
10
882.605554
20
622.282277
30
  0.000000
11
885.342810
21
622.525767
31
  0.000000
0
LINE
8
Gas
62
0
10
885.342810
20
622.525767
30
  0.000000
11
888.080191
21
622.766796
31
  0.000000
0
LINE
8
Gas
62
0
10
888.080191
20
622.766796
30
  0.000000
11
890.817724
21
623.005064
31
  0.000000
0
LINE
8
Gas
62
0
10
890.817724
20
623.005064
30
  0.000000
11
893.555438
21
623.240269
31
  0.000000
0
LINE
8
Gas
62
0
10
893.555438
20
623.240269
30
  0.000000
11
896.293361
21
623.472112
31
  0.000000
0
LINE
8
Gas
62
0
10
896.293361
20
623.472112
30
  0.000000
11
899.031520
21
623.700290
31
  0.000000
0
LINE
8
Gas
62
0
10
899.031520
20
623.700290
30
  0.000000
11
901.769943
21
623.924504
31
  0.000000
0
LINE
8
Gas
62
0
10
901.769943
20
623.924504
30
  0.000000
11
904.508659
21
624.144453
31
  0.000000
0
LINE
8
Gas
62
0
10
904.508659
20
624.144453
30
  0.000000
11
907.247695
21
624.359835
31
  0.000000
0
LINE
8
Gas
62
0
10
907.247695
20
624.359835
30
  0.000000
11
909.987079
21
624.570350
31
  0.000000
0
LINE
8
Gas
62
0
10
909.987079
20
624.570350
30
  0.000000
11
912.726840
21
624.775697
31
  0.000000
0
LINE
8
Gas
62
0
10
912.726840
20
624.775697
30
  0.000000
11
916.725333
21
625.065438
31
  0.000000
0
LINE
8
Gas
62
0
10
916.725333
20
625.065438
30
  0.000000
11
918.207600
21
625.169699
31
  0.000000
0
LINE
8
Gas
62
0
10
918.207600
20
625.169699
30
  0.000000
11
920.948630
21
625.358069
31
  0.000000
0
LINE
8
Gas
62
0
10
920.948630
20
625.358069
30
  0.000000
11
923.690079
21
625.540946
31
  0.000000
0
LINE
8
Gas
62
0
10
923.690079
20
625.540946
30
  0.000000
11
926.431928
21
625.718598
31
  0.000000
0
LINE
8
Gas
62
0
10
926.431928
20
625.718598
30
  0.000000
11
929.174162
21
625.891295
31
  0.000000
0
LINE
8
Gas
62
0
10
929.174162
20
625.891295
30
  0.000000
11
931.916762
21
626.059304
31
  0.000000
0
LINE
8
Gas
62
0
10
931.916762
20
626.059304
30
  0.000000
11
934.659712
21
626.222894
31
  0.000000
0
LINE
8
Gas
62
0
10
934.659712
20
626.222894
30
  0.000000
11
937.402993
21
626.382335
31
  0.000000
0
LINE
8
Gas
62
0
10
937.402993
20
626.382335
30
  0.000000
11
940.146590
21
626.537895
31
  0.000000
0
LINE
8
Gas
62
0
10
940.146590
20
626.537895
30
  0.000000
11
942.890485
21
626.689844
31
  0.000000
0
LINE
8
Gas
62
0
10
942.890485
20
626.689844
30
  0.000000
11
945.634660
21
626.838449
31
  0.000000
0
LINE
8
Gas
62
0
10
945.634660
20
626.838449
30
  0.000000
11
948.379099
21
626.983979
31
  0.000000
0
LINE
8
Gas
62
0
10
948.379099
20
626.983979
30
  0.000000
11
951.123783
21
627.126704
31
  0.000000
0
LINE
8
Gas
62
0
10
951.123783
20
627.126704
30
  0.000000
11
953.868697
21
627.266892
31
  0.000000
0
LINE
8
Gas
62
0
10
953.868697
20
627.266892
30
  0.000000
11
956.613822
21
627.404812
31
  0.000000
0
LINE
8
Gas
62
0
10
956.613822
20
627.404812
30
  0.000000
11
959.359141
21
627.540733
31
  0.000000
0
LINE
8
Gas
62
0
10
959.359141
20
627.540733
30
  0.000000
11
962.104638
21
627.674924
31
  0.000000
0
LINE
8
Gas
62
0
10
962.104638
20
627.674924
30
  0.000000
11
964.850295
21
627.807653
31
  0.000000
0
LINE
8
Gas
62
0
10
964.850295
20
627.807653
30
  0.000000
11
967.596095
21
627.939189
31
  0.000000
0
LINE
8
Gas
62
0
10
967.596095
20
627.939189
30
  0.000000
11
970.342020
21
628.069801
31
  0.000000
0
LINE
8
Gas
62
0
10
970.342020
20
628.069801
30
  0.000000
11
973.088053
21
628.199757
31
  0.000000
0
LINE
8
Gas
62
0
10
973.088053
20
628.199757
30
  0.000000
11
975.834178
21
628.329328
31
  0.000000
0
LINE
8
Gas
62
0
10
975.834178
20
628.329328
30
  0.000000
11
978.580376
21
628.458780
31
  0.000000
0
LINE
8
Gas
62
0
10
978.580376
20
628.458780
30
  0.000000
11
981.326631
21
628.588384
31
  0.000000
0
LINE
8
Gas
62
0
10
981.326631
20
628.588384
30
  0.000000
11
984.072926
21
628.718408
31
  0.000000
0
LINE
8
Gas
62
0
10
984.072926
20
628.718408
30
  0.000000
11
986.819243
21
628.849120
31
  0.000000
0
LINE
8
Gas
62
0
10
986.819243
20
628.849120
30
  0.000000
11
989.565564
21
628.980790
31
  0.000000
0
LINE
8
Gas
62
0
10
989.565564
20
628.980790
30
  0.000000
11
992.311874
21
629.113686
31
  0.000000
0
LINE
8
Gas
62
0
10
992.311874
20
629.113686
30
  0.000000
11
995.058154
21
629.248077
31
  0.000000
0
LINE
8
Gas
62
0
10
995.058154
20
629.248077
30
  0.000000
11
997.804387
21
629.384232
31
  0.000000
0
LINE
8
Gas
62
0
10
997.804387
20
629.384232
30
  0.000000
11
1000.550557
21
629.522420
31
  0.000000
0
LINE
8
Gas
62
0
10
1000.550557
20
629.522420
30
  0.000000
11
1003.296645
21
629.662910
31
  0.000000
0
LINE
8
Gas
62
0
10
1003.296645
20
629.662910
30
  0.000000
11
1006.042635
21
629.805969
31
  0.000000
0
LINE
8
Gas
62
0
10
1006.042635
20
629.805969
30
  0.000000
11
1008.788510
21
629.951868
31
  0.000000
0
LINE
8
Gas
62
0
10
1008.788510
20
629.951868
30
  0.000000
11
1011.534252
21
630.100875
31
  0.000000
0
LINE
8
Gas
62
0
10
1011.534252
20
630.100875
30
  0.000000
11
1014.279843
21
630.253258
31
  0.000000
0
LINE
8
Gas
62
0
10
1014.279843
20
630.253258
30
  0.000000
11
1016.577113
21
630.383556
31
  0.000000
0
LINE
8
Gas
62
0
10
1016.577113
20
630.383556
30
  0.000000
11
1019.770516
21
630.569062
31
  0.000000
0
LINE
8
Gas
62
0
10
1019.770516
20
630.569062
30
  0.000000
11
1022.515597
21
630.732279
31
  0.000000
0
LINE
8
Gas
62
0
10
1022.515597
20
630.732279
30
  0.000000
11
1025.260524
21
630.898566
31
  0.000000
0
LINE
8
Gas
62
0
10
1025.260524
20
630.898566
30
  0.000000
11
1028.005310
21
631.067555
31
  0.000000
0
LINE
8
Gas
62
0
10
1028.005310
20
631.067555
30
  0.000000
11
1030.749967
21
631.238875
31
  0.000000
0
LINE
8
Gas
62
0
10
1030.749967
20
631.238875
30
  0.000000
11
1033.494508
21
631.412158
31
  0.000000
0
LINE
8
Gas
62
0
10
1033.494508
20
631.412158
30
  0.000000
11
1036.238946
21
631.587033
31
  0.000000
0
LINE
8
Gas
62
0
10
1036.238946
20
631.587033
30
  0.000000
11
1038.983294
21
631.763132
31
  0.000000
0
LINE
8
Gas
62
0
10
1038.983294
20
631.763132
30
  0.000000
11
1041.727564
21
631.940084
31
  0.000000
0
LINE
8
Gas
62
0
10
1041.727564
20
631.940084
30
  0.000000
11
1044.471769
21
632.117519
31
  0.000000
0
LINE
8
Gas
62
0
10
1044.471769
20
632.117519
30
  0.000000
11
1047.215921
21
632.295069
31
  0.000000
0
LINE
8
Gas
62
0
10
1047.215921
20
632.295069
30
  0.000000
11
1049.960035
21
632.472364
31
  0.000000
0
LINE
8
Gas
62
0
10
1049.960035
20
632.472364
30
  0.000000
11
1052.704122
21
632.649034
31
  0.000000
0
LINE
8
Gas
62
0
10
1052.704122
20
632.649034
30
  0.000000
11
1055.448194
21
632.824709
31
  0.000000
0
LINE
8
Gas
62
0
10
1055.448194
20
632.824709
30
  0.000000
11
1058.192266
21
632.999021
31
  0.000000
0
LINE
8
Gas
62
0
10
1058.192266
20
632.999021
30
  0.000000
11
1060.936349
21
633.171599
31
  0.000000
0
LINE
8
Gas
62
0
10
1060.936349
20
633.171599
30
  0.000000
11
1063.680456
21
633.342074
31
  0.000000
0
LINE
8
Gas
62
0
10
1063.680456
20
633.342074
30
  0.000000
11
1066.424600
21
633.510076
31
  0.000000
0
LINE
8
Gas
62
0
10
1066.424600
20
633.510076
30
  0.000000
11
1069.168794
21
633.675236
31
  0.000000
0
LINE
8
Gas
62
0
10
1069.168794
20
633.675236
30
  0.000000
11
1071.913050
21
633.837184
31
  0.000000
0
LINE
8
Gas
62
0
10
1071.913050
20
633.837184
30
  0.000000
11
1074.657381
21
633.995551
31
  0.000000
0
LINE
8
Gas
62
0
10
1074.657381
20
633.995551
30
  0.000000
11
1077.401800
21
634.149967
31
  0.000000
0
LINE
8
Gas
62
0
10
1077.401800
20
634.149967
30
  0.000000
11
1080.146320
21
634.300062
31
  0.000000
0
LINE
8
Gas
62
0
10
1080.146320
20
634.300062
30
  0.000000
11
1082.890954
21
634.445467
31
  0.000000
0
LINE
8
Gas
62
0
10
1082.890954
20
634.445467
30
  0.000000
11
1085.635713
21
634.585812
31
  0.000000
0
LINE
8
Gas
62
0
10
1085.635713
20
634.585812
30
  0.000000
11
1088.380611
21
634.720728
31
  0.000000
0
LINE
8
Gas
62
0
10
1088.380611
20
634.720728
30
  0.000000
11
1091.125661
21
634.849846
31
  0.000000
0
LINE
8
Gas
62
0
10
1091.125661
20
634.849846
30
  0.000000
11
1093.870875
21
634.972795
31
  0.000000
0
LINE
8
Gas
62
0
10
1093.870875
20
634.972795
30
  0.000000
11
1096.616267
21
635.089205
31
  0.000000
0
LINE
8
Gas
62
0
10
1096.616267
20
635.089205
30
  0.000000
11
1099.361848
21
635.198709
31
  0.000000
0
LINE
8
Gas
62
0
10
1099.361848
20
635.198709
30
  0.000000
11
1102.107631
21
635.300935
31
  0.000000
0
LINE
8
Gas
62
0
10
1102.107631
20
635.300935
30
  0.000000
11
1104.853630
21
635.395514
31
  0.000000
0
LINE
8
Gas
62
0
10
1104.853630
20
635.395514
30
  0.000000
11
1107.599857
21
635.482077
31
  0.000000
0
LINE
8
Gas
62
0
10
1107.599857
20
635.482077
30
  0.000000
11
1110.346324
21
635.560255
31
  0.000000
0
LINE
8
Gas
62
0
10
1110.346324
20
635.560255
30
  0.000000
11
1113.093045
21
635.629676
31
  0.000000
0
LINE
8
Gas
62
0
10
1113.093045
20
635.629676
30
  0.000000
11
1116.428893
21
635.701675
31
  0.000000
0
LINE
8
Gas
62
0
10
1116.428893
20
635.701675
30
  0.000000
11
1118.587296
21
635.740851
31
  0.000000
0
LINE
8
Gas
62
0
10
1118.587296
20
635.740851
30
  0.000000
11
1121.334829
21
635.782605
31
  0.000000
0
LINE
8
Gas
62
0
10
1121.334829
20
635.782605
30
  0.000000
11
1124.082613
21
635.815804
31
  0.000000
0
LINE
8
Gas
62
0
10
1124.082613
20
635.815804
30
  0.000000
11
1126.830632
21
635.841018
31
  0.000000
0
LINE
8
Gas
62
0
10
1126.830632
20
635.841018
30
  0.000000
11
1129.578869
21
635.858817
31
  0.000000
0
LINE
8
Gas
62
0
10
1129.578869
20
635.858817
30
  0.000000
11
1132.327307
21
635.869772
31
  0.000000
0
LINE
8
Gas
62
0
10
1132.327307
20
635.869772
30
  0.000000
11
1135.075930
21
635.874453
31
  0.000000
0
LINE
8
Gas
62
0
10
1135.075930
20
635.874453
30
  0.000000
11
1137.824721
21
635.873430
31
  0.000000
0
LINE
8
Gas
62
0
10
1137.824721
20
635.873430
30
  0.000000
11
1140.573663
21
635.867274
31
  0.000000
0
LINE
8
Gas
62
0
10
1140.573663
20
635.867274
30
  0.000000
11
1143.322739
21
635.856556
31
  0.000000
0
LINE
8
Gas
62
0
10
1143.322739
20
635.856556
30
  0.000000
11
1146.071932
21
635.841844
31
  0.000000
0
LINE
8
Gas
62
0
10
1146.071932
20
635.841844
30
  0.000000
11
1148.821226
21
635.823711
31
  0.000000
0
LINE
8
Gas
62
0
10
1148.821226
20
635.823711
30
  0.000000
11
1151.570604
21
635.802726
31
  0.000000
0
LINE
8
Gas
62
0
10
1151.570604
20
635.802726
30
  0.000000
11
1154.320050
21
635.779459
31
  0.000000
0
LINE
8
Gas
62
0
10
1154.320050
20
635.779459
30
  0.000000
11
1157.069545
21
635.754482
31
  0.000000
0
LINE
8
Gas
62
0
10
1157.069545
20
635.754482
30
  0.000000
11
1159.819074
21
635.728364
31
  0.000000
0
LINE
8
Gas
62
0
10
1159.819074
20
635.728364
30
  0.000000
11
1162.568620
21
635.701675
31
  0.000000
0
LINE
8
Gas
62
0
10
1162.568620
20
635.701675
30
  0.000000
11
1162.568597
21
 12.207000
31
  0.000000
0
LINE
8
Gas
62
0
10
1748.585370
20
 32.523331
30
  0.000000
11
1745.888197
21
 32.050822
31
  0.000000
0
LINE
8
Gas
62
0
10
1745.888197
20
 32.050822
30
  0.000000
11
1743.190400
21
 31.583748
31
  0.000000
0
LINE
8
Gas
62
0
10
1743.190400
20
 31.583748
30
  0.000000
11
1740.491359
21
 31.127544
31
  0.000000
0
LINE
8
Gas
62
0
10
1740.491359
20
 31.127544
30
  0.000000
11
1736.700331
21
 30.516051
31
  0.000000
0
LINE
8
Gas
62
0
10
1736.700331
20
 30.516051
30
  0.000000
11
1735.087078
21
 30.269260
31
  0.000000
0
LINE
8
Gas
62
0
10
1735.087078
20
 30.269260
30
  0.000000
11
1732.381029
21
 29.874228
31
  0.000000
0
LINE
8
Gas
62
0
10
1732.381029
20
 29.874228
30
  0.000000
11
1729.672393
21
 29.501762
31
  0.000000
0
LINE
8
Gas
62
0
10
1729.672393
20
 29.501762
30
  0.000000
11
1726.961266
21
 29.151006
31
  0.000000
0
LINE
8
Gas
62
0
10
1726.961266
20
 29.151006
30
  0.000000
11
1724.247743
21
 28.821104
31
  0.000000
0
LINE
8
Gas
62
0
10
1724.247743
20
 28.821104
30
  0.000000
11
1721.531922
21
 28.511201
31
  0.000000
0
LINE
8
Gas
62
0
10
1721.531922
20
 28.511201
30
  0.000000
11
1718.813899
21
 28.220442
31
  0.000000
0
LINE
8
Gas
62
0
10
1718.813899
20
 28.220442
30
  0.000000
11
1716.093769
21
 27.947972
31
  0.000000
0
LINE
8
Gas
62
0
10
1716.093769
20
 27.947972
30
  0.000000
11
1713.371628
21
 27.692934
31
  0.000000
0
LINE
8
Gas
62
0
10
1713.371628
20
 27.692934
30
  0.000000
11
1710.647574
21
 27.454474
31
  0.000000
0
LINE
8
Gas
62
0
10
1710.647574
20
 27.454474
30
  0.000000
11
1707.921702
21
 27.231737
31
  0.000000
0
LINE
8
Gas
62
0
10
1707.921702
20
 27.231737
30
  0.000000
11
1705.194109
21
 27.023865
31
  0.000000
0
LINE
8
Gas
62
0
10
1705.194109
20
 27.023865
30
  0.000000
11
1702.464890
21
 26.830006
31
  0.000000
0
LINE
8
Gas
62
0
10
1702.464890
20
 26.830006
30
  0.000000
11
1699.734143
21
 26.649302
31
  0.000000
0
LINE
8
Gas
62
0
10
1699.734143
20
 26.649302
30
  0.000000
11
1697.001962
21
 26.480898
31
  0.000000
0
LINE
8
Gas
62
0
10
1697.001962
20
 26.480898
30
  0.000000
11
1694.268445
21
 26.323939
31
  0.000000
0
LINE
8
Gas
62
0
10
1694.268445
20
 26.323939
30
  0.000000
11
1691.533687
21
 26.177571
31
  0.000000
0
LINE
8
Gas
62
0
10
1691.533687
20
 26.177571
30
  0.000000
11
1688.797785
21
 26.040936
31
  0.000000
0
LINE
8
Gas
62
0
10
1688.797785
20
 26.040936
30
  0.000000
11
1686.060835
21
 25.913180
31
  0.000000
0
LINE
8
Gas
62
0
10
1686.060835
20
 25.913180
30
  0.000000
11
1683.322933
21
 25.793448
31
  0.000000
0
LINE
8
Gas
62
0
10
1683.322933
20
 25.793448
30
  0.000000
11
1680.584175
21
 25.680883
31
  0.000000
0
LINE
8
Gas
62
0
10
1680.584175
20
 25.680883
30
  0.000000
11
1677.844658
21
 25.574632
31
  0.000000
0
LINE
8
Gas
62
0
10
1677.844658
20
 25.574632
30
  0.000000
11
1675.104478
21
 25.473837
31
  0.000000
0
LINE
8
Gas
62
0
10
1675.104478
20
 25.473837
30
  0.000000
11
1672.363731
21
 25.377644
31
  0.000000
0
LINE
8
Gas
62
0
10
1672.363731
20
 25.377644
30
  0.000000
11
1669.622513
21
 25.285198
31
  0.000000
0
LINE
8
Gas
62
0
10
1669.622513
20
 25.285198
30
  0.000000
11
1666.880921
21
 25.195642
31
  0.000000
0
LINE
8
Gas
62
0
10
1666.880921
20
 25.195642
30
  0.000000
11
1664.139050
21
 25.108122
31
  0.000000
0
LINE
8
Gas
62
0
10
1664.139050
20
 25.108122
30
  0.000000
11
1661.396997
21
 25.021782
31
  0.000000
0
LINE
8
Gas
62
0
10
1661.396997
20
 25.021782
30
  0.000000
11
1658.654858
21
 24.935767
31
  0.000000
0
LINE
8
Gas
62
0
10
1658.654858
20
 24.935767
30
  0.000000
11
1655.912730
21
 24.849221
31
  0.000000
0
LINE
8
Gas
62
0
10
1655.912730
20
 24.849221
30
  0.000000
11
1653.170708
21
 24.761289
31
  0.000000
0
LINE
8
Gas
62
0
10
1653.170708
20
 24.761289
30
  0.000000
11
1650.428888
21
 24.671115
31
  0.000000
0
LINE
8
Gas
62
0
10
1650.428888
20
 24.671115
30
  0.000000
11
1647.687368
21
 24.577844
31
  0.000000
0
LINE
8
Gas
62
0
10
1647.687368
20
 24.577844
30
  0.000000
11
1644.946243
21
 24.480622
31
  0.000000
0
LINE
8
Gas
62
0
10
1644.946243
20
 24.480622
30
  0.000000
11
1642.205609
21
 24.378591
31
  0.000000
0
LINE
8
Gas
62
0
10
1642.205609
20
 24.378591
30
  0.000000
11
1639.465562
21
 24.270897
31
  0.000000
0
LINE
8
Gas
62
0
10
1639.465562
20
 24.270897
30
  0.000000
11
1636.739190
21
 24.157243
31
  0.000000
0
LINE
8
Gas
62
0
10
1636.739190
20
 24.157243
30
  0.000000
11
1633.987595
21
 24.035302
31
  0.000000
0
LINE
8
Gas
62
0
10
1633.987595
20
 24.035302
30
  0.000000
11
1631.249738
21
 23.906905
31
  0.000000
0
LINE
8
Gas
62
0
10
1631.249738
20
 23.906905
30
  0.000000
11
1628.512598
21
 23.771845
31
  0.000000
0
LINE
8
Gas
62
0
10
1628.512598
20
 23.771845
30
  0.000000
11
1625.776142
21
 23.630476
31
  0.000000
0
LINE
8
Gas
62
0
10
1625.776142
20
 23.630476
30
  0.000000
11
1623.040339
21
 23.483152
31
  0.000000
0
LINE
8
Gas
62
0
10
1623.040339
20
 23.483152
30
  0.000000
11
1620.305158
21
 23.330224
31
  0.000000
0
LINE
8
Gas
62
0
10
1620.305158
20
 23.330224
30
  0.000000
11
1617.570566
21
 23.172046
31
  0.000000
0
LINE
8
Gas
62
0
10
1617.570566
20
 23.172046
30
  0.000000
11
1614.836532
21
 23.008971
31
  0.000000
0
LINE
8
Gas
62
0
10
1614.836532
20
 23.008971
30
  0.000000
11
1612.103025
21
 22.841352
31
  0.000000
0
LINE
8
Gas
62
0
10
1612.103025
20
 22.841352
30
  0.000000
11
1609.370012
21
 22.669542
31
  0.000000
0
LINE
8
Gas
62
0
10
1609.370012
20
 22.669542
30
  0.000000
11
1606.637463
21
 22.493895
31
  0.000000
0
LINE
8
Gas
62
0
10
1606.637463
20
 22.493895
30
  0.000000
11
1603.905346
21
 22.314763
31
  0.000000
0
LINE
8
Gas
62
0
10
1603.905346
20
 22.314763
30
  0.000000
11
1601.173629
21
 22.132499
31
  0.000000
0
LINE
8
Gas
62
0
10
1601.173629
20
 22.132499
30
  0.000000
11
1598.442280
21
 21.947456
31
  0.000000
0
LINE
8
Gas
62
0
10
1598.442280
20
 21.947456
30
  0.000000
11
1595.711268
21
 21.759987
31
  0.000000
0
LINE
8
Gas
62
0
10
1595.711268
20
 21.759987
30
  0.000000
11
1592.980561
21
 21.570446
31
  0.000000
0
LINE
8
Gas
62
0
10
1592.980561
20
 21.570446
30
  0.000000
11
1590.250128
21
 21.379186
31
  0.000000
0
LINE
8
Gas
62
0
10
1590.250128
20
 21.379186
30
  0.000000
11
1587.519937
21
 21.186559
31
  0.000000
0
LINE
8
Gas
62
0
10
1587.519937
20
 21.186559
30
  0.000000
11
1584.789957
21
 20.992918
31
  0.000000
0
LINE
8
Gas
62
0
10
1584.789957
20
 20.992918
30
  0.000000
11
1582.060155
21
 20.798617
31
  0.000000
0
LINE
8
Gas
62
0
10
1582.060155
20
 20.798617
30
  0.000000
11
1579.330501
21
 20.604009
31
  0.000000
0
LINE
8
Gas
62
0
10
1579.330501
20
 20.604009
30
  0.000000
11
1576.600962
21
 20.409446
31
  0.000000
0
LINE
8
Gas
62
0
10
1576.600962
20
 20.409446
30
  0.000000
11
1573.871507
21
 20.215282
31
  0.000000
0
LINE
8
Gas
62
0
10
1573.871507
20
 20.215282
30
  0.000000
11
1571.142105
21
 20.021870
31
  0.000000
0
LINE
8
Gas
62
0
10
1571.142105
20
 20.021870
30
  0.000000
11
1568.412723
21
 19.829562
31
  0.000000
0
LINE
8
Gas
62
0
10
1568.412723
20
 19.829562
30
  0.000000
11
1565.683331
21
 19.638712
31
  0.000000
0
LINE
8
Gas
62
0
10
1565.683331
20
 19.638712
30
  0.000000
11
1562.953896
21
 19.449674
31
  0.000000
0
LINE
8
Gas
62
0
10
1562.953896
20
 19.449674
30
  0.000000
11
1560.224387
21
 19.262799
31
  0.000000
0
LINE
8
Gas
62
0
10
1560.224387
20
 19.262799
30
  0.000000
11
1557.494773
21
 19.078441
31
  0.000000
0
LINE
8
Gas
62
0
10
1557.494773
20
 19.078441
30
  0.000000
11
1554.765021
21
 18.896953
31
  0.000000
0
LINE
8
Gas
62
0
10
1554.765021
20
 18.896953
30
  0.000000
11
1552.035101
21
 18.718688
31
  0.000000
0
LINE
8
Gas
62
0
10
1552.035101
20
 18.718688
30
  0.000000
11
1549.304980
21
 18.543999
31
  0.000000
0
LINE
8
Gas
62
0
10
1549.304980
20
 18.543999
30
  0.000000
11
1546.574627
21
 18.373239
31
  0.000000
0
LINE
8
Gas
62
0
10
1546.574627
20
 18.373239
30
  0.000000
11
1543.844011
21
 18.206762
31
  0.000000
0
LINE
8
Gas
62
0
10
1543.844011
20
 18.206762
30
  0.000000
11
1541.113099
21
 18.044920
31
  0.000000
0
LINE
8
Gas
62
0
10
1541.113099
20
 18.044920
30
  0.000000
11
1538.381861
21
 17.888066
31
  0.000000
0
LINE
8
Gas
62
0
10
1538.381861
20
 17.888066
30
  0.000000
11
1536.778049
21
 17.798435
31
  0.000000
0
LINE
8
Gas
62
0
10
1536.778049
20
 17.798435
30
  0.000000
11
1532.918298
21
 17.590461
31
  0.000000
0
LINE
8
Gas
62
0
10
1532.918298
20
 17.590461
30
  0.000000
11
1530.185974
21
 17.449601
31
  0.000000
0
LINE
8
Gas
62
0
10
1530.185974
20
 17.449601
30
  0.000000
11
1527.453306
21
 17.313736
31
  0.000000
0
LINE
8
Gas
62
0
10
1527.453306
20
 17.313736
30
  0.000000
11
1524.720308
21
 17.182637
31
  0.000000
0
LINE
8
Gas
62
0
10
1524.720308
20
 17.182637
30
  0.000000
11
1521.986994
21
 17.056075
31
  0.000000
0
LINE
8
Gas
62
0
10
1521.986994
20
 17.056075
30
  0.000000
11
1519.253378
21
 16.933821
31
  0.000000
0
LINE
8
Gas
62
0
10
1519.253378
20
 16.933821
30
  0.000000
11
1516.519473
21
 16.815646
31
  0.000000
0
LINE
8
Gas
62
0
10
1516.519473
20
 16.815646
30
  0.000000
11
1513.785292
21
 16.701320
31
  0.000000
0
LINE
8
Gas
62
0
10
1513.785292
20
 16.701320
30
  0.000000
11
1511.050851
21
 16.590613
31
  0.000000
0
LINE
8
Gas
62
0
10
1511.050851
20
 16.590613
30
  0.000000
11
1508.316162
21
 16.483298
31
  0.000000
0
LINE
8
Gas
62
0
10
1508.316162
20
 16.483298
30
  0.000000
11
1505.581240
21
 16.379144
31
  0.000000
0
LINE
8
Gas
62
0
10
1505.581240
20
 16.379144
30
  0.000000
11
1502.846098
21
 16.277922
31
  0.000000
0
LINE
8
Gas
62
0
10
1502.846098
20
 16.277922
30
  0.000000
11
1500.110749
21
 16.179404
31
  0.000000
0
LINE
8
Gas
62
0
10
1500.110749
20
 16.179404
30
  0.000000
11
1497.375208
21
 16.083359
31
  0.000000
0
LINE
8
Gas
62
0
10
1497.375208
20
 16.083359
30
  0.000000
11
1494.639489
21
 15.989559
31
  0.000000
0
LINE
8
Gas
62
0
10
1494.639489
20
 15.989559
30
  0.000000
11
1491.903605
21
 15.897774
31
  0.000000
0
LINE
8
Gas
62
0
10
1491.903605
20
 15.897774
30
  0.000000
11
1489.167570
21
 15.807775
31
  0.000000
0
LINE
8
Gas
62
0
10
1489.167570
20
 15.807775
30
  0.000000
11
1486.431398
21
 15.719333
31
  0.000000
0
LINE
8
Gas
62
0
10
1486.431398
20
 15.719333
30
  0.000000
11
1483.695102
21
 15.632219
31
  0.000000
0
LINE
8
Gas
62
0
10
1483.695102
20
 15.632219
30
  0.000000
11
1480.958696
21
 15.546203
31
  0.000000
0
LINE
8
Gas
62
0
10
1480.958696
20
 15.546203
30
  0.000000
11
1478.222195
21
 15.461056
31
  0.000000
0
LINE
8
Gas
62
0
10
1478.222195
20
 15.461056
30
  0.000000
11
1475.485611
21
 15.376549
31
  0.000000
0
LINE
8
Gas
62
0
10
1475.485611
20
 15.376549
30
  0.000000
11
1472.748959
21
 15.292452
31
  0.000000
0
LINE
8
Gas
62
0
10
1472.748959
20
 15.292452
30
  0.000000
11
1470.012252
21
 15.208537
31
  0.000000
0
LINE
8
Gas
62
0
10
1470.012252
20
 15.208537
30
  0.000000
11
1467.275504
21
 15.124574
31
  0.000000
0
LINE
8
Gas
62
0
10
1467.275504
20
 15.124574
30
  0.000000
11
1464.538729
21
 15.040334
31
  0.000000
0
LINE
8
Gas
62
0
10
1464.538729
20
 15.040334
30
  0.000000
11
1461.801941
21
 14.955587
31
  0.000000
0
LINE
8
Gas
62
0
10
1461.801941
20
 14.955587
30
  0.000000
11
1459.065154
21
 14.870105
31
  0.000000
0
LINE
8
Gas
62
0
10
1459.065154
20
 14.870105
30
  0.000000
11
1456.328380
21
 14.783658
31
  0.000000
0
LINE
8
Gas
62
0
10
1456.328380
20
 14.783658
30
  0.000000
11
1453.591635
21
 14.696017
31
  0.000000
0
LINE
8
Gas
62
0
10
1453.591635
20
 14.696017
30
  0.000000
11
1450.854931
21
 14.606953
31
  0.000000
0
LINE
8
Gas
62
0
10
1450.854931
20
 14.606953
30
  0.000000
11
1448.118283
21
 14.516236
31
  0.000000
0
LINE
8
Gas
62
0
10
1448.118283
20
 14.516236
30
  0.000000
11
1445.381704
21
 14.423637
31
  0.000000
0
LINE
8
Gas
62
0
10
1445.381704
20
 14.423637
30
  0.000000
11
1442.645208
21
 14.328928
31
  0.000000
0
LINE
8
Gas
62
0
10
1442.645208
20
 14.328928
30
  0.000000
11
1439.908809
21
 14.231878
31
  0.000000
0
LINE
8
Gas
62
0
10
1439.908809
20
 14.231878
30
  0.000000
11
1436.765749
21
 14.117215
31
  0.000000
0
LINE
8
Gas
62
0
10
1436.765749
20
 14.117215
30
  0.000000
11
1434.436354
21
 14.029887
31
  0.000000
0
LINE
8
Gas
62
0
10
1434.436354
20
 14.029887
30
  0.000000
11
1431.700308
21
 13.924885
31
  0.000000
0
LINE
8
Gas
62
0
10
1431.700308
20
 13.924885
30
  0.000000
11
1428.964376
21
 13.817485
31
  0.000000
0
LINE
8
Gas
62
0
10
1428.964376
20
 13.817485
30
  0.000000
11
1426.228550
21
 13.707925
31
  0.000000
0
LINE
8
Gas
62
0
10
1426.228550
20
 13.707925
30
  0.000000
11
1423.492823
21
 13.596440
31
  0.000000
0
LINE
8
Gas
62
0
10
1423.492823
20
 13.596440
30
  0.000000
11
1420.757190
21
 13.483265
31
  0.000000
0
LINE
8
Gas
62
0
10
1420.757190
20
 13.483265
30
  0.000000
11
1418.021642
21
 13.368635
31
  0.000000
0
LINE
8
Gas
62
0
10
1418.021642
20
 13.368635
30
  0.000000
11
1415.286172
21
 13.252788
31
  0.000000
0
LINE
8
Gas
62
0
10
1415.286172
20
 13.252788
30
  0.000000
11
1412.550774
21
 13.135958
31
  0.000000
0
LINE
8
Gas
62
0
10
1412.550774
20
 13.135958
30
  0.000000
11
1409.815441
21
 13.018380
31
  0.000000
0
LINE
8
Gas
62
0
10
1409.815441
20
 13.018380
30
  0.000000
11
1407.080165
21
 12.900292
31
  0.000000
0
LINE
8
Gas
62
0
10
1407.080165
20
 12.900292
30
  0.000000
11
1404.344941
21
 12.781928
31
  0.000000
0
LINE
8
Gas
62
0
10
1404.344941
20
 12.781928
30
  0.000000
11
1401.609759
21
 12.663523
31
  0.000000
0
LINE
8
Gas
62
0
10
1401.609759
20
 12.663523
30
  0.000000
11
1398.874615
21
 12.545314
31
  0.000000
0
LINE
8
Gas
62
0
10
1398.874615
20
 12.545314
30
  0.000000
11
1396.139501
21
 12.427536
31
  0.000000
0
LINE
8
Gas
62
0
10
1396.139501
20
 12.427536
30
  0.000000
11
1393.404409
21
 12.310426
31
  0.000000
0
LINE
8
Gas
62
0
10
1393.404409
20
 12.310426
30
  0.000000
11
1390.669333
21
 12.194217
31
  0.000000
0
LINE
8
Gas
62
0
10
1390.669333
20
 12.194217
30
  0.000000
11
1387.934266
21
 12.079147
31
  0.000000
0
LINE
8
Gas
62
0
10
1387.934266
20
 12.079147
30
  0.000000
11
1385.199201
21
 11.965451
31
  0.000000
0
LINE
8
Gas
62
0
10
1385.199201
20
 11.965451
30
  0.000000
11
1382.464131
21
 11.853364
31
  0.000000
0
LINE
8
Gas
62
0
10
1382.464131
20
 11.853364
30
  0.000000
11
1379.729049
21
 11.743122
31
  0.000000
0
LINE
8
Gas
62
0
10
1379.729049
20
 11.743122
30
  0.000000
11
1376.993948
21
 11.634961
31
  0.000000
0
LINE
8
Gas
62
0
10
1376.993948
20
 11.634961
30
  0.000000
11
1374.258821
21
 11.529116
31
  0.000000
0
LINE
8
Gas
62
0
10
1374.258821
20
 11.529116
30
  0.000000
11
1371.523661
21
 11.425824
31
  0.000000
0
LINE
8
Gas
62
0
10
1371.523661
20
 11.425824
30
  0.000000
11
1368.788461
21
 11.325319
31
  0.000000
0
LINE
8
Gas
62
0
10
1368.788461
20
 11.325319
30
  0.000000
11
1366.053214
21
 11.227838
31
  0.000000
0
LINE
8
Gas
62
0
10
1366.053214
20
 11.227838
30
  0.000000
11
1363.317913
21
 11.133615
31
  0.000000
0
LINE
8
Gas
62
0
10
1363.317913
20
 11.133615
30
  0.000000
11
1360.582551
21
 11.042887
31
  0.000000
0
LINE
8
Gas
62
0
10
1360.582551
20
 11.042887
30
  0.000000
11
1357.847122
21
 10.955890
31
  0.000000
0
LINE
8
Gas
62
0
10
1357.847122
20
 10.955890
30
  0.000000
11
1355.111617
21
 10.872859
31
  0.000000
0
LINE
8
Gas
62
0
10
1355.111617
20
 10.872859
30
  0.000000
11
1352.376031
21
 10.794029
31
  0.000000
0
LINE
8
Gas
62
0
10
1352.376031
20
 10.794029
30
  0.000000
11
1349.640356
21
 10.719636
31
  0.000000
0
LINE
8
Gas
62
0
10
1349.640356
20
 10.719636
30
  0.000000
11
1346.904585
21
 10.649916
31
  0.000000
0
LINE
8
Gas
62
0
10
1346.904585
20
 10.649916
30
  0.000000
11
1344.168712
21
 10.585105
31
  0.000000
0
LINE
8
Gas
62
0
10
1344.168712
20
 10.585105
30
  0.000000
11
1341.432729
21
 10.525438
31
  0.000000
0
LINE
8
Gas
62
0
10
1341.432729
20
 10.525438
30
  0.000000
11
1338.696629
21
 10.471151
31
  0.000000
0
LINE
8
Gas
62
0
10
1338.696629
20
 10.471151
30
  0.000000
11
1336.753449
21
 10.435995
31
  0.000000
0
LINE
8
Gas
62
0
10
1336.753449
20
 10.435995
30
  0.000000
11
1333.224057
21
 10.379484
31
  0.000000
0
LINE
8
Gas
62
0
10
1333.224057
20
 10.379484
30
  0.000000
11
1330.487586
21
 10.341941
31
  0.000000
0
LINE
8
Gas
62
0
10
1330.487586
20
 10.341941
30
  0.000000
11
1327.751000
21
 10.309593
31
  0.000000
0
LINE
8
Gas
62
0
10
1327.751000
20
 10.309593
30
  0.000000
11
1325.014304
21
 10.282183
31
  0.000000
0
LINE
8
Gas
62
0
10
1325.014304
20
 10.282183
30
  0.000000
11
1322.277504
21
 10.259454
31
  0.000000
0
LINE
8
Gas
62
0
10
1322.277504
20
 10.259454
30
  0.000000
11
1319.540605
21
 10.241149
31
  0.000000
0
LINE
8
Gas
62
0
10
1319.540605
20
 10.241149
30
  0.000000
11
1316.803614
21
 10.227012
31
  0.000000
0
LINE
8
Gas
62
0
10
1316.803614
20
 10.227012
30
  0.000000
11
1314.066536
21
 10.216785
31
  0.000000
0
LINE
8
Gas
62
0
10
1314.066536
20
 10.216785
30
  0.000000
11
1311.329377
21
 10.210212
31
  0.000000
0
LINE
8
Gas
62
0
10
1311.329377
20
 10.210212
30
  0.000000
11
1308.592142
21
 10.207036
31
  0.000000
0
LINE
8
Gas
62
0
10
1308.592142
20
 10.207036
30
  0.000000
11
1305.854837
21
 10.207000
31
  0.000000
0
LINE
8
Gas
62
0
10
1305.854837
20
 10.207000
30
  0.000000
11
1303.117469
21
 10.209848
31
  0.000000
0
LINE
8
Gas
62
0
10
1303.117469
20
 10.209848
30
  0.000000
11
1300.380041
21
 10.215321
31
  0.000000
0
LINE
8
Gas
62
0
10
1300.380041
20
 10.215321
30
  0.000000
11
1297.642562
21
 10.223165
31
  0.000000
0
LINE
8
Gas
62
0
10
1297.642562
20
 10.223165
30
  0.000000
11
1294.905035
21
 10.233121
31
  0.000000
0
LINE
8
Gas
62
0
10
1294.905035
20
 10.233121
30
  0.000000
11
1292.167467
21
 10.244933
31
  0.000000
0
LINE
8
Gas
62
0
10
1292.167467
20
 10.244933
30
  0.000000
11
1289.429863
21
 10.258344
31
  0.000000
0
LINE
8
Gas
62
0
10
1289.429863
20
 10.258344
30
  0.000000
11
1286.692230
21
 10.273097
31
  0.000000
0
LINE
8
Gas
62
0
10
1286.692230
20
 10.273097
30
  0.000000
11
1283.954572
21
 10.288936
31
  0.000000
0
LINE
8
Gas
62
0
10
1283.954572
20
 10.288936
30
  0.000000
11
1281.216896
21
 10.305603
31
  0.000000
0
LINE
8
Gas
62
0
10
1281.216896
20
 10.305603
30
  0.000000
11
1278.479207
21
 10.322842
31
  0.000000
0
LINE
8
Gas
62
0
10
1278.479207
20
 10.322842
30
  0.000000
11
1275.741511
21
 10.340396
31
  0.000000
0
LINE
8
Gas
62
0
10
1275.741511
20
 10.340396
30
  0.000000
11
1273.003814
21
 10.358008
31
  0.000000
0
LINE
8
Gas
62
0
10
1273.003814
20
 10.358008
30
  0.000000
11
1270.266122
21
 10.375422
31
  0.000000
0
LINE
8
Gas
62
0
10
1270.266122
20
 10.375422
30
  0.000000
11
1267.528439
21
 10.392379
31
  0.000000
0
LINE
8
Gas
62
0
10
1267.528439
20
 10.392379
30
  0.000000
11
1264.790772
21
 10.408625
31
  0.000000
0
LINE
8
Gas
62
0
10
1264.790772
20
 10.408625
30
  0.000000
11
1262.053127
21
 10.423901
31
  0.000000
0
LINE
8
Gas
62
0
10
1262.053127
20
 10.423901
30
  0.000000
11
1259.712225
21
 10.436000
31
  0.000000
0
LINE
8
Gas
62
0
10
1259.712225
20
 10.436000
30
  0.000000
11
1256.577923
21
 10.450595
31
  0.000000
0
LINE
8
Gas
62
0
10
1256.577923
20
 10.450595
30
  0.000000
11
1253.840367
21
 10.461852
31
  0.000000
0
LINE
8
Gas
62
0
10
1253.840367
20
 10.461852
30
  0.000000
11
1251.102841
21
 10.471773
31
  0.000000
0
LINE
8
Gas
62
0
10
1251.102841
20
 10.471773
30
  0.000000
11
1248.365344
21
 10.480410
31
  0.000000
0
LINE
8
Gas
62
0
10
1248.365344
20
 10.480410
30
  0.000000
11
1245.627873
21
 10.487815
31
  0.000000
0
LINE
8
Gas
62
0
10
1245.627873
20
 10.487815
30
  0.000000
11
1242.890430
21
 10.494038
31
  0.000000
0
LINE
8
Gas
62
0
10
1242.890430
20
 10.494038
30
  0.000000
11
1240.153011
21
 10.499131
31
  0.000000
0
LINE
8
Gas
62
0
10
1240.153011
20
 10.499131
30
  0.000000
11
1237.415616
21
 10.503145
31
  0.000000
0
LINE
8
Gas
62
0
10
1237.415616
20
 10.503145
30
  0.000000
11
1234.678244
21
 10.506132
31
  0.000000
0
LINE
8
Gas
62
0
10
1234.678244
20
 10.506132
30
  0.000000
11
1231.940894
21
 10.508143
31
  0.000000
0
LINE
8
Gas
62
0
10
1231.940894
20
 10.508143
30
  0.000000
11
1229.203565
21
 10.509229
31
  0.000000
0
LINE
8
Gas
62
0
10
1229.203565
20
 10.509229
30
  0.000000
11
1226.466254
21
 10.509442
31
  0.000000
0
LINE
8
Gas
62
0
10
1226.466254
20
 10.509442
30
  0.000000
11
1223.728963
21
 10.508833
31
  0.000000
0
LINE
8
Gas
62
0
10
1223.728963
20
 10.508833
30
  0.000000
11
1220.991688
21
 10.507454
31
  0.000000
0
LINE
8
Gas
62
0
10
1220.991688
20
 10.507454
30
  0.000000
11
1218.254429
21
 10.505356
31
  0.000000
0
LINE
8
Gas
62
0
10
1218.254429
20
 10.505356
30
  0.000000
11
1215.517185
21
 10.502589
31
  0.000000
0
LINE
8
Gas
62
0
10
1215.517185
20
 10.502589
30
  0.000000
11
1212.779955
21
 10.499207
31
  0.000000
0
LINE
8
Gas
62
0
10
1212.779955
20
 10.499207
30
  0.000000
11
1210.042737
21
 10.495259
31
  0.000000
0
LINE
8
Gas
62
0
10
1210.042737
20
 10.495259
30
  0.000000
11
1207.305531
21
 10.490798
31
  0.000000
0
LINE
8
Gas
62
0
10
1207.305531
20
 10.490798
30
  0.000000
11
1204.568335
21
 10.485874
31
  0.000000
0
LINE
8
Gas
62
0
10
1204.568335
20
 10.485874
30
  0.000000
11
1201.831148
21
 10.480540
31
  0.000000
0
LINE
8
Gas
62
0
10
1201.831148
20
 10.480540
30
  0.000000
11
1199.093969
21
 10.474846
31
  0.000000
0
LINE
8
Gas
62
0
10
1199.093969
20
 10.474846
30
  0.000000
11
1196.356797
21
 10.468843
31
  0.000000
0
LINE
8
Gas
62
0
10
1196.356797
20
 10.468843
30
  0.000000
11
1193.619631
21
 10.462584
31
  0.000000
0
LINE
8
Gas
62
0
10
1193.619631
20
 10.462584
30
  0.000000
11
1190.882469
21
 10.456119
31
  0.000000
0
LINE
8
Gas
62
0
10
1190.882469
20
 10.456119
30
  0.000000
11
1188.145311
21
 10.449501
31
  0.000000
0
LINE
8
Gas
62
0
10
1188.145311
20
 10.449501
30
  0.000000
11
1185.408155
21
 10.442779
31
  0.000000
0
LINE
8
Gas
62
0
10
1185.408155
20
 10.442779
30
  0.000000
11
1182.671000
21
 10.436006
31
  0.000000
0
LINE
8
Gas
62
0
10
1182.671000
20
 10.436006
30
  0.000000
11
1182.671024
21
633.930681
31
  0.000000
0
LINE
8
Gas
62
0
10
1182.671024
20
633.930681
30
  0.000000
11
1185.408179
21
633.923908
31
  0.000000
0
LINE
8
Gas
62
0
10
1185.408179
20
633.923908
30
  0.000000
11
1188.145335
21
633.917186
31
  0.000000
0
LINE
8
Gas
62
0
10
1188.145335
20
633.917186
30
  0.000000
11
1190.882493
21
633.910567
31
  0.000000
0
LINE
8
Gas
62
0
10
1190.882493
20
633.910567
30
  0.000000
11
1193.619655
21
633.904102
31
  0.000000
0
LINE
8
Gas
62
0
10
1193.619655
20
633.904102
30
  0.000000
11
1196.356821
21
633.897843
31
  0.000000
0
LINE
8
Gas
62
0
10
1196.356821
20
633.897843
30
  0.000000
11
1199.093993
21
633.891841
31
  0.000000
0
LINE
8
Gas
62
0
10
1199.093993
20
633.891841
30
  0.000000
11
1201.831172
21
633.886146
31
  0.000000
0
LINE
8
Gas
62
0
10
1201.831172
20
633.886146
30
  0.000000
11
1204.568359
21
633.880811
31
  0.000000
0
LINE
8
Gas
62
0
10
1204.568359
20
633.880811
30
  0.000000
11
1207.305555
21
633.875888
31
  0.000000
0
LINE
8
Gas
62
0
10
1207.305555
20
633.875888
30
  0.000000
11
1210.042761
21
633.871426
31
  0.000000
0
LINE
8
Gas
62
0
10
1210.042761
20
633.871426
30
  0.000000
11
1212.779979
21
633.867478
31
  0.000000
0
LINE
8
Gas
62
0
10
1212.779979
20
633.867478
30
  0.000000
11
1215.517209
21
633.864095
31
  0.000000
0
LINE
8
Gas
62
0
10
1215.517209
20
633.864095
30
  0.000000
11
1218.254453
21
633.861329
31
  0.000000
0
LINE
8
Gas
62
0
10
1218.254453
20
633.861329
30
  0.000000
11
1220.991711
21
633.859230
31
  0.000000
0
LINE
8
Gas
62
0
10
1220.991711
20
633.859230
30
  0.000000
11
1223.728986
21
633.857851
31
  0.000000
0
LINE
8
Gas
62
0
10
1223.728986
20
633.857851
30
  0.000000
11
1226.466278
21
633.857242
31
  0.000000
0
LINE
8
Gas
62
0
10
1226.466278
20
633.857242
30
  0.000000
11
1229.203588
21
633.857455
31
  0.000000
0
LINE
8
Gas
62
0
10
1229.203588
20
633.857455
30
  0.000000
11
1231.940918
21
633.858541
31
  0.000000
0
LINE
8
Gas
62
0
10
1231.940918
20
633.858541
30
  0.000000
11
1234.678268
21
633.860551
31
  0.000000
0
LINE
8
Gas
62
0
10
1234.678268
20
633.860551
30
  0.000000
11
1237.415640
21
633.863538
31
  0.000000
0
LINE
8
Gas
62
0
10
1237.415640
20
633.863538
30
  0.000000
11
1240.153035
21
633.867552
31
  0.000000
0
LINE
8
Gas
62
0
10
1240.153035
20
633.867552
30
  0.000000
11
1242.890453
21
633.872645
31
  0.000000
0
LINE
8
Gas
62
0
10
1242.890453
20
633.872645
30
  0.000000
11
1245.627897
21
633.878868
31
  0.000000
0
LINE
8
Gas
62
0
10
1245.627897
20
633.878868
30
  0.000000
11
1248.365367
21
633.886272
31
  0.000000
0
LINE
8
Gas
62
0
10
1248.365367
20
633.886272
30
  0.000000
11
1251.102865
21
633.894909
31
  0.000000
0
LINE
8
Gas
62
0
10
1251.102865
20
633.894909
30
  0.000000
11
1253.840391
21
633.904830
31
  0.000000
0
LINE
8
Gas
62
0
10
1253.840391
20
633.904830
30
  0.000000
11
1256.577947
21
633.916087
31
  0.000000
0
LINE
8
Gas
62
0
10
1256.577947
20
633.916087
30
  0.000000
11
1259.712248
21
633.930681
31
  0.000000
0
LINE
8
Gas
62
0
10
1259.712248
20
633.930681
30
  0.000000
11
1262.053151
21
633.942780
31
  0.000000
0
LINE
8
Gas
62
0
10
1262.053151
20
633.942780
30
  0.000000
11
1264.790796
21
633.958056
31
  0.000000
0
LINE
8
Gas
62
0
10
1264.790796
20
633.958056
30
  0.000000
11
1267.528463
21
633.974301
31
  0.000000
0
LINE
8
Gas
62
0
10
1267.528463
20
633.974301
30
  0.000000
11
1270.266145
21
633.991259
31
  0.000000
0
LINE
8
Gas
62
0
10
1270.266145
20
633.991259
30
  0.000000
11
1273.003838
21
634.008672
31
  0.000000
0
LINE
8
Gas
62
0
10
1273.003838
20
634.008672
30
  0.000000
11
1275.741535
21
634.026284
31
  0.000000
0
LINE
8
Gas
62
0
10
1275.741535
20
634.026284
30
  0.000000
11
1278.479231
21
634.043838
31
  0.000000
0
LINE
8
Gas
62
0
10
1278.479231
20
634.043838
30
  0.000000
11
1281.216920
21
634.061076
31
  0.000000
0
LINE
8
Gas
62
0
10
1281.216920
20
634.061076
30
  0.000000
11
1283.954596
21
634.077744
31
  0.000000
0
LINE
8
Gas
62
0
10
1283.954596
20
634.077744
30
  0.000000
11
1286.692253
21
634.093582
31
  0.000000
0
LINE
8
Gas
62
0
10
1286.692253
20
634.093582
30
  0.000000
11
1289.429887
21
634.108335
31
  0.000000
0
LINE
8
Gas
62
0
10
1289.429887
20
634.108335
30
  0.000000
11
1292.167490
21
634.121746
31
  0.000000
0
LINE
8
Gas
62
0
10
1292.167490
20
634.121746
30
  0.000000
11
1294.905058
21
634.133558
31
  0.000000
0
LINE
8
Gas
62
0
10
1294.905058
20
634.133558
30
  0.000000
11
1297.642585
21
634.143514
31
  0.000000
0
LINE
8
Gas
62
0
10
1297.642585
20
634.143514
30
  0.000000
11
1300.380065
21
634.151357
31
  0.000000
0
LINE
8
Gas
62
0
10
1300.380065
20
634.151357
30
  0.000000
11
1303.117492
21
634.156831
31
  0.000000
0
LINE
8
Gas
62
0
10
1303.117492
20
634.156831
30
  0.000000
11
1305.854861
21
634.159678
31
  0.000000
0
LINE
8
Gas
62
0
10
1305.854861
20
634.159678
30
  0.000000
11
1308.592166
21
634.159642
31
  0.000000
0
LINE
8
Gas
62
0
10
1308.592166
20
634.159642
30
  0.000000
11
1311.329401
21
634.156465
31
  0.000000
0
LINE
8
Gas
62
0
10
1311.329401
20
634.156465
30
  0.000000
11
1314.066560
21
634.149892
31
  0.000000
0
LINE
8
Gas
62
0
10
1314.066560
20
634.149892
30
  0.000000
11
1316.803638
21
634.139665
31
  0.000000
0
LINE
8
Gas
62
0
10
1316.803638
20
634.139665
30
  0.000000
11
1319.540629
21
634.125528
31
  0.000000
0
LINE
8
Gas
62
0
10
1319.540629
20
634.125528
30
  0.000000
11
1322.277527
21
634.107223
31
  0.000000
0
LINE
8
Gas
62
0
10
1322.277527
20
634.107223
30
  0.000000
11
1325.014327
21
634.084494
31
  0.000000
0
LINE
8
Gas
62
0
10
1325.014327
20
634.084494
30
  0.000000
11
1327.751023
21
634.057083
31
  0.000000
0
LINE
8
Gas
62
0
10
1327.751023
20
634.057083
30
  0.000000
11
1330.487610
21
634.024735
31
  0.000000
0
LINE
8
Gas
62
0
10
1330.487610
20
634.024735
30
  0.000000
11
1333.224080
21
633.987192
31
  0.000000
0
LINE
8
Gas
62
0
10
1333.224080
20
633.987192
30
  0.000000
11
1336.753473
21
633.930681
31
  0.000000
0
LINE
8
Gas
62
0
10
1336.753473
20
633.930681
30
  0.000000
11
1338.696653
21
633.895524
31
  0.000000
0
LINE
8
Gas
62
0
10
1338.696653
20
633.895524
30
  0.000000
11
1341.432753
21
633.841237
31
  0.000000
0
LINE
8
Gas
62
0
10
1341.432753
20
633.841237
30
  0.000000
11
1344.168736
21
633.781570
31
  0.000000
0
LINE
8
Gas
62
0
10
1344.168736
20
633.781570
30
  0.000000
11
1346.904609
21
633.716758
31
  0.000000
0
LINE
8
Gas
62
0
10
1346.904609
20
633.716758
30
  0.000000
11
1349.640380
21
633.647039
31
  0.000000
0
LINE
8
Gas
62
0
10
1349.640380
20
633.647039
30
  0.000000
11
1352.376055
21
633.572646
31
  0.000000
0
LINE
8
Gas
62
0
10
1352.376055
20
633.572646
30
  0.000000
11
1355.111641
21
633.493816
31
  0.000000
0
LINE
8
Gas
62
0
10
1355.111641
20
633.493816
30
  0.000000
11
1357.847145
21
633.410784
31
  0.000000
0
LINE
8
Gas
62
0
10
1357.847145
20
633.410784
30
  0.000000
11
1360.582575
21
633.323786
31
  0.000000
0
LINE
8
Gas
62
0
10
1360.582575
20
633.323786
30
  0.000000
11
1363.317937
21
633.233058
31
  0.000000
0
LINE
8
Gas
62
0
10
1363.317937
20
633.233058
30
  0.000000
11
1366.053237
21
633.138836
31
  0.000000
0
LINE
8
Gas
62
0
10
1366.053237
20
633.138836
30
  0.000000
11
1368.788484
21
633.041354
31
  0.000000
0
LINE
8
Gas
62
0
10
1368.788484
20
633.041354
30
  0.000000
11
1371.523684
21
632.940849
31
  0.000000
0
LINE
8
Gas
62
0
10
1371.523684
20
632.940849
30
  0.000000
11
1374.258844
21
632.837556
31
  0.000000
0
LINE
8
Gas
62
0
10
1374.258844
20
632.837556
30
  0.000000
11
1376.993972
21
632.731711
31
  0.000000
0
LINE
8
Gas
62
0
10
1376.993972
20
632.731711
30
  0.000000
11
1379.729073
21
632.623550
31
  0.000000
0
LINE
8
Gas
62
0
10
1379.729073
20
632.623550
30
  0.000000
11
1382.464155
21
632.513308
31
  0.000000
0
LINE
8
Gas
62
0
10
1382.464155
20
632.513308
30
  0.000000
11
1385.199225
21
632.401221
31
  0.000000
0
LINE
8
Gas
62
0
10
1385.199225
20
632.401221
30
  0.000000
11
1387.934290
21
632.287525
31
  0.000000
0
LINE
8
Gas
62
0
10
1387.934290
20
632.287525
30
  0.000000
11
1390.669357
21
632.172454
31
  0.000000
0
LINE
8
Gas
62
0
10
1390.669357
20
632.172454
30
  0.000000
11
1393.404433
21
632.056246
31
  0.000000
0
LINE
8
Gas
62
0
10
1393.404433
20
632.056246
30
  0.000000
11
1396.139524
21
631.939135
31
  0.000000
0
LINE
8
Gas
62
0
10
1396.139524
20
631.939135
30
  0.000000
11
1398.874639
21
631.821357
31
  0.000000
0
LINE
8
Gas
62
0
10
1398.874639
20
631.821357
30
  0.000000
11
1401.609783
21
631.703148
31
  0.000000
0
LINE
8
Gas
62
0
10
1401.609783
20
631.703148
30
  0.000000
11
1404.344964
21
631.584743
31
  0.000000
0
LINE
8
Gas
62
0
10
1404.344964
20
631.584743
30
  0.000000
11
1407.080189
21
631.466378
31
  0.000000
0
LINE
8
Gas
62
0
10
1407.080189
20
631.466378
30
  0.000000
11
1409.815464
21
631.348290
31
  0.000000
0
LINE
8
Gas
62
0
10
1409.815464
20
631.348290
30
  0.000000
11
1412.550798
21
631.230712
31
  0.000000
0
LINE
8
Gas
62
0
10
1412.550798
20
631.230712
30
  0.000000
11
1415.286195
21
631.113882
31
  0.000000
0
LINE
8
Gas
62
0
10
1415.286195
20
631.113882
30
  0.000000
11
1418.021665
21
630.998034
31
  0.000000
0
LINE
8
Gas
62
0
10
1418.021665
20
630.998034
30
  0.000000
11
1420.757213
21
630.883405
31
  0.000000
0
LINE
8
Gas
62
0
10
1420.757213
20
630.883405
30
  0.000000
11
1423.492847
21
630.770229
31
  0.000000
0
LINE
8
Gas
62
0
10
1423.492847
20
630.770229
30
  0.000000
11
1426.228573
21
630.658744
31
  0.000000
0
LINE
8
Gas
62
0
10
1426.228573
20
630.658744
30
  0.000000
11
1428.964399
21
630.549183
31
  0.000000
0
LINE
8
Gas
62
0
10
1428.964399
20
630.549183
30
  0.000000
11
1431.700331
21
630.441784
31
  0.000000
0
LINE
8
Gas
62
0
10
1431.700331
20
630.441784
30
  0.000000
11
1434.436377
21
630.336781
31
  0.000000
0
LINE
8
Gas
62
0
10
1434.436377
20
630.336781
30
  0.000000
11
1436.765773
21
630.249453
31
  0.000000
0
LINE
8
Gas
62
0
10
1436.765773
20
630.249453
30
  0.000000
11
1439.908832
21
630.134790
31
  0.000000
0
LINE
8
Gas
62
0
10
1439.908832
20
630.134790
30
  0.000000
11
1442.645231
21
630.037740
31
  0.000000
0
LINE
8
Gas
62
0
10
1442.645231
20
630.037740
30
  0.000000
11
1445.381727
21
629.943030
31
  0.000000
0
LINE
8
Gas
62
0
10
1445.381727
20
629.943030
30
  0.000000
11
1448.118306
21
629.850431
31
  0.000000
0
LINE
8
Gas
62
0
10
1448.118306
20
629.850431
30
  0.000000
11
1450.854954
21
629.759714
31
  0.000000
0
LINE
8
Gas
62
0
10
1450.854954
20
629.759714
30
  0.000000
11
1453.591658
21
629.670649
31
  0.000000
0
LINE
8
Gas
62
0
10
1453.591658
20
629.670649
30
  0.000000
11
1456.328404
21
629.583008
31
  0.000000
0
LINE
8
Gas
62
0
10
1456.328404
20
629.583008
30
  0.000000
11
1459.065177
21
629.496561
31
  0.000000
0
LINE
8
Gas
62
0
10
1459.065177
20
629.496561
30
  0.000000
11
1461.801965
21
629.411079
31
  0.000000
0
LINE
8
Gas
62
0
10
1461.801965
20
629.411079
30
  0.000000
11
1464.538753
21
629.326332
31
  0.000000
0
LINE
8
Gas
62
0
10
1464.538753
20
629.326332
30
  0.000000
11
1467.275528
21
629.242092
31
  0.000000
0
LINE
8
Gas
62
0
10
1467.275528
20
629.242092
30
  0.000000
11
1470.012275
21
629.158128
31
  0.000000
0
LINE
8
Gas
62
0
10
1470.012275
20
629.158128
30
  0.000000
11
1472.748982
21
629.074213
31
  0.000000
0
LINE
8
Gas
62
0
10
1472.748982
20
629.074213
30
  0.000000
11
1475.485634
21
628.990116
31
  0.000000
0
LINE
8
Gas
62
0
10
1475.485634
20
628.990116
30
  0.000000
11
1478.222218
21
628.905609
31
  0.000000
0
LINE
8
Gas
62
0
10
1478.222218
20
628.905609
30
  0.000000
11
1480.958719
21
628.820462
31
  0.000000
0
LINE
8
Gas
62
0
10
1480.958719
20
628.820462
30
  0.000000
11
1483.695125
21
628.734446
31
  0.000000
0
LINE
8
Gas
62
0
10
1483.695125
20
628.734446
30
  0.000000
11
1486.431421
21
628.647331
31
  0.000000
0
LINE
8
Gas
62
0
10
1486.431421
20
628.647331
30
  0.000000
11
1489.167593
21
628.558889
31
  0.000000
0
LINE
8
Gas
62
0
10
1489.167593
20
628.558889
30
  0.000000
11
1491.903628
21
628.468890
31
  0.000000
0
LINE
8
Gas
62
0
10
1491.903628
20
628.468890
30
  0.000000
11
1494.639512
21
628.377105
31
  0.000000
0
LINE
8
Gas
62
0
10
1494.639512
20
628.377105
30
  0.000000
11
1497.375232
21
628.283304
31
  0.000000
0
LINE
8
Gas
62
0
10
1497.375232
20
628.283304
30
  0.000000
11
1500.110772
21
628.187259
31
  0.000000
0
LINE
8
Gas
62
0
10
1500.110772
20
628.187259
30
  0.000000
11
1502.846121
21
628.088740
31
  0.000000
0
LINE
8
Gas
62
0
10
1502.846121
20
628.088740
30
  0.000000
11
1505.581263
21
627.987519
31
  0.000000
0
LINE
8
Gas
62
0
10
1505.581263
20
627.987519
30
  0.000000
11
1508.316186
21
627.883365
31
  0.000000
0
LINE
8
Gas
62
0
10
1508.316186
20
627.883365
30
  0.000000
11
1511.050874
21
627.776049
31
  0.000000
0
LINE
8
Gas
62
0
10
1511.050874
20
627.776049
30
  0.000000
11
1513.785316
21
627.665343
31
  0.000000
0
LINE
8
Gas
62
0
10
1513.785316
20
627.665343
30
  0.000000
11
1516.519496
21
627.551016
31
  0.000000
0
LINE
8
Gas
62
0
10
1516.519496
20
627.551016
30
  0.000000
11
1519.253401
21
627.432840
31
  0.000000
0
LINE
8
Gas
62
0
10
1519.253401
20
627.432840
30
  0.000000
11
1521.987017
21
627.310586
31
  0.000000
0
LINE
8
Gas
62
0
10
1521.987017
20
627.310586
30
  0.000000
11
1524.720331
21
627.184024
31
  0.000000
0
LINE
8
Gas
62
0
10
1524.720331
20
627.184024
30
  0.000000
11
1527.453329
21
627.052925
31
  0.000000
0
LINE
8
Gas
62
0
10
1527.453329
20
627.052925
30
  0.000000
11
1530.185997
21
626.917060
31
  0.000000
0
LINE
8
Gas
62
0
10
1530.185997
20
626.917060
30
  0.000000
11
1532.918321
21
626.776200
31
  0.000000
0
LINE
8
Gas
62
0
10
1532.918321
20
626.776200
30
  0.000000
11
1536.778072
21
626.568225
31
  0.000000
0
LINE
8
Gas
62
0
10
1536.778072
20
626.568225
30
  0.000000
11
1538.381884
21
626.478594
31
  0.000000
0
LINE
8
Gas
62
0
10
1538.381884
20
626.478594
30
  0.000000
11
1541.113122
21
626.321740
31
  0.000000
0
LINE
8
Gas
62
0
10
1541.113122
20
626.321740
30
  0.000000
11
1543.844034
21
626.159898
31
  0.000000
0
LINE
8
Gas
62
0
10
1543.844034
20
626.159898
30
  0.000000
11
1546.574651
21
625.993420
31
  0.000000
0
LINE
8
Gas
62
0
10
1546.574651
20
625.993420
30
  0.000000
11
1549.305003
21
625.822660
31
  0.000000
0
LINE
8
Gas
62
0
10
1549.305003
20
625.822660
30
  0.000000
11
1552.035124
21
625.647971
31
  0.000000
0
LINE
8
Gas
62
0
10
1552.035124
20
625.647971
30
  0.000000
11
1554.765045
21
625.469706
31
  0.000000
0
LINE
8
Gas
62
0
10
1554.765045
20
625.469706
30
  0.000000
11
1557.494796
21
625.288218
31
  0.000000
0
LINE
8
Gas
62
0
10
1557.494796
20
625.288218
30
  0.000000
11
1560.224410
21
625.103860
31
  0.000000
0
LINE
8
Gas
62
0
10
1560.224410
20
625.103860
30
  0.000000
11
1562.953919
21
624.916985
31
  0.000000
0
LINE
8
Gas
62
0
10
1562.953919
20
624.916985
30
  0.000000
11
1565.683354
21
624.727946
31
  0.000000
0
LINE
8
Gas
62
0
10
1565.683354
20
624.727946
30
  0.000000
11
1568.412746
21
624.537096
31
  0.000000
0
LINE
8
Gas
62
0
10
1568.412746
20
624.537096
30
  0.000000
11
1571.142128
21
624.344788
31
  0.000000
0
LINE
8
Gas
62
0
10
1571.142128
20
624.344788
30
  0.000000
11
1573.871530
21
624.151376
31
  0.000000
0
LINE
8
Gas
62
0
10
1573.871530
20
624.151376
30
  0.000000
11
1576.600985
21
623.957211
31
  0.000000
0
LINE
8
Gas
62
0
10
1576.600985
20
623.957211
30
  0.000000
11
1579.330524
21
623.762648
31
  0.000000
0
LINE
8
Gas
62
0
10
1579.330524
20
623.762648
30
  0.000000
11
1582.060178
21
623.568040
31
  0.000000
0
LINE
8
Gas
62
0
10
1582.060178
20
623.568040
30
  0.000000
11
1584.789980
21
623.373739
31
  0.000000
0
LINE
8
Gas
62
0
10
1584.789980
20
623.373739
30
  0.000000
11
1587.519960
21
623.180098
31
  0.000000
0
LINE
8
Gas
62
0
10
1587.519960
20
623.180098
30
  0.000000
11
1590.250151
21
622.987470
31
  0.000000
0
LINE
8
Gas
62
0
10
1590.250151
20
622.987470
30
  0.000000
11
1592.980584
21
622.796210
31
  0.000000
0
LINE
8
Gas
62
0
10
1592.980584
20
622.796210
30
  0.000000
11
1595.711291
21
622.606668
31
  0.000000
0
LINE
8
Gas
62
0
10
1595.711291
20
622.606668
30
  0.000000
11
1598.442303
21
622.419200
31
  0.000000
0
LINE
8
Gas
62
0
10
1598.442303
20
622.419200
30
  0.000000
11
1601.173651
21
622.234157
31
  0.000000
0
LINE
8
Gas
62
0
10
1601.173651
20
622.234157
30
  0.000000
11
1603.905369
21
622.051893
31
  0.000000
0
LINE
8
Gas
62
0
10
1603.905369
20
622.051893
30
  0.000000
11
1606.637486
21
621.872760
31
  0.000000
0
LINE
8
Gas
62
0
10
1606.637486
20
621.872760
30
  0.000000
11
1609.370035
21
621.697112
31
  0.000000
0
LINE
8
Gas
62
0
10
1609.370035
20
621.697112
30
  0.000000
11
1612.103047
21
621.525303
31
  0.000000
0
LINE
8
Gas
62
0
10
1612.103047
20
621.525303
30
  0.000000
11
1614.836555
21
621.357684
31
  0.000000
0
LINE
8
Gas
62
0
10
1614.836555
20
621.357684
30
  0.000000
11
1617.570588
21
621.194608
31
  0.000000
0
LINE
8
Gas
62
0
10
1617.570588
20
621.194608
30
  0.000000
11
1620.305180
21
621.036430
31
  0.000000
0
LINE
8
Gas
62
0
10
1620.305180
20
621.036430
30
  0.000000
11
1623.040362
21
620.883502
31
  0.000000
0
LINE
8
Gas
62
0
10
1623.040362
20
620.883502
30
  0.000000
11
1625.776165
21
620.736177
31
  0.000000
0
LINE
8
Gas
62
0
10
1625.776165
20
620.736177
30
  0.000000
11
1628.512621
21
620.594808
31
  0.000000
0
LINE
8
Gas
62
0
10
1628.512621
20
620.594808
30
  0.000000
11
1631.249761
21
620.459748
31
  0.000000
0
LINE
8
Gas
62
0
10
1631.249761
20
620.459748
30
  0.000000
11
1633.987618
21
620.331351
31
  0.000000
0
LINE
8
Gas
62
0
10
1633.987618
20
620.331351
30
  0.000000
11
1636.739213
21
620.209410
31
  0.000000
0
LINE
8
Gas
62
0
10
1636.739213
20
620.209410
30
  0.000000
11
1639.465585
21
620.095756
31
  0.000000
0
LINE
8
Gas
62
0
10
1639.465585
20
620.095756
30
  0.000000
11
1642.205631
21
619.988062
31
  0.000000
0
LINE
8
Gas
62
0
10
1642.205631
20
619.988062
30
  0.000000
11
1644.946265
21
619.886031
31
  0.000000
0
LINE
8
Gas
62
0
10
1644.946265
20
619.886031
30
  0.000000
11
1647.687391
21
619.788807
31
  0.000000
0
LINE
8
Gas
62
0
10
1647.687391
20
619.788807
30
  0.000000
11
1650.428911
21
619.695537
31
  0.000000
0
LINE
8
Gas
62
0
10
1650.428911
20
619.695537
30
  0.000000
11
1653.170730
21
619.605363
31
  0.000000
0
LINE
8
Gas
62
0
10
1653.170730
20
619.605363
30
  0.000000
11
1655.912752
21
619.517431
31
  0.000000
0
LINE
8
Gas
62
0
10
1655.912752
20
619.517431
30
  0.000000
11
1658.654881
21
619.430884
31
  0.000000
0
LINE
8
Gas
62
0
10
1658.654881
20
619.430884
30
  0.000000
11
1661.397020
21
619.344869
31
  0.000000
0
LINE
8
Gas
62
0
10
1661.397020
20
619.344869
30
  0.000000
11
1664.139073
21
619.258529
31
  0.000000
0
LINE
8
Gas
62
0
10
1664.139073
20
619.258529
30
  0.000000
11
1666.880944
21
619.171008
31
  0.000000
0
LINE
8
Gas
62
0
10
1666.880944
20
619.171008
30
  0.000000
11
1669.622536
21
619.081453
31
  0.000000
0
LINE
8
Gas
62
0
10
1669.622536
20
619.081453
30
  0.000000
11
1672.363754
21
618.989006
31
  0.000000
0
LINE
8
Gas
62
0
10
1672.363754
20
618.989006
30
  0.000000
11
1675.104501
21
618.892813
31
  0.000000
0
LINE
8
Gas
62
0
10
1675.104501
20
618.892813
30
  0.000000
11
1677.844681
21
618.792018
31
  0.000000
0
LINE
8
Gas
62
0
10
1677.844681
20
618.792018
30
  0.000000
11
1680.584198
21
618.685766
31
  0.000000
0
LINE
8
Gas
62
0
10
1680.584198
20
618.685766
30
  0.000000
11
1683.322955
21
618.573201
31
  0.000000
0
LINE
8
Gas
62
0
10
1683.322955
20
618.573201
30
  0.000000
11
1686.060857
21
618.453469
31
  0.000000
0
LINE
8
Gas
62
0
10
1686.060857
20
618.453469
30
  0.000000
11
1688.797807
21
618.325713
31
  0.000000
0
LINE
8
Gas
62
0
10
1688.797807
20
618.325713
30
  0.000000
11
1691.533709
21
618.189078
31
  0.000000
0
LINE
8
Gas
62
0
10
1691.533709
20
618.189078
30
  0.000000
11
1694.268467
21
618.042709
31
  0.000000
0
LINE
8
Gas
62
0
10
1694.268467
20
618.042709
30
  0.000000
11
1697.001984
21
617.885750
31
  0.000000
0
LINE
8
Gas
62
0
10
1697.001984
20
617.885750
30
  0.000000
11
1699.734165
21
617.717346
31
  0.000000
0
LINE
8
Gas
62
0
10
1699.734165
20
617.717346
30
  0.000000
11
1702.464913
21
617.536642
31
  0.000000
0
LINE
8
Gas
62
0
10
1702.464913
20
617.536642
30
  0.000000
11
1705.194132
21
617.342782
31
  0.000000
0
LINE
8
Gas
62
0
10
1705.194132
20
617.342782
30
  0.000000
11
1707.921725
21
617.134911
31
  0.000000
0
LINE
8
Gas
62
0
10
1707.921725
20
617.134911
30
  0.000000
11
1710.647597
21
616.912173
31
  0.000000
0
LINE
8
Gas
62
0
10
1710.647597
20
616.912173
30
  0.000000
11
1713.371651
21
616.673712
31
  0.000000
0
LINE
8
Gas
62
0
10
1713.371651
20
616.673712
30
  0.000000
11
1716.093791
21
616.418675
31
  0.000000
0
LINE
8
Gas
62
0
10
1716.093791
20
616.418675
30
  0.000000
11
1718.813921
21
616.146204
31
  0.000000
0
LINE
8
Gas
62
0
10
1718.813921
20
616.146204
30
  0.000000
11
1721.531945
21
615.855445
31
  0.000000
0
LINE
8
Gas
62
0
10
1721.531945
20
615.855445
30
  0.000000
11
1724.247766
21
615.545542
31
  0.000000
0
LINE
8
Gas
62
0
10
1724.247766
20
615.545542
30
  0.000000
11
1726.961288
21
615.215640
31
  0.000000
0
LINE
8
Gas
62
0
10
1726.961288
20
615.215640
30
  0.000000
11
1729.672415
21
614.864884
31
  0.000000
0
LINE
8
Gas
62
0
10
1729.672415
20
614.864884
30
  0.000000
11
1732.381052
21
614.492417
31
  0.000000
0
LINE
8
Gas
62
0
10
1732.381052
20
614.492417
30
  0.000000
11
1735.087100
21
614.097385
31
  0.000000
0
LINE
8
Gas
62
0
10
1735.087100
20
614.097385
30
  0.000000
11
1736.700353
21
613.850595
31
  0.000000
0
LINE
8
Gas
62
0
10
1736.700353
20
613.850595
30
  0.000000
11
1740.491382
21
613.239101
31
  0.000000
0
LINE
8
Gas
62
0
10
1740.491382
20
613.239101
30
  0.000000
11
1743.190423
21
612.782897
31
  0.000000
0
LINE
8
Gas
62
0
10
1743.190423
20
612.782897
30
  0.000000
11
1745.888219
21
612.315822
31
  0.000000
0
LINE
8
Gas
62
0
10
1745.888219
20
612.315822
30
  0.000000
11
1748.585392
21
611.843314
31
  0.000000
0
LINE
8
Gas
62
0
10
1748.585392
20
611.843314
30
  0.000000
11
1748.585370
21
 32.523331
31
  0.000000
0
LINE
8
Gas
62
0
10
1172.204676
20
647.969000
30
  0.000000
11
 10.207000
21
647.969000
31
  0.000000
0
LINE
8
Gas
62
0
10
 10.207000
20
647.969000
30
  0.000000
11
 10.207000
21
867.968560
31
  0.000000
0
LINE
8
Gas
62
0
10
 10.207000
20
867.968560
30
  0.000000
11
1172.204676
21
867.968560
31
  0.000000
0
LINE
8
Gas
62
0
10
1172.204676
20
867.968560
30
  0.000000
11
1172.204676
21
647.969000
31
  0.000000
0
LINE
8
Gas
62
0
10
1746.363824
20
903.568178
30
  0.000000
11
1751.362647
21
898.569311
31
  0.000000
0
LINE
8
Gas
62
0
10
1751.362647
20
898.569311
30
  0.000000
11
1751.362647
21
778.568650
31
  0.000000
0
LINE
8
Gas
62
0
10
1751.362647
20
778.568650
30
  0.000000
11
1746.363824
21
773.569805
31
  0.000000
0
LINE
8
Gas
62
0
10
1746.363824
20
773.569805
30
  0.000000
11
1696.364736
21
773.569805
31
  0.000000
0
LINE
8
Gas
62
0
10
1696.364736
20
773.569805
30
  0.000000
11
1691.365913
21
778.568650
31
  0.000000
0
LINE
8
Gas
62
0
10
1691.365913
20
778.568650
30
  0.000000
11
1691.365913
21
898.569311
31
  0.000000
0
LINE
8
Gas
62
0
10
1691.365913
20
898.569311
30
  0.000000
11
1696.364736
21
903.568178
31
  0.000000
0
LINE
8
Gas
62
0
10
1696.364736
20
903.568178
30
  0.000000
11
1746.363824
21
903.568178
31
  0.000000
0
LINE
8
Gas
62
0
10
1735.679867
20
930.075866
30
  0.000000
11
1735.679867
21
1060.075606
31
  0.000000
0
LINE
8
Gas
62
0
10
1735.679867
20
1060.075606
30
  0.000000
11
1775.679787
21
1060.075606
31
  0.000000
0
LINE
8
Gas
62
0
10
1775.679787
20
1060.075606
30
  0.000000
11
1775.679787
21
930.075866
31
  0.000000
0
LINE
8
Gas
62
0
10
1775.679787
20
930.075866
30
  0.000000
11
1735.679867
21
930.075866
31
  0.000000
0
LINE
8
Gas
62
0
10
1753.311784
20
708.394029
30
  0.000000
11
1748.312917
21
703.395206
31
  0.000000
0
LINE
8
Gas
62
0
10
1748.312917
20
703.395206
30
  0.000000
11
1628.312256
21
703.395206
31
  0.000000
0
LINE
8
Gas
62
0
10
1628.312256
20
703.395206
30
  0.000000
11
1623.313411
21
708.394029
31
  0.000000
0
LINE
8
Gas
62
0
10
1623.313411
20
708.394029
30
  0.000000
11
1623.313411
21
758.393117
31
  0.000000
0
LINE
8
Gas
62
0
10
1623.313411
20
758.393117
30
  0.000000
11
1628.312256
21
763.391941
31
  0.000000
0
LINE
8
Gas
62
0
10
1628.312256
20
763.391941
30
  0.000000
11
1748.312917
21
763.391941
31
  0.000000
0
LINE
8
Gas
62
0
10
1748.312917
20
763.391941
30
  0.000000
11
1753.311784
21
758.393117
31
  0.000000
0
LINE
8
Gas
62
0
10
1753.311784
20
758.393117
30
  0.000000
11
1753.311784
21
708.394029
31
  0.000000
0
ENDSEC
0
EOF
