999
dxfrw 0.6.3
  0
SECTION
  2
HEADER
  9
$ACADVER
  1
AC1021
  9
$DWGCODEPAGE
  3
ANSI_1252
  9
$INSBASE
 10
0
 20
0
 30
0
  9
$EXTMIN
 10
197
 20
123.4840089987415
 30
0
  9
$EXTMAX
 10
399.0526633452312
 20
265.4309978113038
 30
0
  9
$LIMMIN
 10
0
 20
0
  9
$LIMMAX
 10
420
 20
297
  9
$ORTHOMODE
 70
    0
  9
$REGENMODE
 70
    1
  9
$FILLMODE
 70
    1
  9
$QTEXTMODE
 70
    0
  9
$MIRRTEXT
 70
    0
  9
$LTSCALE
 40
1
  9
$ATTMODE
 70
    0
  9
$TEXTSIZE
 40
2.5
  9
$TRACEWID
 40
15.68
  9
$TEXTSTYLE
  7
STANDARD
  9
$CLAYER
  8
0
  9
$CELTYPE
  6
BYLAYER
  9
$CECOLOR
 62
  256
  9
$CELTSCALE
 40
1
  9
$DISPSILH
 70
    0
  9
$DIMSCALE
 40
1
  9
$DIMASZ
 40
0.01
  9
$DIMEXO
 40
1
  9
$DIMDLI
 40
3.75
  9
$DIMRND
 40
0
  9
$DIMDLE
 40
0
  9
$DIMEXE
 40
1
  9
$DIMTP
 40
0
  9
$DIMTM
 40
0
  9
$DIMTXT
 40
3
  9
$DIMCEN
 40
2.5
  9
$DIMTSZ
 40
1
  9
$DIMTOL
 70
    0
  9
$DIMLIM
 70
    0
  9
$DIMTIH
 70
    0
  9
$DIMTOH
 70
    0
  9
$DIMSE1
 70
    0
  9
$DIMSE2
 70
    0
  9
$DIMTAD
 70
    1
  9
$DIMZIN
 70
    8
  9
$DIMBLK
  1

  9
$DIMASO
 70
    1
  9
$DIMSHO
 70
    1
  9
$DIMPOST
  1

  9
$DIMAPOST
  1

  9
$DIMALT
 70
    0
  9
$DIMALTD
 70
    3
  9
$DIMALTF
 40
0.03937
  9
$DIMLFAC
 40
1
  9
$DIMTOFL
 70
    1
  9
$DIMTVP
 40
0
  9
$DIMTIX
 70
    0
  9
$DIMSOXD
 70
    0
  9
$DIMSAH
 70
    0
  9
$DIMBLK1
  1

  9
$DIMBLK2
  1

  9
$DIMSTYLE
  2
STANDARD
  9
$DIMCLRD
 70
    0
  9
$DIMCLRE
 70
    0
  9
$DIMCLRT
 70
    0
  9
$DIMTFAC
 40
1
  9
$DIMGAP
 40
1.5
  9
$DIMJUST
 70
    0
  9
$DIMSD1
 70
    0
  9
$DIMSD2
 70
    0
  9
$DIMTOLJ
 70
    0
  9
$DIMTZIN
 70
    8
  9
$DIMALTZ
 70
    0
  9
$DIMALTTZ
 70
    0
  9
$DIMUPT
 70
    0
  9
$DIMDEC
 70
    4
  9
$DIMTDEC
 70
    2
  9
$DIMALTU
 70
    2
  9
$DIMALTTD
 70
    3
  9
$DIMTXSTY
  7
standard
  9
$DIMAUNIT
 70
    0
  9
$DIMADEC
 70
    0
  9
$DIMALTRND
 40
0
  9
$DIMAZIN
 70
    0
  9
$DIMDSEP
 70
    0
  9
$DIMATFIT
 70
    3
  9
$DIMFRAC
 70
    0
  9
$DIMLDRBLK
  1
STANDARD
  9
$DIMLUNIT
 70
    4
  9
$DIMLWD
 70
   -2
  9
$DIMLWE
 70
   -2
  9
$DIMTMOVE
 70
    0
  9
$DIMFXL
 40
1
  9
$DIMFXLON
 70
    0
  9
$DIMJOGANG
 40
0.7854
  9
$DIMTFILL
 70
    0
  9
$DIMTFILLCLR
 70
    0
  9
$DIMARCSYM
 70
    0
  9
$DIMLTYPE
  6

  9
$DIMLTEX1
  6

  9
$DIMLTEX2
  6

  9
$LUNITS
 70
    2
  9
$LUPREC
 70
    1
  9
$SKETCHINC
 40
1
  9
$FILLETRAD
 40
0
  9
$AUNITS
 70
    0
  9
$AUPREC
 70
    1
  9
$MENU
  1
.
  9
$ELEVATION
 40
0
  9
$PELEVATION
 40
0
  9
$THICKNESS
 40
0
  9
$LIMCHECK
 70
    0
  9
$CHAMFERA
 40
0
  9
$CHAMFERB
 40
0
  9
$CHAMFERC
 40
0
  9
$CHAMFERD
 40
0
  9
$SKPOLY
 70
    0
  9
$USRTIMER
 70
    1
  9
$ANGBASE
 50
0
  9
$ANGDIR
 70
    0
  9
$PDMODE
 70
   34
  9
$PDSIZE
 40
0
  9
$PLINEWID
 40
0
  9
$SPLFRAME
 70
    0
  9
$SPLINETYPE
 70
    2
  9
$SPLINESEGS
 70
    8
  9
$HANDSEED
  5
20000
  9
$SURFTAB1
 70
    6
  9
$SURFTAB2
 70
    6
  9
$SURFTYPE
 70
    6
  9
$SURFU
 70
    6
  9
$SURFV
 70
    6
  9
$UCSBASE
  2

  9
$UCSNAME
  2

  9
$UCSORG
 10
0
 20
0
 30
0
  9
$UCSXDIR
 10
1
 20
0
 30
0
  9
$UCSYDIR
 10
0
 20
1
 30
0
  9
$UCSORTHOREF
  2

  9
$UCSORTHOVIEW
 70
    0
  9
$UCSORGTOP
 10
0
 20
0
 30
0
  9
$UCSORGBOTTOM
 10
0
 20
0
 30
0
  9
$UCSORGLEFT
 10
0
 20
0
 30
0
  9
$UCSORGRIGHT
 10
0
 20
0
 30
0
  9
$UCSORGFRONT
 10
0
 20
0
 30
0
  9
$UCSORGBACK
 10
0
 20
0
 30
0
  9
$PUCSBASE
  2

  9
$PUCSNAME
  2

  9
$PUCSORG
 10
0
 20
0
 30
0
  9
$PUCSXDIR
 10
1
 20
0
 30
0
  9
$PUCSYDIR
 10
0
 20
1
 30
0
  9
$PUCSORTHOREF
  2

  9
$PUCSORTHOVIEW
 70
    0
  9
$PUCSORGTOP
 10
0
 20
0
 30
0
  9
$PUCSORGBOTTOM
 10
0
 20
0
 30
0
  9
$PUCSORGLEFT
 10
0
 20
0
 30
0
  9
$PUCSORGRIGHT
 10
0
 20
0
 30
0
  9
$PUCSORGFRONT
 10
0
 20
0
 30
0
  9
$PUCSORGBACK
 10
0
 20
0
 30
0
  9
$USERI1
 70
    0
  9
$USERI2
 70
    0
  9
$USERI3
 70
    0
  9
$USERI4
 70
    0
  9
$USERI5
 70
    0
  9
$USERR1
 40
0
  9
$USERR2
 40
0
  9
$USERR3
 40
0
  9
$USERR4
 40
0
  9
$USERR5
 40
0
  9
$WORLDVIEW
 70
    1
  9
$SHADEDGE
 70
    3
  9
$SHADEDIF
 70
   70
  9
$TILEMODE
 70
    1
  9
$MAXACTVP
 70
   64
  9
$PINSBASE
 10
0
 20
0
 30
0
  9
$PLIMCHECK
 70
    0
  9
$PEXTMIN
 10
0
 20
0
 30
0
  9
$PEXTMAX
 10
0
 20
0
 30
0
  9
$GRIDMODE
 70
    1
  9
$SNAPSTYLE
 70
    0
  9
$GRIDUNIT
 10
0
 20
0
  9
$PLIMMIN
 10
0
 20
0
  9
$PLIMMAX
 10
5.049519999999999e-39
 20
7.141718e-39
  9
$UNITMODE
 70
    0
  9
$VISRETAIN
 70
    1
  9
$PLINEGEN
 70
    0
  9
$PSLTSCALE
 70
    1
  9
$TREEDEPTH
 70
 3020
  9
$CMLSTYLE
  2
Standard
  9
$CMLJUST
 70
    0
  9
$CMLSCALE
 40
20
  9
$PROXYGRAPHICS
 70
    1
  9
$MEASUREMENT
 70
    1
  9
$CELWEIGHT
370
   -1
  9
$ENDCAPS
280
    0
  9
$JOINSTYLE
280
    0
  9
$LWDISPLAY
290
    0
  9
$INSUNITS
 70
    1
  9
$HYPERLINKBASE
  1

  9
$STYLESHEET
  1

  9
$XEDIT
290
    1
  9
$CEPSNTYPE
380
    0
  9
$PSTYLEMODE
290
    1
  9
$EXTNAMES
290
    1
  9
$PSVPSCALE
 40
1
  9
$OLESTARTUP
290
    0
  9
$SORTENTS
280
  127
  9
$INDEXCTL
280
    0
  9
$HIDETEXT
280
    1
  9
$XCLIPFRAME
290
    0
  9
$HALOGAP
280
    0
  9
$OBSCOLOR
 70
  257
  9
$OBSLTYPE
280
    0
  9
$INTERSECTIONDISPLAY
280
    0
  9
$INTERSECTIONCOLOR
 70
  257
  9
$DIMASSOC
280
    1
  9
$PROJECTNAME
  1

  9
$CAMERADISPLAY
290
    0
  9
$LENSLENGTH
 40
50
  9
$CAMERAHEIGHT
 40
0
  9
$STEPSPERSEC
 40
2
  9
$STEPSIZE
 40
50
  9
$3DDWFPREC
 40
2
  9
$PSOLWIDTH
 40
5
  9
$PSOLHEIGHT
 40
80
  9
$LOFTANG1
 40
1.570796326794897
  9
$LOFTANG2
 40
1.570796326794897
  9
$LOFTMAG1
 40
0
  9
$LOFTMAG2
 40
0
  9
$LOFTPARAM
 70
    7
  9
$LOFTNORMALS
280
    1
  9
$LATITUDE
 40
1
  9
$LONGITUDE
 40
1
  9
$NORTHDIRECTION
 40
0
  9
$TIMEZONE
 70
-8000
  9
$LIGHTGLYPHDISPLAY
280
    1
  9
$TILEMODELIGHTSYNCH
280
    1
  9
$SOLIDHIST
280
    1
  9
$SHOWHIST
280
    1
  9
$DWFFRAME
280
    2
  9
$DGNFRAME
280
    0
  9
$REALWORLDSCALE
290
    1
  9
$INTERFERECOLOR
 62
    1
  9
$CSHADOW
280
    0
  9
$SHADOWPLANELOCATION
 40
0
  0
ENDSEC
  0
SECTION
  2
CLASSES
  0
ENDSEC
  0
SECTION
  2
TABLES
  0
TABLE
  2
VPORT
  5
8
330
0
100
AcDbSymbolTable
 70
    1
  0
VPORT
  5
31
330
2
100
AcDbSymbolTableRecord
100
AcDbViewportTableRecord
  2
*ACTIVE
 70
    0
 10
0
 20
0
 11
1
 21
1
 12
219.9615044893079
 22
133.0954192154071
 13
0
 23
0
 14
10
 24
10
 15
10
 25
10
 16
0
 26
0
 36
1
 17
0
 27
0
 37
0
 40
143.5563651029542
 41
1.977017937219731
 42
50
 43
0
 44
0
 50
0
 51
0
 71
    0
 72
  100
 73
    1
 74
    3
 75
    0
 76
    1
 77
    0
 78
    0
281
    0
 65
    1
110
0
120
0
130
0
111
1
121
0
131
0
112
0
122
1
132
0
 79
    0
146
0
348
10020
 60
    7
 61
    5
292
1
282
    1
141
0
142
0
 63
  250
421
3358443
  0
ENDTAB
  0
TABLE
  2
LTYPE
  5
5
330
0
100
AcDbSymbolTable
 70
    4
  0
LTYPE
  5
14
330
5
100
AcDbSymbolTableRecord
100
AcDbLinetypeTableRecord
  2
ByBlock
 70
    0
  3

 72
   65
 73
    0
 40
0
  0
LTYPE
  5
15
330
5
100
AcDbSymbolTableRecord
100
AcDbLinetypeTableRecord
  2
ByLayer
 70
    0
  3

 72
   65
 73
    0
 40
0
  0
LTYPE
  5
16
330
5
100
AcDbSymbolTableRecord
100
AcDbLinetypeTableRecord
  2
Continuous
 70
    0
  3
Solid line
 72
   65
 73
    0
 40
0
  0
LTYPE
  5
32
330
5
100
AcDbSymbolTableRecord
100
AcDbLinetypeTableRecord
  2
DOT
 70
    0
  3
Dot . . . . . . . . . . . . . . . . . . . . . .
 72
   65
 73
    2
 40
6.35
 49
0
 74
    0
 49
-6.35
 74
    0
  0
LTYPE
  5
33
330
5
100
AcDbSymbolTableRecord
100
AcDbLinetypeTableRecord
  2
DOTTINY
 70
    0
  3
Dot (.15x) .....................................
 72
   65
 73
    2
 40
0.9525
 49
0
 74
    0
 49
-0.9525
 74
    0
  0
LTYPE
  5
34
330
5
100
AcDbSymbolTableRecord
100
AcDbLinetypeTableRecord
  2
DOT2
 70
    0
  3
Dot (.5x) .....................................
 72
   65
 73
    2
 40
3.175
 49
0
 74
    0
 49
-3.175
 74
    0
  0
LTYPE
  5
35
330
5
100
AcDbSymbolTableRecord
100
AcDbLinetypeTableRecord
  2
DOTX2
 70
    0
  3
Dot (2x) .  .  .  .  .  .  .  .  .  .  .  .  .
 72
   65
 73
    2
 40
12.7
 49
0
 74
    0
 49
-12.7
 74
    0
  0
LTYPE
  5
36
330
5
100
AcDbSymbolTableRecord
100
AcDbLinetypeTableRecord
  2
DASHED
 70
    0
  3
Dashed _ _ _ _ _ _ _ _ _ _ _ _ _ _ _ _ _
 72
   65
 73
    2
 40
19.05
 49
12.7
 74
    0
 49
-6.35
 74
    0
  0
LTYPE
  5
37
330
5
100
AcDbSymbolTableRecord
100
AcDbLinetypeTableRecord
  2
DASHEDTINY
 70
    0
  3
Dashed (.15x) _ _ _ _ _ _ _ _ _ _ _ _ _ _ _ _ _
 72
   65
 73
    2
 40
2.8575
 49
1.905
 74
    0
 49
-0.9525
 74
    0
  0
LTYPE
  5
38
330
5
100
AcDbSymbolTableRecord
100
AcDbLinetypeTableRecord
  2
DASHED2
 70
    0
  3
Dashed (.5x) _ _ _ _ _ _ _ _ _ _ _ _ _ _ _ _ _
 72
   65
 73
    2
 40
9.524999999999999
 49
6.35
 74
    0
 49
-3.175
 74
    0
  0
LTYPE
  5
39
330
5
100
AcDbSymbolTableRecord
100
AcDbLinetypeTableRecord
  2
DASHEDX2
 70
    0
  3
Dashed (2x) ____  ____  ____  ____  ____  ___
 72
   65
 73
    2
 40
38.09999999999999
 49
25.4
 74
    0
 49
-12.7
 74
    0
  0
LTYPE
  5
3A
330
5
100
AcDbSymbolTableRecord
100
AcDbLinetypeTableRecord
  2
DASHDOT
 70
    0
  3
Dash dot __ . __ . __ . __ . __ . __ . __ . __
 72
   65
 73
    4
 40
25.4
 49
12.7
 74
    0
 49
-6.35
 74
    0
 49
0
 74
    0
 49
-6.35
 74
    0
  0
LTYPE
  5
3B
330
5
100
AcDbSymbolTableRecord
100
AcDbLinetypeTableRecord
  2
DASHDOTTINY
 70
    0
  3
Dash dot (.15x) _._._._._._._._._._._._._._._.
 72
   65
 73
    4
 40
3.81
 49
1.905
 74
    0
 49
-0.9525
 74
    0
 49
0
 74
    0
 49
-0.9525
 74
    0
  0
LTYPE
  5
3C
330
5
100
AcDbSymbolTableRecord
100
AcDbLinetypeTableRecord
  2
DASHDOT2
 70
    0
  3
Dash dot (.5x) _._._._._._._._._._._._._._._.
 72
   65
 73
    4
 40
12.7
 49
6.35
 74
    0
 49
-3.175
 74
    0
 49
0
 74
    0
 49
-3.175
 74
    0
  0
LTYPE
  5
3D
330
5
100
AcDbSymbolTableRecord
100
AcDbLinetypeTableRecord
  2
DASHDOTX2
 70
    0
  3
Dash dot (2x) ____  .  ____  .  ____  .  ___
 72
   65
 73
    4
 40
50.8
 49
25.4
 74
    0
 49
-12.7
 74
    0
 49
0
 74
    0
 49
-12.7
 74
    0
  0
LTYPE
  5
3E
330
5
100
AcDbSymbolTableRecord
100
AcDbLinetypeTableRecord
  2
DIVIDE
 70
    0
  3
Divide ____ . . ____ . . ____ . . ____ . . ____
 72
   65
 73
    6
 40
31.75
 49
12.7
 74
    0
 49
-6.35
 74
    0
 49
0
 74
    0
 49
-6.35
 74
    0
 49
0
 74
    0
 49
-6.35
 74
    0
  0
LTYPE
  5
3F
330
5
100
AcDbSymbolTableRecord
100
AcDbLinetypeTableRecord
  2
DIVIDETINY
 70
    0
  3
Divide (.15x) __..__..__..__..__..__..__..__.._
 72
   65
 73
    6
 40
4.7625
 49
1.905
 74
    0
 49
-0.9525
 74
    0
 49
0
 74
    0
 49
-0.9525
 74
    0
 49
0
 74
    0
 49
-0.9525
 74
    0
  0
LTYPE
  5
40
330
5
100
AcDbSymbolTableRecord
100
AcDbLinetypeTableRecord
  2
DIVIDE2
 70
    0
  3
Divide (.5x) __..__..__..__..__..__..__..__.._
 72
   65
 73
    6
 40
15.875
 49
6.35
 74
    0
 49
-3.175
 74
    0
 49
0
 74
    0
 49
-3.175
 74
    0
 49
0
 74
    0
 49
-3.175
 74
    0
  0
LTYPE
  5
41
330
5
100
AcDbSymbolTableRecord
100
AcDbLinetypeTableRecord
  2
DIVIDEX2
 70
    0
  3
Divide (2x) ________  .  .  ________  .  .  _
 72
   65
 73
    6
 40
63.5
 49
25.4
 74
    0
 49
-12.7
 74
    0
 49
0
 74
    0
 49
-12.7
 74
    0
 49
0
 74
    0
 49
-12.7
 74
    0
  0
LTYPE
  5
42
330
5
100
AcDbSymbolTableRecord
100
AcDbLinetypeTableRecord
  2
BORDER
 70
    0
  3
Border __ __ . __ __ . __ __ . __ __ . __ __ .
 72
   65
 73
    6
 40
44.45
 49
12.7
 74
    0
 49
-6.35
 74
    0
 49
12.7
 74
    0
 49
-6.35
 74
    0
 49
0
 74
    0
 49
-6.35
 74
    0
  0
LTYPE
  5
43
330
5
100
AcDbSymbolTableRecord
100
AcDbLinetypeTableRecord
  2
BORDERTINY
 70
    0
  3
Border (.15x) __.__.__.__.__.__.__.__.__.__.__.
 72
   65
 73
    6
 40
6.6675
 49
1.905
 74
    0
 49
-0.9525
 74
    0
 49
1.905
 74
    0
 49
-0.9525
 74
    0
 49
0
 74
    0
 49
-0.9525
 74
    0
  0
LTYPE
  5
44
330
5
100
AcDbSymbolTableRecord
100
AcDbLinetypeTableRecord
  2
BORDER2
 70
    0
  3
Border (.5x) __.__.__.__.__.__.__.__.__.__.__.
 72
   65
 73
    6
 40
22.225
 49
6.35
 74
    0
 49
-3.175
 74
    0
 49
6.35
 74
    0
 49
-3.175
 74
    0
 49
0
 74
    0
 49
-3.175
 74
    0
  0
LTYPE
  5
45
330
5
100
AcDbSymbolTableRecord
100
AcDbLinetypeTableRecord
  2
BORDERX2
 70
    0
  3
Border (2x) ____  ____  .  ____  ____  .  ___
 72
   65
 73
    6
 40
88.89999999999999
 49
25.4
 74
    0
 49
-12.7
 74
    0
 49
25.4
 74
    0
 49
-12.7
 74
    0
 49
0
 74
    0
 49
-12.7
 74
    0
  0
LTYPE
  5
46
330
5
100
AcDbSymbolTableRecord
100
AcDbLinetypeTableRecord
  2
CENTER
 70
    0
  3
Center ____ _ ____ _ ____ _ ____ _ ____ _ ____
 72
   65
 73
    4
 40
50.8
 49
31.75
 74
    0
 49
-6.35
 74
    0
 49
6.35
 74
    0
 49
-6.35
 74
    0
  0
LTYPE
  5
47
330
5
100
AcDbSymbolTableRecord
100
AcDbLinetypeTableRecord
  2
CENTERTINY
 70
    0
  3
Center (.15x) ___ _ ___ _ ___ _ ___ _ ___ _ ___
 72
   65
 73
    4
 40
7.619999999999999
 49
4.7625
 74
    0
 49
-0.9525
 74
    0
 49
0.9525
 74
    0
 49
-0.9525
 74
    0
  0
LTYPE
  5
48
330
5
100
AcDbSymbolTableRecord
100
AcDbLinetypeTableRecord
  2
CENTER2
 70
    0
  3
Center (.5x) ___ _ ___ _ ___ _ ___ _ ___ _ ___
 72
   65
 73
    4
 40
28.575
 49
19.05
 74
    0
 49
-3.175
 74
    0
 49
3.175
 74
    0
 49
-3.175
 74
    0
  0
LTYPE
  5
49
330
5
100
AcDbSymbolTableRecord
100
AcDbLinetypeTableRecord
  2
CENTERX2
 70
    0
  3
Center (2x) ________  __  ________  __  _____
 72
   65
 73
    4
 40
101.6
 49
63.5
 74
    0
 49
-12.7
 74
    0
 49
12.7
 74
    0
 49
-12.7
 74
    0
  0
ENDTAB
  0
TABLE
  2
LAYER
  5
2
330
0
100
AcDbSymbolTable
 70
    1
  0
LAYER
  5
10
330
2
100
AcDbSymbolTableRecord
100
AcDbLayerTableRecord
  2
0
 70
    4
 62
    7
  6
CONTINUOUS
370
    0
390
F
  0
LAYER
  5
4A
330
2
100
AcDbSymbolTableRecord
100
AcDbLayerTableRecord
  2
black lines
 70
    4
 62
    7
  6
CONTINUOUS
370
   18
390
F
  0
LAYER
  5
4B
330
2
100
AcDbSymbolTableRecord
100
AcDbLayerTableRecord
  2
r-sheathing
 70
    4
 62
   61
420
15066786
  6
CONTINUOUS
370
   18
390
F
  0
LAYER
  5
4C
330
2
100
AcDbSymbolTableRecord
100
AcDbLayerTableRecord
  2
r-sheathing_lines
 70
    4
 62
    7
  6
CONTINUOUS
370
   18
390
F
  0
LAYER
  5
4D
330
2
100
AcDbSymbolTableRecord
100
AcDbLayerTableRecord
  2
roofing-paper
 70
    4
 62
    8
  6
CONTINUOUS
370
   18
390
F
  0
LAYER
  5
4E
330
2
100
AcDbSymbolTableRecord
100
AcDbLayerTableRecord
  2
roofing-paper_lines
 70
    4
 62
    7
  6
CONTINUOUS
370
   18
390
F
  0
LAYER
  5
4F
330
2
100
AcDbSymbolTableRecord
100
AcDbLayerTableRecord
  2
shingles
 70
    4
 62
   47
420
9529640
  6
CONTINUOUS
370
   18
390
F
  0
LAYER
  5
50
330
2
100
AcDbSymbolTableRecord
100
AcDbLayerTableRecord
  2
shingles_lines
 70
    4
 62
    7
  6
CONTINUOUS
370
   18
390
F
  0
ENDTAB
  0
TABLE
  2
STYLE
  5
3
330
0
100
AcDbSymbolTable
 70
    3
  0
STYLE
  5
51
330
2
100
AcDbSymbolTableRecord
100
AcDbTextStyleTableRecord
  2
Standard
 70
    0
 40
0
 41
1
 50
0
 71
    0
 42
1
  3
txt
  4

  0
ENDTAB
  0
TABLE
  2
VIEW
  5
6
330
0
100
AcDbSymbolTable
 70
    0
  0
ENDTAB
  0
TABLE
  2
UCS
  5
7
330
0
100
AcDbSymbolTable
 70
    0
  0
ENDTAB
  0
TABLE
  2
APPID
  5
9
330
0
100
AcDbSymbolTable
 70
    1
  0
APPID
  5
12
330
9
100
AcDbSymbolTableRecord
100
AcDbRegAppTableRecord
  2
ACAD
 70
    0
  0
APPID
  5
52
330
9
100
AcDbSymbolTableRecord
100
AcDbRegAppTableRecord
  2
LibreCad
 70
    0
  0
ENDTAB
  0
TABLE
  2
DIMSTYLE
  5
A
330
0
100
AcDbSymbolTable
 70
    1
100
AcDbDimStyleTable
 71
    1
  0
DIMSTYLE
105
53
330
A
100
AcDbSymbolTableRecord
100
AcDbDimStyleTableRecord
  2
Standard
 70
    0
 40
1
 41
0.01
 42
1
 43
0.38
 44
1
 45
0
 46
0
 47
0
 48
0
 49
1
140
3
141
0.09
142
1
143
25.4
144
1
145
0
146
1
147
1.5
148
0
 71
    0
 72
    0
 73
    0
 74
    1
 75
    0
 76
    0
 77
    0
 78
    8
 79
    0
170
    0
171
    2
172
    0
173
    0
174
    0
175
    0
176
    0
177
    0
178
    0
179
    0
271
    4
272
    4
273
    2
274
    2
275
    0
276
    0
277
    4
278
    0
279
    0
280
    0
281
    0
282
    0
283
    1
284
    0
285
    0
286
    0
288
    0
289
    3
340
standard
341

371
   -2
372
   -2
  0
ENDTAB
  0
TABLE
  2
BLOCK_RECORD
  5
1
330
0
100
AcDbSymbolTable
 70
    2
  0
BLOCK_RECORD
  5
1F
330
1
100
AcDbSymbolTableRecord
100
AcDbBlockTableRecord
  2
*Model_Space
 70
    0
280
    1
281
    0
  0
BLOCK_RECORD
  5
1E
330
1
100
AcDbSymbolTableRecord
100
AcDbBlockTableRecord
  2
*Paper_Space
 70
    0
280
    1
281
    0
  0
BLOCK_RECORD
  5
54
330
1
100
AcDbSymbolTableRecord
100
AcDbBlockTableRecord
  2
truss_25_2016-04-24-1
 70
    0
280
    1
281
    0
  0
BLOCK_RECORD
  5
57
330
1
100
AcDbSymbolTableRecord
100
AcDbBlockTableRecord
  2
j-bolt
 70
    0
280
    1
281
    0
  0
BLOCK_RECORD
  5
5A
330
1
100
AcDbSymbolTableRecord
100
AcDbBlockTableRecord
  2
j-bolt top
 70
    0
280
    1
281
    0
  0
BLOCK_RECORD
  5
5D
330
1
100
AcDbSymbolTableRecord
100
AcDbBlockTableRecord
  2
rebar_2
 70
    0
280
    1
281
    0
  0
BLOCK_RECORD
  5
60
330
1
100
AcDbSymbolTableRecord
100
AcDbBlockTableRecord
  2
rebar_2.5
 70
    0
280
    1
281
    0
  0
BLOCK_RECORD
  5
63
330
1
100
AcDbSymbolTableRecord
100
AcDbBlockTableRecord
  2
rebar_3
 70
    0
280
    1
281
    0
  0
BLOCK_RECORD
  5
66
330
1
100
AcDbSymbolTableRecord
100
AcDbBlockTableRecord
  2
3-tab
 70
    0
280
    1
281
    0
  0
BLOCK_RECORD
  5
69
330
1
100
AcDbSymbolTableRecord
100
AcDbBlockTableRecord
  2
0.5-tab
 70
    0
280
    1
281
    0
  0
BLOCK_RECORD
  5
6C
330
1
100
AcDbSymbolTableRecord
100
AcDbBlockTableRecord
  2
1-tab
 70
    0
280
    1
281
    0
  0
BLOCK_RECORD
  5
6F
330
1
100
AcDbSymbolTableRecord
100
AcDbBlockTableRecord
  2
rafter2
 70
    0
280
    1
281
    0
  0
ENDTAB
  0
ENDSEC
  0
SECTION
  2
BLOCKS
  0
BLOCK
  5
20
330
1F
100
AcDbEntity
  8
0
100
AcDbBlockBegin
  2
*Model_Space
 70
    0
 10
0
 20
0
 30
0
  3
*Model_Space
  1

  0
ENDBLK
  5
21
330
1F
100
AcDbEntity
  8
0
100
AcDbBlockEnd
  0
BLOCK
  5
1C
330
1B
100
AcDbEntity
  8
0
100
AcDbBlockBegin
  2
*Paper_Space
 70
    0
 10
0
 20
0
 30
0
  3
*Paper_Space
  1

  0
ENDBLK
  5
1D
330
1F
100
AcDbEntity
  8
0
100
AcDbBlockEnd
  0
BLOCK
  5
55
330
54
100
AcDbEntity
  8
0
100
AcDbBlockBegin
  2
truss_25_2016-04-24-1
 70
    0
 10
0
 20
0
  3
truss_25_2016-04-24-1
  1

  0
ENDBLK
  5
56
330
54
100
AcDbEntity
  8
0
100
AcDbBlockEnd
  0
BLOCK
  5
58
330
57
100
AcDbEntity
  8
0
100
AcDbBlockBegin
  2
j-bolt
 70
    0
 10
0
 20
0
  3
j-bolt
  1

  0
ENDBLK
  5
59
330
57
100
AcDbEntity
  8
0
100
AcDbBlockEnd
  0
BLOCK
  5
5B
330
5A
100
AcDbEntity
  8
0
100
AcDbBlockBegin
  2
j-bolt top
 70
    0
 10
0
 20
0
  3
j-bolt top
  1

  0
ENDBLK
  5
5C
330
5A
100
AcDbEntity
  8
0
100
AcDbBlockEnd
  0
BLOCK
  5
5E
330
5D
100
AcDbEntity
  8
0
100
AcDbBlockBegin
  2
rebar_2
 70
    0
 10
0
 20
0
  3
rebar_2
  1

  0
ENDBLK
  5
5F
330
5D
100
AcDbEntity
  8
0
100
AcDbBlockEnd
  0
BLOCK
  5
61
330
60
100
AcDbEntity
  8
0
100
AcDbBlockBegin
  2
rebar_2.5
 70
    0
 10
0
 20
0
  3
rebar_2.5
  1

  0
ENDBLK
  5
62
330
60
100
AcDbEntity
  8
0
100
AcDbBlockEnd
  0
BLOCK
  5
64
330
63
100
AcDbEntity
  8
0
100
AcDbBlockBegin
  2
rebar_3
 70
    0
 10
0
 20
0
  3
rebar_3
  1

  0
ENDBLK
  5
65
330
63
100
AcDbEntity
  8
0
100
AcDbBlockEnd
  0
BLOCK
  5
67
330
66
100
AcDbEntity
  8
0
100
AcDbBlockBegin
  2
3-tab
 70
    0
 10
0
 20
0
  3
3-tab
  1

  0
HATCH
  5
72
100
AcDbEntity
  8
shingles
  6
ByLayer
 62
  256
370
   -1
100
AcDbHatch
 10
0
 20
0
 30
0
210
0
220
0
230
1
  2
SOLID
 70
    1
 71
    0
 91
    1
 92
    0
 93
    4
 72
    1
 10
32.583
 20
18.2495
 11
29.583
 21
18.2495
 72
    1
 10
29.583
 20
18.2495
 11
29.583
 21
18.4042
 72
    1
 10
29.583
 20
18.4042
 11
32.583
 21
18.4042
 72
    1
 10
32.583
 20
18.4042
 11
32.583
 21
18.2495
 97
    0
 75
    0
 76
    1
 98
    0
  0
LWPOLYLINE
  5
73
100
AcDbEntity
  8
shingles
  6
ByLayer
 62
  256
370
   -1
100
AcDbPolyline
 90
    4
 70
    1
 43
0
 10
32.583
 20
18.2495
 10
29.583
 20
18.2495
 10
29.583
 20
18.4042
 10
32.583
 20
18.4042
  0
LWPOLYLINE
  5
74
100
AcDbEntity
  8
black lines
  6
ByLayer
 62
  256
370
   -1
100
AcDbPolyline
 90
    4
 70
    1
 43
0
 10
31.583
 20
18.2495
 10
31.573
 20
18.2495
 10
31.573
 20
18.4042
 10
31.583
 20
18.4042
  0
LWPOLYLINE
  5
75
100
AcDbEntity
  8
black lines
  6
ByLayer
 62
  256
370
   -1
100
AcDbPolyline
 90
    4
 70
    1
 43
0
 10
30.583
 20
18.2495
 10
30.573
 20
18.2495
 10
30.573
 20
18.4042
 10
30.583
 20
18.4042
  0
LWPOLYLINE
  5
76
100
AcDbEntity
  8
black lines
  6
ByLayer
 62
  256
370
   -1
100
AcDbPolyline
 90
    4
 70
    1
 43
0
 10
29.593
 20
18.2495
 10
29.583
 20
18.2495
 10
29.583
 20
18.4042
 10
29.593
 20
18.4042
  0
LWPOLYLINE
  5
77
100
AcDbEntity
  8
black lines
  6
ByLayer
 62
  256
370
   -1
100
AcDbPolyline
 90
    4
 70
    1
 43
0
 10
32.583
 20
18.4042
 10
29.583
 20
18.4042
 10
29.583
 20
18.249
 10
32.583
 20
18.249
  0
ENDBLK
  5
68
330
66
100
AcDbEntity
  8
0
100
AcDbBlockEnd
  0
BLOCK
  5
6A
330
69
100
AcDbEntity
  8
0
100
AcDbBlockBegin
  2
0.5-tab
 70
    0
 10
0
 20
0
  3
0.5-tab
  1

  0
HATCH
  5
78
100
AcDbEntity
  8
shingles
  6
ByLayer
 62
  256
370
   -1
100
AcDbHatch
 10
0
 20
0
 30
0
210
0
220
0
230
1
  2
SOLID
 70
    1
 71
    0
 91
    1
 92
    0
 93
    4
 72
    1
 10
32.583
 20
18.4042
 11
32.083
 21
18.4042
 72
    1
 10
32.083
 20
18.4042
 11
32.083
 21
18.5589
 72
    1
 10
32.083
 20
18.5589
 11
32.583
 21
18.5589
 72
    1
 10
32.583
 20
18.5589
 11
32.583
 21
18.4042
 97
    0
 75
    0
 76
    1
 98
    0
  0
LWPOLYLINE
  5
79
100
AcDbEntity
  8
shingles
  6
ByLayer
 62
  256
370
   -1
100
AcDbPolyline
 90
    4
 70
    1
 43
0
 10
32.583
 20
18.4042
 10
32.083
 20
18.4042
 10
32.083
 20
18.5589
 10
32.583
 20
18.5589
  0
LWPOLYLINE
  5
7A
100
AcDbEntity
  8
black lines
  6
ByLayer
 62
  256
370
   -1
100
AcDbPolyline
 90
    4
 70
    1
 43
0
 10
32.093
 20
18.4042
 10
32.083
 20
18.4042
 10
32.083
 20
18.5589
 10
32.093
 20
18.5589
  0
LWPOLYLINE
  5
7B
100
AcDbEntity
  8
black lines
  6
ByLayer
 62
  256
370
   -1
100
AcDbPolyline
 90
    4
 70
    1
 43
0
 10
32.583
 20
18.4042
 10
32.083
 20
18.4042
 10
32.083
 20
18.5589
 10
32.583
 20
18.5589
  0
ENDBLK
  5
6B
330
69
100
AcDbEntity
  8
0
100
AcDbBlockEnd
  0
BLOCK
  5
6D
330
6C
100
AcDbEntity
  8
0
100
AcDbBlockBegin
  2
1-tab
 70
    0
 10
0
 20
0
  3
1-tab
  1

  0
HATCH
  5
7C
100
AcDbEntity
  8
shingles
  6
ByLayer
 62
  256
370
   -1
100
AcDbHatch
 10
0
 20
0
 30
0
210
0
220
0
230
1
  2
SOLID
 70
    1
 71
    0
 91
    1
 92
    0
 93
    4
 72
    1
 10
17.587
 20
18.25
 11
16.577
 21
18.25
 72
    1
 10
16.577
 20
18.25
 11
16.577
 21
18.4047
 72
    1
 10
16.577
 20
18.4047
 11
17.587
 21
18.4047
 72
    1
 10
17.587
 20
18.4047
 11
17.587
 21
18.25
 97
    0
 75
    0
 76
    1
 98
    0
  0
LWPOLYLINE
  5
7D
100
AcDbEntity
  8
shingles
  6
ByLayer
 62
  256
370
   -1
100
AcDbPolyline
 90
    4
 70
    1
 43
0
 10
17.587
 20
18.25
 10
16.577
 20
18.25
 10
16.577
 20
18.4047
 10
17.587
 20
18.4047
  0
LWPOLYLINE
  5
7E
100
AcDbEntity
  8
black lines
  6
ByLayer
 62
  256
370
   -1
100
AcDbPolyline
 90
    4
 70
    1
 43
0
 10
16.587
 20
18.25
 10
16.577
 20
18.25
 10
16.577
 20
18.4047
 10
16.587
 20
18.4047
  0
LWPOLYLINE
  5
7F
100
AcDbEntity
  8
black lines
  6
ByLayer
 62
  256
370
   -1
100
AcDbPolyline
 90
    4
 70
    1
 43
0
 10
16.577
 20
18.4047
 10
17.587
 20
18.4047
 10
17.587
 20
18.25
 10
16.577
 20
18.25
  0
ENDBLK
  5
6E
330
6C
100
AcDbEntity
  8
0
100
AcDbBlockEnd
  0
BLOCK
  5
70
330
6F
100
AcDbEntity
  8
0
100
AcDbBlockBegin
  2
rafter2
 70
    0
 10
0
 20
0
  3
rafter2
  1

  0
ENDBLK
  5
71
330
6F
100
AcDbEntity
  8
0
100
AcDbBlockEnd
  0
ENDSEC
  0
SECTION
  2
ENTITIES
  0
HATCH
  5
80
100
AcDbEntity
  8
r-sheathing
  6
ByLayer
 62
  256
370
   -1
100
AcDbHatch
 10
0
 20
0
 30
0
210
0
220
0
230
1
  2
SOLID
 70
    1
 71
    0
 91
    1
 92
    0
 93
    4
 72
    1
 10
338
 20
158.2601986085845
 11
399
 21
158.2601986085845
 72
    1
 10
399
 20
158.2601986085845
 11
399
 21
161.9729986085845
 72
    1
 10
399
 20
161.9729986085845
 11
338
 21
161.9729986085845
 72
    1
 10
338
 20
161.9729986085845
 11
338
 21
158.2601986085845
 97
    0
 75
    0
 76
    1
 98
    0
  0
HATCH
  5
81
100
AcDbEntity
  8
r-sheathing
  6
ByLayer
 62
  256
370
   -1
100
AcDbHatch
 10
0
 20
0
 30
0
210
0
220
0
230
1
  2
SOLID
 70
    1
 71
    0
 91
    1
 92
    0
 93
    4
 72
    1
 10
322
 20
154.5473986085845
 11
399
 21
154.5473986085845
 72
    1
 10
399
 20
154.5473986085845
 11
399
 21
158.2601986085845
 72
    1
 10
399
 20
158.2601986085845
 11
322
 21
158.2601986085845
 72
    1
 10
322
 20
158.2601986085845
 11
322
 21
154.5473986085845
 97
    0
 75
    0
 76
    1
 98
    0
  0
HATCH
  5
82
100
AcDbEntity
  8
r-sheathing
  6
ByLayer
 62
  256
370
   -1
100
AcDbHatch
 10
0
 20
0
 30
0
210
0
220
0
230
1
  2
SOLID
 70
    1
 71
    0
 91
    1
 92
    0
 93
    4
 72
    1
 10
306
 20
150.8333986085845
 11
399
 21
150.8333986085845
 72
    1
 10
399
 20
150.8333986085845
 11
399
 21
154.5473986085845
 72
    1
 10
399
 20
154.5473986085845
 11
306
 21
154.5473986085845
 72
    1
 10
306
 20
154.5473986085845
 11
306
 21
150.8333986085845
 97
    0
 75
    0
 76
    1
 98
    0
  0
HATCH
  5
83
100
AcDbEntity
  8
r-sheathing
  6
ByLayer
 62
  256
370
   -1
100
AcDbHatch
 10
0
 20
0
 30
0
210
0
220
0
230
1
  2
SOLID
 70
    1
 71
    0
 91
    1
 92
    0
 93
    4
 72
    1
 10
293
 20
147.1217986085845
 11
399
 21
147.1217986085845
 72
    1
 10
399
 20
147.1217986085845
 11
399
 21
150.8333986085845
 72
    1
 10
399
 20
150.8333986085845
 11
293
 21
150.8333986085845
 72
    1
 10
293
 20
150.8333986085845
 11
293
 21
147.1217986085845
 97
    0
 75
    0
 76
    1
 98
    0
  0
HATCH
  5
84
100
AcDbEntity
  8
r-sheathing
  6
ByLayer
 62
  256
370
   -1
100
AcDbHatch
 10
0
 20
0
 30
0
210
0
220
0
230
1
  2
SOLID
 70
    1
 71
    0
 91
    1
 92
    0
 93
    4
 72
    1
 10
277
 20
143.4089986085845
 11
399
 21
143.4089986085845
 72
    1
 10
399
 20
143.4089986085845
 11
399
 21
147.1217986085845
 72
    1
 10
399
 20
147.1217986085845
 11
277
 21
147.1217986085845
 72
    1
 10
277
 20
147.1217986085845
 11
277
 21
143.4089986085845
 97
    0
 75
    0
 76
    1
 98
    0
  0
HATCH
  5
85
100
AcDbEntity
  8
r-sheathing
  6
ByLayer
 62
  256
370
   -1
100
AcDbHatch
 10
0
 20
0
 30
0
210
0
220
0
230
1
  2
SOLID
 70
    1
 71
    0
 91
    1
 92
    0
 93
    4
 72
    1
 10
261
 20
139.6961986085845
 11
399
 21
139.6961986085845
 72
    1
 10
399
 20
139.6961986085845
 11
399
 21
143.4089986085845
 72
    1
 10
399
 20
143.4089986085845
 11
261
 21
143.4089986085845
 72
    1
 10
261
 20
143.4089986085845
 11
261
 21
139.6961986085845
 97
    0
 75
    0
 76
    1
 98
    0
  0
HATCH
  5
86
100
AcDbEntity
  8
r-sheathing
  6
ByLayer
 62
  256
370
   -1
100
AcDbHatch
 10
0
 20
0
 30
0
210
0
220
0
230
1
  2
SOLID
 70
    1
 71
    0
 91
    1
 92
    0
 93
    4
 72
    1
 10
245
 20
135.9845986085845
 11
399
 21
135.9845986085845
 72
    1
 10
399
 20
135.9845986085845
 11
399
 21
139.6961986085845
 72
    1
 10
399
 20
139.6961986085845
 11
245
 21
139.6961986085845
 72
    1
 10
245
 20
139.6961986085845
 11
245
 21
135.9845986085845
 97
    0
 75
    0
 76
    1
 98
    0
  0
HATCH
  5
87
100
AcDbEntity
  8
r-sheathing
  6
ByLayer
 62
  256
370
   -1
100
AcDbHatch
 10
0
 20
0
 30
0
210
0
220
0
230
1
  2
SOLID
 70
    1
 71
    0
 91
    1
 92
    0
 93
    4
 72
    1
 10
229
 20
132.2729986085845
 11
399
 21
132.2729986085845
 72
    1
 10
399
 20
132.2729986085845
 11
399
 21
135.9845986085845
 72
    1
 10
399
 20
135.9845986085845
 11
229
 21
135.9845986085845
 72
    1
 10
229
 20
135.9845986085845
 11
229
 21
132.2729986085845
 97
    0
 75
    0
 76
    1
 98
    0
  0
HATCH
  5
88
100
AcDbEntity
  8
r-sheathing
  6
ByLayer
 62
  256
370
   -1
100
AcDbHatch
 10
0
 20
0
 30
0
210
0
220
0
230
1
  2
SOLID
 70
    1
 71
    0
 91
    1
 92
    0
 93
    4
 72
    1
 10
213
 20
128.5584
 11
399
 21
128.5584
 72
    1
 10
399
 20
128.5584
 11
399
 21
132.2712
 72
    1
 10
399
 20
132.2712
 11
213
 21
132.2712
 72
    1
 10
213
 20
132.2712
 11
213
 21
128.5584
 97
    0
 75
    0
 76
    1
 98
    0
  0
HATCH
  5
89
100
AcDbEntity
  8
r-sheathing
  6
ByLayer
 62
  256
370
   -1
100
AcDbHatch
 10
0
 20
0
 30
0
210
0
220
0
230
1
  2
SOLID
 70
    1
 71
    0
 91
    1
 92
    0
 93
    4
 72
    1
 10
399.0119999999999
 20
124.008
 11
197
 21
124.008
 72
    1
 10
197
 20
124.008
 11
197
 21
128.5584
 72
    1
 10
197
 20
128.5584
 11
399.0119999999999
 21
128.5584
 72
    1
 10
399.0119999999999
 20
128.5584
 11
399.0119999999999
 21
124.008
 97
    0
 75
    0
 76
    1
 98
    0
  0
HATCH
  5
8A
100
AcDbEntity
  8
r-sheathing
  6
ByLayer
 62
  256
370
   -1
100
AcDbHatch
 10
0
 20
0
 30
0
210
0
220
0
230
1
  2
SOLID
 70
    1
 71
    0
 91
    1
 92
    0
 93
    4
 72
    1
 10
314
 20
258.0053978113037
 11
399
 21
258.0053978113037
 72
    1
 10
399
 20
258.0053978113037
 11
399
 21
261.7181978113038
 72
    1
 10
399
 20
261.7181978113038
 11
314
 21
261.7181978113038
 72
    1
 10
314
 20
261.7181978113038
 11
314
 21
258.0053978113037
 97
    0
 75
    0
 76
    1
 98
    0
  0
HATCH
  5
8B
100
AcDbEntity
  8
r-sheathing
  6
ByLayer
 62
  256
370
   -1
100
AcDbHatch
 10
0
 20
0
 30
0
210
0
220
0
230
1
  2
SOLID
 70
    1
 71
    0
 91
    1
 92
    0
 93
    4
 72
    1
 10
330
 20
261.7181978113038
 11
399
 21
261.7181978113038
 72
    1
 10
399
 20
261.7181978113038
 11
399
 21
265.4309978113038
 72
    1
 10
399
 20
265.4309978113038
 11
330
 21
265.4309978113038
 72
    1
 10
330
 20
265.4309978113038
 11
330
 21
261.7181978113038
 97
    0
 75
    0
 76
    1
 98
    0
  0
HATCH
  5
8C
100
AcDbEntity
  8
r-sheathing
  6
ByLayer
 62
  256
370
   -1
100
AcDbHatch
 10
0
 20
0
 30
0
210
0
220
0
230
1
  2
SOLID
 70
    1
 71
    0
 91
    1
 92
    0
 93
    4
 72
    1
 10
399.012
 20
232.024
 11
202
 21
232.024
 72
    1
 10
202
 20
232.024
 11
202
 21
235.7368
 72
    1
 10
202
 20
235.7368
 11
399.012
 21
235.7368
 72
    1
 10
399.012
 20
235.7368
 11
399.012
 21
232.024
 97
    0
 75
    0
 76
    1
 98
    0
  0
HATCH
  5
8D
100
AcDbEntity
  8
r-sheathing
  6
ByLayer
 62
  256
370
   -1
100
AcDbHatch
 10
0
 20
0
 30
0
210
0
220
0
230
1
  2
SOLID
 70
    1
 71
    0
 91
    1
 92
    0
 93
    4
 72
    1
 10
218
 20
235.7368
 11
399
 21
235.7368
 72
    1
 10
399
 20
235.7368
 11
399
 21
239.4484
 72
    1
 10
399
 20
239.4484
 11
218
 21
239.4484
 72
    1
 10
218
 20
239.4484
 11
218
 21
235.7368
 97
    0
 75
    0
 76
    1
 98
    0
  0
HATCH
  5
8E
100
AcDbEntity
  8
r-sheathing
  6
ByLayer
 62
  256
370
   -1
100
AcDbHatch
 10
0
 20
0
 30
0
210
0
220
0
230
1
  2
SOLID
 70
    1
 71
    0
 91
    1
 92
    0
 93
    4
 72
    1
 10
298
 20
254.2913978113038
 11
399
 21
254.2913978113038
 72
    1
 10
399
 20
254.2913978113038
 11
399
 21
258.0053978113037
 72
    1
 10
399
 20
258.0053978113037
 11
298
 21
258.0053978113037
 72
    1
 10
298
 20
258.0053978113037
 11
298
 21
254.2913978113038
 97
    0
 75
    0
 76
    1
 98
    0
  0
HATCH
  5
8F
100
AcDbEntity
  8
r-sheathing
  6
ByLayer
 62
  256
370
   -1
100
AcDbHatch
 10
0
 20
0
 30
0
210
0
220
0
230
1
  2
SOLID
 70
    1
 71
    0
 91
    1
 92
    0
 93
    4
 72
    1
 10
282
 20
250.5797978113038
 11
399
 21
250.5797978113038
 72
    1
 10
399
 20
250.5797978113038
 11
399
 21
254.2913978113038
 72
    1
 10
399
 20
254.2913978113038
 11
282
 21
254.2913978113038
 72
    1
 10
282
 20
254.2913978113038
 11
282
 21
250.5797978113038
 97
    0
 75
    0
 76
    1
 98
    0
  0
HATCH
  5
90
100
AcDbEntity
  8
r-sheathing
  6
ByLayer
 62
  256
370
   -1
100
AcDbHatch
 10
0
 20
0
 30
0
210
0
220
0
230
1
  2
SOLID
 70
    1
 71
    0
 91
    1
 92
    0
 93
    4
 72
    1
 10
266
 20
246.8669978113038
 11
399
 21
246.8669978113038
 72
    1
 10
399
 20
246.8669978113038
 11
399
 21
250.5797978113038
 72
    1
 10
399
 20
250.5797978113038
 11
266
 21
250.5797978113038
 72
    1
 10
266
 20
250.5797978113038
 11
266
 21
246.8669978113038
 97
    0
 75
    0
 76
    1
 98
    0
  0
HATCH
  5
91
100
AcDbEntity
  8
r-sheathing
  6
ByLayer
 62
  256
370
   -1
100
AcDbHatch
 10
0
 20
0
 30
0
210
0
220
0
230
1
  2
SOLID
 70
    1
 71
    0
 91
    1
 92
    0
 93
    4
 72
    1
 10
250
 20
243.1541978113038
 11
399
 21
243.1541978113038
 72
    1
 10
399
 20
243.1541978113038
 11
399
 21
246.8669978113038
 72
    1
 10
399
 20
246.8669978113038
 11
250
 21
246.8669978113038
 72
    1
 10
250
 20
246.8669978113038
 11
250
 21
243.1541978113038
 97
    0
 75
    0
 76
    1
 98
    0
  0
HATCH
  5
92
100
AcDbEntity
  8
r-sheathing
  6
ByLayer
 62
  256
370
   -1
100
AcDbHatch
 10
0
 20
0
 30
0
210
0
220
0
230
1
  2
SOLID
 70
    1
 71
    0
 91
    1
 92
    0
 93
    4
 72
    1
 10
234
 20
239.4425978113038
 11
399
 21
239.4425978113038
 72
    1
 10
399
 20
239.4425978113038
 11
399
 21
243.1541978113038
 72
    1
 10
399
 20
243.1541978113038
 11
234
 21
243.1541978113038
 72
    1
 10
234
 20
243.1541978113038
 11
234
 21
239.4425978113038
 97
    0
 75
    0
 76
    1
 98
    0
  0
LWPOLYLINE
  5
93
100
AcDbEntity
  8
r-sheathing
  6
ByLayer
 62
  256
370
   -1
100
AcDbPolyline
 90
    4
 70
    1
 43
0
 10
314
 20
258.0053978113037
 10
399
 20
258.0053978113037
 10
399
 20
261.7181978113038
 10
314
 20
261.7181978113038
  0
LWPOLYLINE
  5
94
100
AcDbEntity
  8
r-sheathing
  6
ByLayer
 62
  256
370
   -1
100
AcDbPolyline
 90
    4
 70
    1
 43
0
 10
298
 20
254.2913978113038
 10
399
 20
254.2913978113038
 10
399
 20
258.0053978113037
 10
298
 20
258.0053978113037
  0
LWPOLYLINE
  5
95
100
AcDbEntity
  8
r-sheathing
  6
ByLayer
 62
  256
370
   -1
100
AcDbPolyline
 90
    4
 70
    1
 43
0
 10
282
 20
250.5797978113038
 10
399
 20
250.5797978113038
 10
399
 20
254.2913978113038
 10
282
 20
254.2913978113038
  0
LWPOLYLINE
  5
96
100
AcDbEntity
  8
r-sheathing
  6
ByLayer
 62
  256
370
   -1
100
AcDbPolyline
 90
    4
 70
    1
 43
0
 10
266
 20
246.8669978113038
 10
399
 20
246.8669978113038
 10
399
 20
250.5797978113038
 10
266
 20
250.5797978113038
  0
LWPOLYLINE
  5
97
100
AcDbEntity
  8
r-sheathing
  6
ByLayer
 62
  256
370
   -1
100
AcDbPolyline
 90
    4
 70
    1
 43
0
 10
250
 20
243.1541978113038
 10
399
 20
243.1541978113038
 10
399
 20
246.8669978113038
 10
250
 20
246.8669978113038
  0
LWPOLYLINE
  5
98
100
AcDbEntity
  8
r-sheathing
  6
ByLayer
 62
  256
370
   -1
100
AcDbPolyline
 90
    4
 70
    1
 43
0
 10
218
 20
235.7368
 10
399
 20
235.7368
 10
399
 20
239.4484
 10
218
 20
239.4484
  0
LWPOLYLINE
  5
99
100
AcDbEntity
  8
r-sheathing
  6
ByLayer
 62
  256
370
   -1
100
AcDbPolyline
 90
    4
 70
    1
 43
0
 10
399.012
 20
232.024
 10
202
 20
232.024
 10
202
 20
235.7368
 10
399.012
 20
235.7368
  0
LWPOLYLINE
  5
9A
100
AcDbEntity
  8
r-sheathing
  6
ByLayer
 62
  256
370
   -1
100
AcDbPolyline
 90
    4
 70
    1
 43
0
 10
330
 20
261.7181978113038
 10
399
 20
261.7181978113038
 10
399
 20
265.4309978113038
 10
330
 20
265.4309978113038
  0
LWPOLYLINE
  5
9B
100
AcDbEntity
  8
r-sheathing
  6
ByLayer
 62
  256
370
   -1
100
AcDbPolyline
 90
    4
 70
    1
 43
0
 10
245
 20
135.9845986085845
 10
399
 20
135.9845986085845
 10
399
 20
139.6961986085845
 10
245
 20
139.6961986085845
  0
LWPOLYLINE
  5
9C
100
AcDbEntity
  8
r-sheathing
  6
ByLayer
 62
  256
370
   -1
100
AcDbPolyline
 90
    4
 70
    1
 43
0
 10
229
 20
132.2729986085845
 10
399
 20
132.2729986085845
 10
399
 20
135.9845986085845
 10
229
 20
135.9845986085845
  0
LWPOLYLINE
  5
9D
100
AcDbEntity
  8
r-sheathing
  6
ByLayer
 62
  256
370
   -1
100
AcDbPolyline
 90
    4
 70
    1
 43
0
 10
261
 20
139.6961986085845
 10
399
 20
139.6961986085845
 10
399
 20
143.4089986085845
 10
261
 20
143.4089986085845
  0
LWPOLYLINE
  5
9E
100
AcDbEntity
  8
r-sheathing
  6
ByLayer
 62
  256
370
   -1
100
AcDbPolyline
 90
    4
 70
    1
 43
0
 10
277
 20
143.4089986085845
 10
399
 20
143.4089986085845
 10
399
 20
147.1217986085845
 10
277
 20
147.1217986085845
  0
LWPOLYLINE
  5
9F
100
AcDbEntity
  8
r-sheathing
  6
ByLayer
 62
  256
370
   -1
100
AcDbPolyline
 90
    4
 70
    1
 43
0
 10
293
 20
147.1217986085845
 10
399
 20
147.1217986085845
 10
399
 20
150.8333986085845
 10
293
 20
150.8333986085845
  0
LWPOLYLINE
  5
A0
100
AcDbEntity
  8
r-sheathing
  6
ByLayer
 62
  256
370
   -1
100
AcDbPolyline
 90
    4
 70
    1
 43
0
 10
306
 20
150.8333986085845
 10
399
 20
150.8333986085845
 10
399
 20
154.5473986085845
 10
306
 20
154.5473986085845
  0
LWPOLYLINE
  5
A1
100
AcDbEntity
  8
r-sheathing
  6
ByLayer
 62
  256
370
   -1
100
AcDbPolyline
 90
    4
 70
    1
 43
0
 10
322
 20
154.5473986085845
 10
399
 20
154.5473986085845
 10
399
 20
158.2601986085845
 10
322
 20
158.2601986085845
  0
LWPOLYLINE
  5
A2
100
AcDbEntity
  8
r-sheathing
  6
ByLayer
 62
  256
370
   -1
100
AcDbPolyline
 90
    4
 70
    1
 43
0
 10
338
 20
158.2601986085845
 10
399
 20
158.2601986085845
 10
399
 20
161.9729986085845
 10
338
 20
161.9729986085845
  0
HATCH
  5
A3
100
AcDbEntity
  8
roofing-paper
  6
ByLayer
 62
  256
370
   -1
100
AcDbHatch
 10
0
 20
0
 30
0
210
0
220
0
230
1
  2
SOLID
 70
    1
 71
    0
 91
    1
 92
    0
 93
    4
 72
    1
 10
399.012
 20
232.024
 11
269.3593366547688
 21
232.024
 72
    1
 10
269.3593366547688
 20
232.024
 11
269.3593366547688
 21
248.1479910012585
 72
    1
 10
269.3593366547688
 20
248.1479910012585
 11
399.012
 21
248.1479910012585
 72
    1
 10
399.012
 20
248.1479910012585
 11
399.012
 21
232.024
 97
    0
 75
    0
 76
    1
 98
    0
  0
HATCH
  5
A4
100
AcDbEntity
  8
roofing-paper
  6
ByLayer
 62
  256
370
   -1
100
AcDbHatch
 10
0
 20
0
 30
0
210
0
220
0
230
1
  2
SOLID
 70
    1
 71
    0
 91
    1
 92
    0
 93
    4
 72
    1
 10
399.0526633452312
 20
123.4840089987415
 11
269.4
 21
123.4840089987415
 72
    1
 10
269.4
 20
123.4840089987415
 11
269.4
 21
139.608
 72
    1
 10
269.4
 20
139.608
 11
399.0526633452312
 21
139.608
 72
    1
 10
399.0526633452312
 20
139.608
 11
399.0526633452312
 21
123.4840089987415
 97
    0
 75
    0
 76
    1
 98
    0
  0
LWPOLYLINE
  5
A5
100
AcDbEntity
  8
roofing-paper
  6
ByLayer
 62
  256
370
   -1
100
AcDbPolyline
 90
    4
 70
    1
 43
0
 10
399.0526633452312
 20
123.4840089987415
 10
269.4
 20
123.4840089987415
 10
269.4
 20
139.608
 10
399.0526633452312
 20
139.608
  0
LWPOLYLINE
  5
A6
100
AcDbEntity
  8
roofing-paper
  6
ByLayer
 62
  256
370
   -1
100
AcDbPolyline
 90
    4
 70
    1
 43
0
 10
399
 20
137.1852
 10
314.9857300506418
 20
137.1852
 10
314.9857300506418
 20
152.034
 10
399
 20
152.034
  0
LWPOLYLINE
  5
A7
100
AcDbEntity
  8
roofing-paper
  6
ByLayer
 62
  256
370
   -1
100
AcDbPolyline
 90
    4
 70
    1
 43
0
 10
399.012
 20
232.024
 10
269.3593366547688
 20
232.024
 10
269.3593366547688
 20
248.1479910012585
 10
399.012
 20
248.1479910012585
  0
LWPOLYLINE
  5
A8
100
AcDbEntity
  8
roofing-paper
  6
ByLayer
 62
  256
370
   -1
100
AcDbPolyline
 90
    4
 70
    1
 43
0
 10
398.9593366547688
 20
245.7251910012585
 10
314.9450667054105
 20
245.7251910012585
 10
314.9450667054105
 20
260.5739910012585
 10
398.9593366547688
 20
260.5739910012585
  0
LWPOLYLINE
  5
A9
100
AcDbEntity
  8
roofing-paper_lines
  6
ByLayer
 62
  256
370
   -1
100
AcDbPolyline
 90
    4
 70
    1
 43
0
 10
269.4
 20
139.608
 10
399.0526633452312
 20
139.608
 10
399.0526633452312
 20
123.4840089987415
 10
269.4
 20
123.4840089987415
  0
LWPOLYLINE
  5
AA
100
AcDbEntity
  8
roofing-paper_lines
  6
ByLayer
 62
  256
370
   -1
100
AcDbPolyline
 90
    4
 70
    1
 43
0
 10
314.9857300506418
 20
152.034
 10
398.9859859056312
 20
152.034
 10
399
 20
137.1852
 10
314.9857300506418
 20
137.1852
  0
LWPOLYLINE
  5
AB
100
AcDbEntity
  8
roofing-paper_lines
  6
ByLayer
 62
  256
370
   -1
100
AcDbPolyline
 90
    4
 70
    1
 43
0
 10
269.3593366547688
 20
248.1479910012585
 10
399.012
 20
248.1479910012585
 10
399.012
 20
232.024
 10
269.3593366547688
 20
232.024
  0
HATCH
  5
AC
100
AcDbEntity
  8
roofing-paper
  6
ByLayer
 62
  256
370
   -1
100
AcDbHatch
 10
0
 20
0
 30
0
210
0
220
0
230
1
  2
SOLID
 70
    1
 71
    0
 91
    1
 92
    0
 93
    4
 72
    1
 10
398.9593366547688
 20
245.7251910012585
 11
314.9450667054105
 21
245.7251910012585
 72
    1
 10
314.9450667054105
 20
245.7251910012585
 11
314.9450667054105
 21
260.5739910012585
 72
    1
 10
314.9450667054105
 20
260.5739910012585
 11
398.9593366547688
 21
260.5739910012585
 72
    1
 10
398.9593366547688
 20
260.5739910012585
 11
398.9593366547688
 21
245.7251910012585
 97
    0
 75
    0
 76
    1
 98
    0
  0
HATCH
  5
AD
100
AcDbEntity
  8
roofing-paper
  6
ByLayer
 62
  256
370
   -1
100
AcDbHatch
 10
0
 20
0
 30
0
210
0
220
0
230
1
  2
SOLID
 70
    1
 71
    0
 91
    1
 92
    0
 93
    4
 72
    1
 10
399
 20
137.1852
 11
314.9857300506418
 21
137.1852
 72
    1
 10
314.9857300506418
 20
137.1852
 11
314.9857300506418
 21
152.034
 72
    1
 10
314.9857300506418
 20
152.034
 11
399
 21
152.034
 72
    1
 10
399
 20
152.034
 11
399
 21
137.1852
 97
    0
 75
    0
 76
    1
 98
    0
  0
LWPOLYLINE
  5
AE
100
AcDbEntity
  8
roofing-paper_lines
  6
ByLayer
 62
  256
370
   -1
100
AcDbPolyline
 90
    4
 70
    1
 43
0
 10
314.9450667054105
 20
260.5739910012585
 10
399.0120000000001
 20
260.5739910012585
 10
399.0120000000001
 20
247.0472314142746
 10
314.9450667054105
 20
247.0472314142746
  0
INSERT
  5
AF
100
AcDbEntity
  8
shingles
  6
ByLayer
 62
  256
370
   -1
100
AcDbBlockReference
  2
0.5-tab
 10
8.016000000000068
 20
11.34563141427459
 30
0
 41
12
 42
12
 43
0
 50
0
 70
    1
 71
    1
 44
12
 45
12
  0
INSERT
  5
B0
100
AcDbEntity
  8
shingles
  6
ByLayer
 62
  256
370
   -1
100
AcDbBlockReference
  2
3-tab
 10
2.01600000000006
 20
13.2080314142746
 30
0
 41
12
 42
12
 43
0
 50
0
 70
    1
 71
    1
 44
12
 45
12
  0
INSERT
  5
B1
100
AcDbEntity
  8
shingles
  6
ByLayer
 62
  256
370
   -1
100
AcDbBlockReference
  2
1-tab
 10
187.968
 20
15.05243141427461
 30
0
 41
12
 42
12
 43
0
 50
0
 70
    1
 71
    1
 44
12
 45
12
  0
INSERT
  5
B2
100
AcDbEntity
  8
shingles
  6
ByLayer
 62
  256
370
   -1
100
AcDbBlockReference
  2
0.5-tab
 10
8.016000000000068
 20
15.05843141427458
 30
0
 41
12
 42
12
 43
0
 50
0
 70
    1
 71
    1
 44
12
 45
12
  0
INSERT
  5
B3
100
AcDbEntity
  8
shingles
  6
ByLayer
 62
  256
370
   -1
100
AcDbBlockReference
  2
3-tab
 10
2.01600000000006
 20
16.9208314142746
 30
0
 41
12
 42
12
 43
0
 50
0
 70
    1
 71
    1
 44
12
 45
12
  0
INSERT
  5
B4
100
AcDbEntity
  8
shingles
  6
ByLayer
 62
  256
370
   -1
100
AcDbBlockReference
  2
3-tab
 10
8.016000000000057
 20
18.7712314142746
 30
0
 41
12
 42
12
 43
0
 50
0
 70
    1
 71
    1
 44
12
 45
12
  0
INSERT
  5
B5
100
AcDbEntity
  8
shingles
  6
ByLayer
 62
  256
370
   -1
100
AcDbBlockReference
  2
0.5-tab
 10
8.016000000000068
 20
18.7712314142746
 30
0
 41
12
 42
12
 43
0
 50
0
 70
    1
 71
    1
 44
12
 45
12
  0
INSERT
  5
B6
100
AcDbEntity
  8
shingles
  6
ByLayer
 62
  256
370
   -1
100
AcDbBlockReference
  2
3-tab
 10
2.01600000000006
 20
20.62763141427457
 30
0
 41
12
 42
12
 43
0
 50
0
 70
    1
 71
    1
 44
12
 45
12
  0
INSERT
  5
B7
100
AcDbEntity
  8
shingles
  6
ByLayer
 62
  256
370
   -1
100
AcDbBlockReference
  2
3-tab
 10
-33.98399999999995
 20
16.9208314142746
 30
0
 41
12
 42
12
 43
0
 50
0
 70
    1
 71
    1
 44
12
 45
12
  0
INSERT
  5
B8
100
AcDbEntity
  8
shingles
  6
ByLayer
 62
  256
370
   -1
100
AcDbBlockReference
  2
3-tab
 10
-33.98399999999997
 20
13.21403141427463
 30
0
 41
12
 42
12
 43
0
 50
0
 70
    1
 71
    1
 44
12
 45
12
  0
INSERT
  5
B9
100
AcDbEntity
  8
shingles
  6
ByLayer
 62
  256
370
   -1
100
AcDbBlockReference
  2
3-tab
 10
-69.98399999999998
 20
13.21403141427463
 30
0
 41
12
 42
12
 43
0
 50
0
 70
    1
 71
    1
 44
12
 45
12
  0
INSERT
  5
BA
100
AcDbEntity
  8
shingles
  6
ByLayer
 62
  256
370
   -1
100
AcDbBlockReference
  2
1-tab
 10
73.96799999999998
 20
13.20203141427461
 30
0
 41
12
 42
12
 43
0
 50
0
 70
    1
 71
    1
 44
12
 45
12
  0
INSERT
  5
BB
100
AcDbEntity
  8
shingles
  6
ByLayer
 62
  256
370
   -1
100
AcDbBlockReference
  2
3-tab
 10
-69.98399999999998
 20
16.9208314142746
 30
0
 41
12
 42
12
 43
0
 50
0
 70
    1
 71
    1
 44
12
 45
12
  0
INSERT
  5
BC
100
AcDbEntity
  8
shingles
  6
ByLayer
 62
  256
370
   -1
100
AcDbBlockReference
  2
3-tab
 10
-27.98399999999991
 20
18.7712314142746
 30
0
 41
12
 42
12
 43
0
 50
0
 70
    1
 71
    1
 44
12
 45
12
  0
INSERT
  5
BD
100
AcDbEntity
  8
shingles
  6
ByLayer
 62
  256
370
   -1
100
AcDbBlockReference
  2
3-tab
 10
8.016000000000057
 20
22.4840314142746
 30
0
 41
12
 42
12
 43
0
 50
0
 70
    1
 71
    1
 44
12
 45
12
  0
INSERT
  5
BE
100
AcDbEntity
  8
shingles
  6
ByLayer
 62
  256
370
   -1
100
AcDbBlockReference
  2
3-tab
 10
-33.98399999999995
 20
20.62763141427457
 30
0
 41
12
 42
12
 43
0
 50
0
 70
    1
 71
    1
 44
12
 45
12
  0
INSERT
  5
BF
100
AcDbEntity
  8
shingles
  6
ByLayer
 62
  256
370
   -1
100
AcDbBlockReference
  2
3-tab
 10
-27.86399999999997
 20
22.49003141427462
 30
0
 41
12
 42
12
 43
0
 50
0
 70
    1
 71
    1
 44
12
 45
12
  0
INSERT
  5
C0
100
AcDbEntity
  8
shingles
  6
ByLayer
 62
  256
370
   -1
100
AcDbBlockReference
  2
0.5-tab
 10
8.016000000000068
 20
22.4840314142746
 30
0
 41
12
 42
12
 43
0
 50
0
 70
    1
 71
    1
 44
12
 45
12
  0
INSERT
  5
C1
100
AcDbEntity
  8
shingles
  6
ByLayer
 62
  256
370
   -1
100
AcDbBlockReference
  2
0.5-tab
 10
8.016000000000068
 20
26.1968314142746
 30
0
 41
12
 42
12
 43
0
 50
0
 70
    1
 71
    1
 44
12
 45
12
  0
INSERT
  5
C2
100
AcDbEntity
  8
shingles
  6
ByLayer
 62
  256
370
   -1
100
AcDbBlockReference
  2
0.5-tab
 10
8.016000000000068
 20
29.9096314142746
 30
0
 41
12
 42
12
 43
0
 50
0
 70
    1
 71
    1
 44
12
 45
12
  0
INSERT
  5
C3
100
AcDbEntity
  8
shingles
  6
ByLayer
 62
  256
370
   -1
100
AcDbBlockReference
  2
0.5-tab
 10
8.016000000000068
 20
33.62243141427459
 30
0
 41
12
 42
12
 43
0
 50
0
 70
    1
 71
    1
 44
12
 45
12
  0
INSERT
  5
C4
100
AcDbEntity
  8
shingles
  6
ByLayer
 62
  256
370
   -1
100
AcDbBlockReference
  2
1-tab
 10
109.968
 20
20.62163141427459
 30
0
 41
12
 42
12
 43
0
 50
0
 70
    1
 71
    1
 44
12
 45
12
  0
INSERT
  5
C5
100
AcDbEntity
  8
shingles
  6
ByLayer
 62
  256
370
   -1
100
AcDbBlockReference
  2
1-tab
 10
97.84800000000008
 20
20.62163141427459
 30
0
 41
12
 42
12
 43
0
 50
0
 70
    1
 71
    1
 44
12
 45
12
  0
INSERT
  5
C6
100
AcDbEntity
  8
shingles
  6
ByLayer
 62
  256
370
   -1
100
AcDbBlockReference
  2
1-tab
 10
116.088
 20
22.48403141427463
 30
0
 41
12
 42
12
 43
0
 50
0
 70
    1
 71
    1
 44
12
 45
12
  0
INSERT
  5
C7
100
AcDbEntity
  8
shingles
  6
ByLayer
 62
  256
370
   -1
100
AcDbBlockReference
  2
1-tab
 10
103.9680000000001
 20
22.49003141427467
 30
0
 41
12
 42
12
 43
0
 50
0
 70
    1
 71
    1
 44
12
 45
12
  0
INSERT
  5
C8
100
AcDbEntity
  8
shingles
  6
ByLayer
 62
  256
370
   -1
100
AcDbBlockReference
  2
3-tab
 10
7.949322560400066
 20
26.20283141427462
 30
0
 41
12
 42
12
 43
0
 50
0
 70
    1
 71
    1
 44
12
 45
12
  0
INSERT
  5
C9
100
AcDbEntity
  8
shingles
  6
ByLayer
 62
  256
370
   -1
100
AcDbBlockReference
  2
3-tab
 10
-63.98399999999995
 20
18.7712314142746
 30
0
 41
12
 42
12
 43
0
 50
0
 70
    1
 71
    1
 44
12
 45
12
  0
INSERT
  5
CA
100
AcDbEntity
  8
shingles
  6
ByLayer
 62
  256
370
   -1
100
AcDbBlockReference
  2
3-tab
 10
-28.05067743959992
 20
26.20883141427466
 30
0
 41
12
 42
12
 43
0
 50
0
 70
    1
 71
    1
 44
12
 45
12
  0
INSERT
  5
CB
100
AcDbEntity
  8
shingles
  6
ByLayer
 62
  256
370
   -1
100
AcDbBlockReference
  2
1-tab
 10
115.9013225604
 20
26.20283141427467
 30
0
 41
12
 42
12
 43
0
 50
0
 70
    1
 71
    1
 44
12
 45
12
  0
INSERT
  5
CC
100
AcDbEntity
  8
shingles
  6
ByLayer
 62
  256
370
   -1
100
AcDbBlockReference
  2
3-tab
 10
2.016000000000098
 20
28.05323141427457
 30
0
 41
12
 42
12
 43
0
 50
0
 70
    1
 71
    1
 44
12
 45
12
  0
INSERT
  5
CD
100
AcDbEntity
  8
shingles
  6
ByLayer
 62
  256
370
   -1
100
AcDbBlockReference
  2
3-tab
 10
2.016000000000098
 20
24.34043141427457
 30
0
 41
12
 42
12
 43
0
 50
0
 70
    1
 71
    1
 44
12
 45
12
  0
INSERT
  5
CE
100
AcDbEntity
  8
shingles
  6
ByLayer
 62
  256
370
   -1
100
AcDbBlockReference
  2
3-tab
 10
-4.103999999999923
 20
15.05843141427458
 30
0
 41
12
 42
12
 43
0
 50
0
 70
    1
 71
    1
 44
12
 45
12
  0
INSERT
  5
CF
100
AcDbEntity
  8
shingles
  6
ByLayer
 62
  256
370
   -1
100
AcDbBlockReference
  2
3-tab
 10
-40.10399999999989
 20
15.05843141427458
 30
0
 41
12
 42
12
 43
0
 50
0
 70
    1
 71
    1
 44
12
 45
12
  0
INSERT
  5
D0
100
AcDbEntity
  8
shingles
  6
ByLayer
 62
  256
370
   -1
100
AcDbBlockReference
  2
1-tab
 10
103.8480000000001
 20
15.05243141427461
 30
0
 41
12
 42
12
 43
0
 50
0
 70
    1
 71
    1
 44
12
 45
12
  0
INSERT
  5
D1
100
AcDbEntity
  8
shingles
  6
ByLayer
 62
  256
370
   -1
100
AcDbBlockReference
  2
1-tab
 10
91.72800000000011
 20
15.05243141427461
 30
0
 41
12
 42
12
 43
0
 50
0
 70
    1
 71
    1
 44
12
 45
12
  0
INSERT
  5
D2
100
AcDbEntity
  8
shingles
  6
ByLayer
 62
  256
370
   -1
100
AcDbBlockReference
  2
1-tab
 10
79.60800000000013
 20
15.05243141427461
 30
0
 41
12
 42
12
 43
0
 50
0
 70
    1
 71
    1
 44
12
 45
12
  0
INSERT
  5
D3
100
AcDbEntity
  8
shingles
  6
ByLayer
 62
  256
370
   -1
100
AcDbBlockReference
  2
3-tab
 10
8.016000000000096
 20
29.9096314142746
 30
0
 41
12
 42
12
 43
0
 50
0
 70
    1
 71
    1
 44
12
 45
12
  0
INSERT
  5
D4
100
AcDbEntity
  8
shingles
  6
ByLayer
 62
  256
370
   -1
100
AcDbBlockReference
  2
3-tab
 10
2.016000000000098
 20
31.77203141427461
 30
0
 41
12
 42
12
 43
0
 50
0
 70
    1
 71
    1
 44
12
 45
12
  0
INSERT
  5
D5
100
AcDbEntity
  8
shingles
  6
ByLayer
 62
  256
370
   -1
100
AcDbBlockReference
  2
3-tab
 10
8.016000000000096
 20
33.62243141427459
 30
0
 41
12
 42
12
 43
0
 50
0
 70
    1
 71
    1
 44
12
 45
12
  0
INSERT
  5
D6
100
AcDbEntity
  8
shingles
  6
ByLayer
 62
  256
370
   -1
100
AcDbBlockReference
  2
3-tab
 10
2.016000000000098
 20
35.47883141427459
 30
0
 41
12
 42
12
 43
0
 50
0
 70
    1
 71
    1
 44
12
 45
12
  0
INSERT
  5
D7
100
AcDbEntity
  8
shingles
  6
ByLayer
 62
  256
370
   -1
100
AcDbBlockReference
  2
3-tab
 10
8.016000000000096
 20
37.34123141427465
 30
0
 41
12
 42
12
 43
0
 50
0
 70
    1
 71
    1
 44
12
 45
12
  0
INSERT
  5
D8
100
AcDbEntity
  8
shingles
  6
ByLayer
 62
  256
370
   -1
100
AcDbBlockReference
  2
3-tab
 10
-33.98399999999991
 20
28.05323141427457
 30
0
 41
12
 42
12
 43
0
 50
0
 70
    1
 71
    1
 44
12
 45
12
  0
INSERT
  5
D9
100
AcDbEntity
  8
shingles
  6
ByLayer
 62
  256
370
   -1
100
AcDbBlockReference
  2
3-tab
 10
-27.98399999999991
 20
29.9096314142746
 30
0
 41
12
 42
12
 43
0
 50
0
 70
    1
 71
    1
 44
12
 45
12
  0
INSERT
  5
DA
100
AcDbEntity
  8
shingles
  6
ByLayer
 62
  256
370
   -1
100
AcDbBlockReference
  2
1-tab
 10
145.968
 20
24.32843141427456
 30
0
 41
12
 42
12
 43
0
 50
0
 70
    1
 71
    1
 44
12
 45
12
  0
INSERT
  5
DB
100
AcDbEntity
  8
shingles
  6
ByLayer
 62
  256
370
   -1
100
AcDbBlockReference
  2
1-tab
 10
133.848
 20
24.32843141427456
 30
0
 41
12
 42
12
 43
0
 50
0
 70
    1
 71
    1
 44
12
 45
12
  0
INSERT
  5
DC
100
AcDbEntity
  8
shingles
  6
ByLayer
 62
  256
370
   -1
100
AcDbBlockReference
  2
1-tab
 10
121.7280000000001
 20
24.32843141427456
 30
0
 41
12
 42
12
 43
0
 50
0
 70
    1
 71
    1
 44
12
 45
12
  0
INSERT
  5
DD
100
AcDbEntity
  8
shingles
  6
ByLayer
 62
  256
370
   -1
100
AcDbBlockReference
  2
1-tab
 10
109.6080000000001
 20
24.32843141427456
 30
0
 41
12
 42
12
 43
0
 50
0
 70
    1
 71
    1
 44
12
 45
12
  0
INSERT
  5
DE
100
AcDbEntity
  8
shingles
  6
ByLayer
 62
  256
370
   -1
100
AcDbBlockReference
  2
1-tab
 10
145.968
 20
31.76603141427462
 30
0
 41
12
 42
12
 43
0
 50
0
 70
    1
 71
    1
 44
12
 45
12
  0
INSERT
  5
DF
100
AcDbEntity
  8
shingles
  6
ByLayer
 62
  256
370
   -1
100
AcDbBlockReference
  2
1-tab
 10
133.848
 20
31.76603141427462
 30
0
 41
12
 42
12
 43
0
 50
0
 70
    1
 71
    1
 44
12
 45
12
  0
INSERT
  5
E0
100
AcDbEntity
  8
shingles
  6
ByLayer
 62
  256
370
   -1
100
AcDbBlockReference
  2
1-tab
 10
151.968
 20
33.61643141427462
 30
0
 41
12
 42
12
 43
0
 50
0
 70
    1
 71
    1
 44
12
 45
12
  0
INSERT
  5
E1
100
AcDbEntity
  8
shingles
  6
ByLayer
 62
  256
370
   -1
100
AcDbBlockReference
  2
1-tab
 10
139.848
 20
33.61643141427462
 30
0
 41
12
 42
12
 43
0
 50
0
 70
    1
 71
    1
 44
12
 45
12
  0
INSERT
  5
E2
100
AcDbEntity
  8
shingles
  6
ByLayer
 62
  256
370
   -1
100
AcDbBlockReference
  2
1-tab
 10
145.968
 20
35.47283141427458
 30
0
 41
12
 42
12
 43
0
 50
0
 70
    1
 71
    1
 44
12
 45
12
  0
INSERT
  5
E3
100
AcDbEntity
  8
shingles
  6
ByLayer
 62
  256
370
   -1
100
AcDbBlockReference
  2
1-tab
 10
151.968
 20
37.34123141427467
 30
0
 41
12
 42
12
 43
0
 50
0
 70
    1
 71
    1
 44
12
 45
12
  0
INSERT
  5
E4
100
AcDbEntity
  8
shingles
  6
ByLayer
 62
  256
370
   -1
100
AcDbBlockReference
  2
0.5-tab
 10
8.016000000000068
 20
37.34123141427465
 30
0
 41
12
 42
12
 43
0
 50
0
 70
    1
 71
    1
 44
12
 45
12
  0
INSERT
  5
E5
100
AcDbEntity
  8
shingles
  6
ByLayer
 62
  256
370
   -1
100
AcDbBlockReference
  2
3-tab
 10
2.016000000000098
 20
39.20363141427463
 30
0
 41
12
 42
12
 43
0
 50
0
 70
    1
 71
    1
 44
12
 45
12
  0
INSERT
  5
E6
100
AcDbEntity
  8
shingles
  6
ByLayer
 62
  256
370
   -1
100
AcDbBlockReference
  2
0.5-tab
 10
8.056663345231238
 20
-97.19435958698389
 30
0
 41
12
 42
12
 43
0
 50
0
 70
    1
 71
    1
 44
12
 45
12
  0
INSERT
  5
E7
100
AcDbEntity
  8
shingles
  6
ByLayer
 62
  256
370
   -1
100
AcDbBlockReference
  2
3-tab
 10
2.056663345231227
 20
-95.33195958698388
 30
0
 41
12
 42
12
 43
0
 50
0
 70
    1
 71
    1
 44
12
 45
12
  0
INSERT
  5
E8
100
AcDbEntity
  8
shingles
  6
ByLayer
 62
  256
370
   -1
100
AcDbBlockReference
  2
1-tab
 10
188.0086633452312
 20
-93.48755958698388
 30
0
 41
12
 42
12
 43
0
 50
0
 70
    1
 71
    1
 44
12
 45
12
  0
INSERT
  5
E9
100
AcDbEntity
  8
shingles
  6
ByLayer
 62
  256
370
   -1
100
AcDbBlockReference
  2
0.5-tab
 10
8.056663345231238
 20
-93.48155958698391
 30
0
 41
12
 42
12
 43
0
 50
0
 70
    1
 71
    1
 44
12
 45
12
  0
INSERT
  5
EA
100
AcDbEntity
  8
shingles
  6
ByLayer
 62
  256
370
   -1
100
AcDbBlockReference
  2
3-tab
 10
2.056663345231227
 20
-91.6191595869839
 30
0
 41
12
 42
12
 43
0
 50
0
 70
    1
 71
    1
 44
12
 45
12
  0
INSERT
  5
EB
100
AcDbEntity
  8
shingles
  6
ByLayer
 62
  256
370
   -1
100
AcDbBlockReference
  2
3-tab
 10
8.056663345231227
 20
-89.76875958698389
 30
0
 41
12
 42
12
 43
0
 50
0
 70
    1
 71
    1
 44
12
 45
12
  0
INSERT
  5
EC
100
AcDbEntity
  8
shingles
  6
ByLayer
 62
  256
370
   -1
100
AcDbBlockReference
  2
0.5-tab
 10
8.056663345231238
 20
-89.76875958698389
 30
0
 41
12
 42
12
 43
0
 50
0
 70
    1
 71
    1
 44
12
 45
12
  0
INSERT
  5
ED
100
AcDbEntity
  8
shingles
  6
ByLayer
 62
  256
370
   -1
100
AcDbBlockReference
  2
3-tab
 10
2.056663345231227
 20
-87.91235958698391
 30
0
 41
12
 42
12
 43
0
 50
0
 70
    1
 71
    1
 44
12
 45
12
  0
INSERT
  5
EE
100
AcDbEntity
  8
shingles
  6
ByLayer
 62
  256
370
   -1
100
AcDbBlockReference
  2
3-tab
 10
-33.94333665476878
 20
-91.6191595869839
 30
0
 41
12
 42
12
 43
0
 50
0
 70
    1
 71
    1
 44
12
 45
12
  0
INSERT
  5
EF
100
AcDbEntity
  8
shingles
  6
ByLayer
 62
  256
370
   -1
100
AcDbBlockReference
  2
3-tab
 10
-33.94333665476881
 20
-95.32595958698386
 30
0
 41
12
 42
12
 43
0
 50
0
 70
    1
 71
    1
 44
12
 45
12
  0
INSERT
  5
F0
100
AcDbEntity
  8
shingles
  6
ByLayer
 62
  256
370
   -1
100
AcDbBlockReference
  2
3-tab
 10
-69.94333665476881
 20
-95.32595958698386
 30
0
 41
12
 42
12
 43
0
 50
0
 70
    1
 71
    1
 44
12
 45
12
  0
INSERT
  5
F1
100
AcDbEntity
  8
shingles
  6
ByLayer
 62
  256
370
   -1
100
AcDbBlockReference
  2
1-tab
 10
74.00866334523114
 20
-95.33795958698389
 30
0
 41
12
 42
12
 43
0
 50
0
 70
    1
 71
    1
 44
12
 45
12
  0
INSERT
  5
F2
100
AcDbEntity
  8
shingles
  6
ByLayer
 62
  256
370
   -1
100
AcDbBlockReference
  2
3-tab
 10
-69.94333665476881
 20
-91.6191595869839
 30
0
 41
12
 42
12
 43
0
 50
0
 70
    1
 71
    1
 44
12
 45
12
  0
INSERT
  5
F3
100
AcDbEntity
  8
shingles
  6
ByLayer
 62
  256
370
   -1
100
AcDbBlockReference
  2
3-tab
 10
-27.94333665476874
 20
-89.76875958698389
 30
0
 41
12
 42
12
 43
0
 50
0
 70
    1
 71
    1
 44
12
 45
12
  0
INSERT
  5
F4
100
AcDbEntity
  8
shingles
  6
ByLayer
 62
  256
370
   -1
100
AcDbBlockReference
  2
3-tab
 10
8.056663345231222
 20
-86.0559595869839
 30
0
 41
12
 42
12
 43
0
 50
0
 70
    1
 71
    1
 44
12
 45
12
  0
INSERT
  5
F5
100
AcDbEntity
  8
shingles
  6
ByLayer
 62
  256
370
   -1
100
AcDbBlockReference
  2
3-tab
 10
-33.94333665476878
 20
-87.91235958698391
 30
0
 41
12
 42
12
 43
0
 50
0
 70
    1
 71
    1
 44
12
 45
12
  0
INSERT
  5
F6
100
AcDbEntity
  8
shingles
  6
ByLayer
 62
  256
370
   -1
100
AcDbBlockReference
  2
3-tab
 10
-27.8233366547688
 20
-86.04995958698387
 30
0
 41
12
 42
12
 43
0
 50
0
 70
    1
 71
    1
 44
12
 45
12
  0
INSERT
  5
F7
100
AcDbEntity
  8
shingles
  6
ByLayer
 62
  256
370
   -1
100
AcDbBlockReference
  2
0.5-tab
 10
8.056663345231238
 20
-86.0559595869839
 30
0
 41
12
 42
12
 43
0
 50
0
 70
    1
 71
    1
 44
12
 45
12
  0
INSERT
  5
F8
100
AcDbEntity
  8
shingles
  6
ByLayer
 62
  256
370
   -1
100
AcDbBlockReference
  2
0.5-tab
 10
8.056663345231238
 20
-82.34315958698389
 30
0
 41
12
 42
12
 43
0
 50
0
 70
    1
 71
    1
 44
12
 45
12
  0
INSERT
  5
F9
100
AcDbEntity
  8
shingles
  6
ByLayer
 62
  256
370
   -1
100
AcDbBlockReference
  2
0.5-tab
 10
8.056663345231238
 20
-78.6303595869839
 30
0
 41
12
 42
12
 43
0
 50
0
 70
    1
 71
    1
 44
12
 45
12
  0
INSERT
  5
FA
100
AcDbEntity
  8
shingles
  6
ByLayer
 62
  256
370
   -1
100
AcDbBlockReference
  2
0.5-tab
 10
8.056663345231238
 20
-74.91755958698388
 30
0
 41
12
 42
12
 43
0
 50
0
 70
    1
 71
    1
 44
12
 45
12
  0
INSERT
  5
FB
100
AcDbEntity
  8
shingles
  6
ByLayer
 62
  256
370
   -1
100
AcDbBlockReference
  2
1-tab
 10
110.0086633452312
 20
-87.91835958698391
 30
0
 41
12
 42
12
 43
0
 50
0
 70
    1
 71
    1
 44
12
 45
12
  0
INSERT
  5
FC
100
AcDbEntity
  8
shingles
  6
ByLayer
 62
  256
370
   -1
100
AcDbBlockReference
  2
1-tab
 10
97.88866334523125
 20
-87.91835958698391
 30
0
 41
12
 42
12
 43
0
 50
0
 70
    1
 71
    1
 44
12
 45
12
  0
INSERT
  5
FD
100
AcDbEntity
  8
shingles
  6
ByLayer
 62
  256
370
   -1
100
AcDbBlockReference
  2
1-tab
 10
116.1286633452312
 20
-86.05595958698385
 30
0
 41
12
 42
12
 43
0
 50
0
 70
    1
 71
    1
 44
12
 45
12
  0
INSERT
  5
FE
100
AcDbEntity
  8
shingles
  6
ByLayer
 62
  256
370
   -1
100
AcDbBlockReference
  2
1-tab
 10
104.0086633452312
 20
-86.04995958698382
 30
0
 41
12
 42
12
 43
0
 50
0
 70
    1
 71
    1
 44
12
 45
12
  0
INSERT
  5
FF
100
AcDbEntity
  8
shingles
  6
ByLayer
 62
  256
370
   -1
100
AcDbBlockReference
  2
3-tab
 10
7.989985905631237
 20
-82.33715958698386
 30
0
 41
12
 42
12
 43
0
 50
0
 70
    1
 71
    1
 44
12
 45
12
  0
INSERT
  5
100
100
AcDbEntity
  8
shingles
  6
ByLayer
 62
  256
370
   -1
100
AcDbBlockReference
  2
3-tab
 10
-63.94333665476879
 20
-89.76875958698389
 30
0
 41
12
 42
12
 43
0
 50
0
 70
    1
 71
    1
 44
12
 45
12
  0
INSERT
  5
101
100
AcDbEntity
  8
shingles
  6
ByLayer
 62
  256
370
   -1
100
AcDbBlockReference
  2
3-tab
 10
-28.01001409436876
 20
-82.33115958698383
 30
0
 41
12
 42
12
 43
0
 50
0
 70
    1
 71
    1
 44
12
 45
12
  0
INSERT
  5
102
100
AcDbEntity
  8
shingles
  6
ByLayer
 62
  256
370
   -1
100
AcDbBlockReference
  2
1-tab
 10
115.9419859056312
 20
-82.33715958698383
 30
0
 41
12
 42
12
 43
0
 50
0
 70
    1
 71
    1
 44
12
 45
12
  0
INSERT
  5
103
100
AcDbEntity
  8
shingles
  6
ByLayer
 62
  256
370
   -1
100
AcDbBlockReference
  2
3-tab
 10
2.056663345231264
 20
-80.48675958698391
 30
0
 41
12
 42
12
 43
0
 50
0
 70
    1
 71
    1
 44
12
 45
12
  0
INSERT
  5
104
100
AcDbEntity
  8
shingles
  6
ByLayer
 62
  256
370
   -1
100
AcDbBlockReference
  2
3-tab
 10
2.056663345231264
 20
-84.19955958698392
 30
0
 41
12
 42
12
 43
0
 50
0
 70
    1
 71
    1
 44
12
 45
12
  0
INSERT
  5
105
100
AcDbEntity
  8
shingles
  6
ByLayer
 62
  256
370
   -1
100
AcDbBlockReference
  2
3-tab
 10
-4.063336654768751
 20
-93.48155958698391
 30
0
 41
12
 42
12
 43
0
 50
0
 70
    1
 71
    1
 44
12
 45
12
  0
INSERT
  5
106
100
AcDbEntity
  8
shingles
  6
ByLayer
 62
  256
370
   -1
100
AcDbBlockReference
  2
3-tab
 10
-40.06333665476871
 20
-93.48155958698391
 30
0
 41
12
 42
12
 43
0
 50
0
 70
    1
 71
    1
 44
12
 45
12
  0
INSERT
  5
107
100
AcDbEntity
  8
shingles
  6
ByLayer
 62
  256
370
   -1
100
AcDbBlockReference
  2
1-tab
 10
103.8886633452313
 20
-93.48755958698388
 30
0
 41
12
 42
12
 43
0
 50
0
 70
    1
 71
    1
 44
12
 45
12
  0
INSERT
  5
108
100
AcDbEntity
  8
shingles
  6
ByLayer
 62
  256
370
   -1
100
AcDbBlockReference
  2
1-tab
 10
91.76866334523127
 20
-93.48755958698388
 30
0
 41
12
 42
12
 43
0
 50
0
 70
    1
 71
    1
 44
12
 45
12
  0
INSERT
  5
109
100
AcDbEntity
  8
shingles
  6
ByLayer
 62
  256
370
   -1
100
AcDbBlockReference
  2
1-tab
 10
79.6486633452313
 20
-93.48755958698388
 30
0
 41
12
 42
12
 43
0
 50
0
 70
    1
 71
    1
 44
12
 45
12
  0
INSERT
  5
10A
100
AcDbEntity
  8
shingles
  6
ByLayer
 62
  256
370
   -1
100
AcDbBlockReference
  2
3-tab
 10
8.056663345231264
 20
-78.6303595869839
 30
0
 41
12
 42
12
 43
0
 50
0
 70
    1
 71
    1
 44
12
 45
12
  0
INSERT
  5
10B
100
AcDbEntity
  8
shingles
  6
ByLayer
 62
  256
370
   -1
100
AcDbBlockReference
  2
3-tab
 10
2.056663345231264
 20
-76.76795958698389
 30
0
 41
12
 42
12
 43
0
 50
0
 70
    1
 71
    1
 44
12
 45
12
  0
INSERT
  5
10C
100
AcDbEntity
  8
shingles
  6
ByLayer
 62
  256
370
   -1
100
AcDbBlockReference
  2
3-tab
 10
8.056663345231264
 20
-74.91755958698388
 30
0
 41
12
 42
12
 43
0
 50
0
 70
    1
 71
    1
 44
12
 45
12
  0
INSERT
  5
10D
100
AcDbEntity
  8
shingles
  6
ByLayer
 62
  256
370
   -1
100
AcDbBlockReference
  2
3-tab
 10
2.056663345231264
 20
-73.06115958698391
 30
0
 41
12
 42
12
 43
0
 50
0
 70
    1
 71
    1
 44
12
 45
12
  0
INSERT
  5
10E
100
AcDbEntity
  8
shingles
  6
ByLayer
 62
  256
370
   -1
100
AcDbBlockReference
  2
3-tab
 10
8.056663345231264
 20
-71.19875958698385
 30
0
 41
12
 42
12
 43
0
 50
0
 70
    1
 71
    1
 44
12
 45
12
  0
INSERT
  5
10F
100
AcDbEntity
  8
shingles
  6
ByLayer
 62
  256
370
   -1
100
AcDbBlockReference
  2
3-tab
 10
-33.94333665476874
 20
-80.48675958698391
 30
0
 41
12
 42
12
 43
0
 50
0
 70
    1
 71
    1
 44
12
 45
12
  0
INSERT
  5
110
100
AcDbEntity
  8
shingles
  6
ByLayer
 62
  256
370
   -1
100
AcDbBlockReference
  2
3-tab
 10
-27.94333665476874
 20
-78.6303595869839
 30
0
 41
12
 42
12
 43
0
 50
0
 70
    1
 71
    1
 44
12
 45
12
  0
INSERT
  5
111
100
AcDbEntity
  8
shingles
  6
ByLayer
 62
  256
370
   -1
100
AcDbBlockReference
  2
1-tab
 10
146.0086633452312
 20
-84.21155958698392
 30
0
 41
12
 42
12
 43
0
 50
0
 70
    1
 71
    1
 44
12
 45
12
  0
INSERT
  5
112
100
AcDbEntity
  8
shingles
  6
ByLayer
 62
  256
370
   -1
100
AcDbBlockReference
  2
1-tab
 10
133.8886633452312
 20
-84.21155958698392
 30
0
 41
12
 42
12
 43
0
 50
0
 70
    1
 71
    1
 44
12
 45
12
  0
INSERT
  5
113
100
AcDbEntity
  8
shingles
  6
ByLayer
 62
  256
370
   -1
100
AcDbBlockReference
  2
1-tab
 10
121.7686633452313
 20
-84.21155958698392
 30
0
 41
12
 42
12
 43
0
 50
0
 70
    1
 71
    1
 44
12
 45
12
  0
INSERT
  5
114
100
AcDbEntity
  8
shingles
  6
ByLayer
 62
  256
370
   -1
100
AcDbBlockReference
  2
1-tab
 10
109.6486633452313
 20
-84.21155958698392
 30
0
 41
12
 42
12
 43
0
 50
0
 70
    1
 71
    1
 44
12
 45
12
  0
INSERT
  5
115
100
AcDbEntity
  8
shingles
  6
ByLayer
 62
  256
370
   -1
100
AcDbBlockReference
  2
1-tab
 10
146.0086633452312
 20
-76.77395958698386
 30
0
 41
12
 42
12
 43
0
 50
0
 70
    1
 71
    1
 44
12
 45
12
  0
INSERT
  5
116
100
AcDbEntity
  8
shingles
  6
ByLayer
 62
  256
370
   -1
100
AcDbBlockReference
  2
1-tab
 10
133.8886633452312
 20
-76.77395958698386
 30
0
 41
12
 42
12
 43
0
 50
0
 70
    1
 71
    1
 44
12
 45
12
  0
INSERT
  5
117
100
AcDbEntity
  8
shingles
  6
ByLayer
 62
  256
370
   -1
100
AcDbBlockReference
  2
1-tab
 10
152.0086633452312
 20
-74.92355958698388
 30
0
 41
12
 42
12
 43
0
 50
0
 70
    1
 71
    1
 44
12
 45
12
  0
INSERT
  5
118
100
AcDbEntity
  8
shingles
  6
ByLayer
 62
  256
370
   -1
100
AcDbBlockReference
  2
1-tab
 10
139.8886633452312
 20
-74.92355958698388
 30
0
 41
12
 42
12
 43
0
 50
0
 70
    1
 71
    1
 44
12
 45
12
  0
INSERT
  5
119
100
AcDbEntity
  8
shingles
  6
ByLayer
 62
  256
370
   -1
100
AcDbBlockReference
  2
1-tab
 10
146.0086633452312
 20
-73.06715958698391
 30
0
 41
12
 42
12
 43
0
 50
0
 70
    1
 71
    1
 44
12
 45
12
  0
INSERT
  5
11A
100
AcDbEntity
  8
shingles
  6
ByLayer
 62
  256
370
   -1
100
AcDbBlockReference
  2
1-tab
 10
152.0086633452312
 20
-71.19875958698381
 30
0
 41
12
 42
12
 43
0
 50
0
 70
    1
 71
    1
 44
12
 45
12
  0
INSERT
  5
11B
100
AcDbEntity
  8
shingles
  6
ByLayer
 62
  256
370
   -1
100
AcDbBlockReference
  2
0.5-tab
 10
8.056663345231238
 20
-71.19875958698385
 30
0
 41
12
 42
12
 43
0
 50
0
 70
    1
 71
    1
 44
12
 45
12
  0
INSERT
  5
11C
100
AcDbEntity
  8
shingles
  6
ByLayer
 62
  256
370
   -1
100
AcDbBlockReference
  2
3-tab
 10
2.056663345231264
 20
-69.33635958698386
 30
0
 41
12
 42
12
 43
0
 50
0
 70
    1
 71
    1
 44
12
 45
12
  0
ENDSEC
  0
SECTION
  2
OBJECTS
  0
DICTIONARY
  5
C
330
0
100
AcDbDictionary
281
    1
  3
ACAD_GROUP
350
D
  0
DICTIONARY
  5
D
330
C
100
AcDbDictionary
281
    1
  0
PLOTSETTINGS
  5
11D
100
AcDbPlotSettings
  6
1x1
 40
0
 41
0
 42
0
 43
0
  0
ENDSEC
  0
EOF
