999
dxfrw 0.6.3
  0
SECTION
  2
HEADER
  9
$ACADVER
  1
AC1021
  9
$DWGCODEPAGE
  3
ANSI_1252
  9
$INSBASE
 10
0
 20
0
 30
0
  9
$EXTMIN
 10
-0.5711637548010876
 20
-0.2318736715270967
 30
0
  9
$EXTMAX
 10
94.32644790338722
 20
56.43309869534288
 30
0
  9
$LIMMIN
 10
0
 20
0
  9
$LIMMAX
 10
420
 20
297
  9
$ORTHOMODE
 70
    0
  9
$REGENMODE
 70
    1
  9
$FILLMODE
 70
    1
  9
$QTEXTMODE
 70
    0
  9
$MIRRTEXT
 70
    0
  9
$LTSCALE
 40
1
  9
$ATTMODE
 70
    0
  9
$TEXTSIZE
 40
2.5
  9
$TRACEWID
 40
15.68
  9
$TEXTSTYLE
  7
STANDARD
  9
$CLAYER
  8
0
  9
$CELTYPE
  6
BYLAYER
  9
$CECOLOR
 62
  256
  9
$CELTSCALE
 40
1
  9
$DISPSILH
 70
    0
  9
$DIMSCALE
 40
2.5
  9
$DIMASZ
 40
2.5
  9
$DIMEXO
 40
0.625
  9
$DIMDLI
 40
3.75
  9
$DIMRND
 40
0
  9
$DIMDLE
 40
0
  9
$DIMEXE
 40
1.25
  9
$DIMTP
 40
0
  9
$DIMTM
 40
0
  9
$DIMTXT
 40
2.5
  9
$DIMCEN
 40
2.5
  9
$DIMTSZ
 40
0
  9
$DIMTOL
 70
    0
  9
$DIMLIM
 70
    0
  9
$DIMTIH
 70
    0
  9
$DIMTOH
 70
    0
  9
$DIMSE1
 70
    0
  9
$DIMSE2
 70
    0
  9
$DIMTAD
 70
    1
  9
$DIMZIN
 70
    1
  9
$DIMBLK
  1

  9
$DIMASO
 70
    1
  9
$DIMSHO
 70
    1
  9
$DIMPOST
  1

  9
$DIMAPOST
  1

  9
$DIMALT
 70
    0
  9
$DIMALTD
 70
    3
  9
$DIMALTF
 40
0.03937
  9
$DIMLFAC
 40
1
  9
$DIMTOFL
 70
    1
  9
$DIMTVP
 40
0
  9
$DIMTIX
 70
    0
  9
$DIMSOXD
 70
    0
  9
$DIMSAH
 70
    0
  9
$DIMBLK1
  1

  9
$DIMBLK2
  1

  9
$DIMSTYLE
  2
STANDARD
  9
$DIMCLRD
 70
    0
  9
$DIMCLRE
 70
    0
  9
$DIMCLRT
 70
    0
  9
$DIMTFAC
 40
1
  9
$DIMGAP
 40
0.625
  9
$DIMJUST
 70
    0
  9
$DIMSD1
 70
    0
  9
$DIMSD2
 70
    0
  9
$DIMTOLJ
 70
    0
  9
$DIMTZIN
 70
    8
  9
$DIMALTZ
 70
    0
  9
$DIMALTTZ
 70
    0
  9
$DIMUPT
 70
    0
  9
$DIMDEC
 70
    4
  9
$DIMTDEC
 70
    2
  9
$DIMALTU
 70
    2
  9
$DIMALTTD
 70
    3
  9
$DIMTXSTY
  7
standard
  9
$DIMAUNIT
 70
    0
  9
$DIMADEC
 70
    2
  9
$DIMALTRND
 40
0
  9
$DIMAZIN
 70
    0
  9
$DIMDSEP
 70
   44
  9
$DIMATFIT
 70
    3
  9
$DIMFRAC
 70
    0
  9
$DIMLDRBLK
  1
STANDARD
  9
$DIMLUNIT
 70
    2
  9
$DIMLWD
 70
   -2
  9
$DIMLWE
 70
   -2
  9
$DIMTMOVE
 70
    0
  9
$DIMFXL
 40
0
  9
$DIMFXLON
 70
    0
  9
$DIMJOGANG
 40
0.7854
  9
$DIMTFILL
 70
    0
  9
$DIMTFILLCLR
 70
    0
  9
$DIMARCSYM
 70
    0
  9
$DIMLTYPE
  6

  9
$DIMLTEX1
  6

  9
$DIMLTEX2
  6

  9
$LUNITS
 70
    2
  9
$LUPREC
 70
    4
  9
$SKETCHINC
 40
1
  9
$FILLETRAD
 40
0
  9
$AUNITS
 70
    0
  9
$AUPREC
 70
    2
  9
$MENU
  1
.
  9
$ELEVATION
 40
0
  9
$PELEVATION
 40
0
  9
$THICKNESS
 40
0
  9
$LIMCHECK
 70
    0
  9
$CHAMFERA
 40
0
  9
$CHAMFERB
 40
0
  9
$CHAMFERC
 40
0
  9
$CHAMFERD
 40
0
  9
$SKPOLY
 70
    0
  9
$USRTIMER
 70
    1
  9
$ANGBASE
 50
0
  9
$ANGDIR
 70
    0
  9
$PDMODE
 70
   34
  9
$PDSIZE
 40
0
  9
$PLINEWID
 40
0
  9
$SPLFRAME
 70
    0
  9
$SPLINETYPE
 70
    2
  9
$SPLINESEGS
 70
    8
  9
$HANDSEED
  5
20000
  9
$SURFTAB1
 70
    6
  9
$SURFTAB2
 70
    6
  9
$SURFTYPE
 70
    6
  9
$SURFU
 70
    6
  9
$SURFV
 70
    6
  9
$UCSBASE
  2

  9
$UCSNAME
  2

  9
$UCSORG
 10
0
 20
0
 30
0
  9
$UCSXDIR
 10
1
 20
0
 30
0
  9
$UCSYDIR
 10
0
 20
1
 30
0
  9
$UCSORTHOREF
  2

  9
$UCSORTHOVIEW
 70
    0
  9
$UCSORGTOP
 10
0
 20
0
 30
0
  9
$UCSORGBOTTOM
 10
0
 20
0
 30
0
  9
$UCSORGLEFT
 10
0
 20
0
 30
0
  9
$UCSORGRIGHT
 10
0
 20
0
 30
0
  9
$UCSORGFRONT
 10
0
 20
0
 30
0
  9
$UCSORGBACK
 10
0
 20
0
 30
0
  9
$PUCSBASE
  2

  9
$PUCSNAME
  2

  9
$PUCSORG
 10
0
 20
0
 30
0
  9
$PUCSXDIR
 10
1
 20
0
 30
0
  9
$PUCSYDIR
 10
0
 20
1
 30
0
  9
$PUCSORTHOREF
  2

  9
$PUCSORTHOVIEW
 70
    0
  9
$PUCSORGTOP
 10
0
 20
0
 30
0
  9
$PUCSORGBOTTOM
 10
0
 20
0
 30
0
  9
$PUCSORGLEFT
 10
0
 20
0
 30
0
  9
$PUCSORGRIGHT
 10
0
 20
0
 30
0
  9
$PUCSORGFRONT
 10
0
 20
0
 30
0
  9
$PUCSORGBACK
 10
0
 20
0
 30
0
  9
$USERI1
 70
    0
  9
$USERI2
 70
    0
  9
$USERI3
 70
    0
  9
$USERI4
 70
    0
  9
$USERI5
 70
    0
  9
$USERR1
 40
0
  9
$USERR2
 40
0
  9
$USERR3
 40
0
  9
$USERR4
 40
0
  9
$USERR5
 40
0
  9
$WORLDVIEW
 70
    1
  9
$SHADEDGE
 70
    3
  9
$SHADEDIF
 70
   70
  9
$TILEMODE
 70
    1
  9
$MAXACTVP
 70
   64
  9
$PINSBASE
 10
0.1970039946811711
 20
4.325295944561551
 30
0
  9
$PLIMCHECK
 70
    0
  9
$PEXTMIN
 10
0
 20
0
 30
0
  9
$PEXTMAX
 10
0
 20
0
 30
0
  9
$GRIDMODE
 70
    0
  9
$SNAPSTYLE
 70
    0
  9
$GRIDUNIT
 10
0
 20
0
  9
$PLIMMIN
 10
0
 20
0
  9
$PLIMMAX
 10
26
 20
24
  9
$UNITMODE
 70
    0
  9
$VISRETAIN
 70
    1
  9
$PLINEGEN
 70
    0
  9
$PSLTSCALE
 70
    1
  9
$TREEDEPTH
 70
 3020
  9
$CMLSTYLE
  2
Standard
  9
$CMLJUST
 70
    0
  9
$CMLSCALE
 40
20
  9
$PROXYGRAPHICS
 70
    1
  9
$MEASUREMENT
 70
    1
  9
$CELWEIGHT
370
   -1
  9
$ENDCAPS
280
    0
  9
$JOINSTYLE
280
    0
  9
$LWDISPLAY
290
    0
  9
$INSUNITS
 70
    2
  9
$HYPERLINKBASE
  1

  9
$STYLESHEET
  1

  9
$XEDIT
290
    1
  9
$CEPSNTYPE
380
    0
  9
$PSTYLEMODE
290
    1
  9
$EXTNAMES
290
    1
  9
$PSVPSCALE
 40
0.25
  9
$OLESTARTUP
290
    0
  9
$SORTENTS
280
  127
  9
$INDEXCTL
280
    0
  9
$HIDETEXT
280
    1
  9
$XCLIPFRAME
290
    0
  9
$HALOGAP
280
    0
  9
$OBSCOLOR
 70
  257
  9
$OBSLTYPE
280
    0
  9
$INTERSECTIONDISPLAY
280
    0
  9
$INTERSECTIONCOLOR
 70
  257
  9
$DIMASSOC
280
    1
  9
$PROJECTNAME
  1

  9
$CAMERADISPLAY
290
    0
  9
$LENSLENGTH
 40
50
  9
$CAMERAHEIGHT
 40
0
  9
$STEPSPERSEC
 40
2
  9
$STEPSIZE
 40
50
  9
$3DDWFPREC
 40
2
  9
$PSOLWIDTH
 40
5
  9
$PSOLHEIGHT
 40
80
  9
$LOFTANG1
 40
1.570796326794897
  9
$LOFTANG2
 40
1.570796326794897
  9
$LOFTMAG1
 40
0
  9
$LOFTMAG2
 40
0
  9
$LOFTPARAM
 70
    7
  9
$LOFTNORMALS
280
    1
  9
$LATITUDE
 40
1
  9
$LONGITUDE
 40
1
  9
$NORTHDIRECTION
 40
0
  9
$TIMEZONE
 70
-8000
  9
$LIGHTGLYPHDISPLAY
280
    1
  9
$TILEMODELIGHTSYNCH
280
    1
  9
$SOLIDHIST
280
    1
  9
$SHOWHIST
280
    1
  9
$DWFFRAME
280
    2
  9
$DGNFRAME
280
    0
  9
$REALWORLDSCALE
290
    1
  9
$INTERFERECOLOR
 62
    1
  9
$CSHADOW
280
    0
  9
$SHADOWPLANELOCATION
 40
0
  0
ENDSEC
  0
SECTION
  2
CLASSES
  0
ENDSEC
  0
SECTION
  2
TABLES
  0
TABLE
  2
VPORT
  5
8
330
0
100
AcDbSymbolTable
 70
    1
  0
VPORT
  5
31
330
2
100
AcDbSymbolTableRecord
100
AcDbViewportTableRecord
  2
*ACTIVE
 70
    0
 10
0
 20
0
 11
1
 21
1
 12
81.41044670861126
 22
42.23765529235008
 13
0
 23
0
 14
10
 24
10
 15
10
 25
10
 16
0
 26
0
 36
1
 17
0
 27
0
 37
0
 40
101.1405079109335
 41
1.984848484848485
 42
50
 43
0
 44
0
 50
0
 51
0
 71
    0
 72
  100
 73
    1
 74
    3
 75
    0
 76
    0
 77
    0
 78
    0
281
    0
 65
    1
110
0
120
0
130
0
111
1
121
0
131
0
112
0
122
1
132
0
 79
    0
146
0
348
10020
 60
    7
 61
    5
292
1
282
    1
141
0
142
0
 63
  250
421
3358443
  0
ENDTAB
  0
TABLE
  2
LTYPE
  5
5
330
0
100
AcDbSymbolTable
 70
    4
  0
LTYPE
  5
14
330
5
100
AcDbSymbolTableRecord
100
AcDbLinetypeTableRecord
  2
ByBlock
 70
    0
  3

 72
   65
 73
    0
 40
0
  0
LTYPE
  5
15
330
5
100
AcDbSymbolTableRecord
100
AcDbLinetypeTableRecord
  2
ByLayer
 70
    0
  3

 72
   65
 73
    0
 40
0
  0
LTYPE
  5
16
330
5
100
AcDbSymbolTableRecord
100
AcDbLinetypeTableRecord
  2
Continuous
 70
    0
  3
Solid line
 72
   65
 73
    0
 40
0
  0
LTYPE
  5
32
330
5
100
AcDbSymbolTableRecord
100
AcDbLinetypeTableRecord
  2
DOT
 70
    0
  3
Dot . . . . . . . . . . . . . . . . . . . . . .
 72
   65
 73
    2
 40
6.35
 49
0
 74
    0
 49
-6.35
 74
    0
  0
LTYPE
  5
33
330
5
100
AcDbSymbolTableRecord
100
AcDbLinetypeTableRecord
  2
DOTTINY
 70
    0
  3
Dot (.15x) .....................................
 72
   65
 73
    2
 40
0.9525
 49
0
 74
    0
 49
-0.9525
 74
    0
  0
LTYPE
  5
34
330
5
100
AcDbSymbolTableRecord
100
AcDbLinetypeTableRecord
  2
DOT2
 70
    0
  3
Dot (.5x) .....................................
 72
   65
 73
    2
 40
3.175
 49
0
 74
    0
 49
-3.175
 74
    0
  0
LTYPE
  5
35
330
5
100
AcDbSymbolTableRecord
100
AcDbLinetypeTableRecord
  2
DOTX2
 70
    0
  3
Dot (2x) .  .  .  .  .  .  .  .  .  .  .  .  .
 72
   65
 73
    2
 40
12.7
 49
0
 74
    0
 49
-12.7
 74
    0
  0
LTYPE
  5
36
330
5
100
AcDbSymbolTableRecord
100
AcDbLinetypeTableRecord
  2
DASHED
 70
    0
  3
Dashed _ _ _ _ _ _ _ _ _ _ _ _ _ _ _ _ _
 72
   65
 73
    2
 40
19.05
 49
12.7
 74
    0
 49
-6.35
 74
    0
  0
LTYPE
  5
37
330
5
100
AcDbSymbolTableRecord
100
AcDbLinetypeTableRecord
  2
DASHEDTINY
 70
    0
  3
Dashed (.15x) _ _ _ _ _ _ _ _ _ _ _ _ _ _ _ _ _
 72
   65
 73
    2
 40
2.8575
 49
1.905
 74
    0
 49
-0.9525
 74
    0
  0
LTYPE
  5
38
330
5
100
AcDbSymbolTableRecord
100
AcDbLinetypeTableRecord
  2
DASHED2
 70
    0
  3
Dashed (.5x) _ _ _ _ _ _ _ _ _ _ _ _ _ _ _ _ _
 72
   65
 73
    2
 40
9.524999999999999
 49
6.35
 74
    0
 49
-3.175
 74
    0
  0
LTYPE
  5
39
330
5
100
AcDbSymbolTableRecord
100
AcDbLinetypeTableRecord
  2
DASHEDX2
 70
    0
  3
Dashed (2x) ____  ____  ____  ____  ____  ___
 72
   65
 73
    2
 40
38.09999999999999
 49
25.4
 74
    0
 49
-12.7
 74
    0
  0
LTYPE
  5
3A
330
5
100
AcDbSymbolTableRecord
100
AcDbLinetypeTableRecord
  2
DASHDOT
 70
    0
  3
Dash dot __ . __ . __ . __ . __ . __ . __ . __
 72
   65
 73
    4
 40
25.4
 49
12.7
 74
    0
 49
-6.35
 74
    0
 49
0
 74
    0
 49
-6.35
 74
    0
  0
LTYPE
  5
3B
330
5
100
AcDbSymbolTableRecord
100
AcDbLinetypeTableRecord
  2
DASHDOTTINY
 70
    0
  3
Dash dot (.15x) _._._._._._._._._._._._._._._.
 72
   65
 73
    4
 40
3.81
 49
1.905
 74
    0
 49
-0.9525
 74
    0
 49
0
 74
    0
 49
-0.9525
 74
    0
  0
LTYPE
  5
3C
330
5
100
AcDbSymbolTableRecord
100
AcDbLinetypeTableRecord
  2
DASHDOT2
 70
    0
  3
Dash dot (.5x) _._._._._._._._._._._._._._._.
 72
   65
 73
    4
 40
12.7
 49
6.35
 74
    0
 49
-3.175
 74
    0
 49
0
 74
    0
 49
-3.175
 74
    0
  0
LTYPE
  5
3D
330
5
100
AcDbSymbolTableRecord
100
AcDbLinetypeTableRecord
  2
DASHDOTX2
 70
    0
  3
Dash dot (2x) ____  .  ____  .  ____  .  ___
 72
   65
 73
    4
 40
50.8
 49
25.4
 74
    0
 49
-12.7
 74
    0
 49
0
 74
    0
 49
-12.7
 74
    0
  0
LTYPE
  5
3E
330
5
100
AcDbSymbolTableRecord
100
AcDbLinetypeTableRecord
  2
DIVIDE
 70
    0
  3
Divide ____ . . ____ . . ____ . . ____ . . ____
 72
   65
 73
    6
 40
31.75
 49
12.7
 74
    0
 49
-6.35
 74
    0
 49
0
 74
    0
 49
-6.35
 74
    0
 49
0
 74
    0
 49
-6.35
 74
    0
  0
LTYPE
  5
3F
330
5
100
AcDbSymbolTableRecord
100
AcDbLinetypeTableRecord
  2
DIVIDETINY
 70
    0
  3
Divide (.15x) __..__..__..__..__..__..__..__.._
 72
   65
 73
    6
 40
4.7625
 49
1.905
 74
    0
 49
-0.9525
 74
    0
 49
0
 74
    0
 49
-0.9525
 74
    0
 49
0
 74
    0
 49
-0.9525
 74
    0
  0
LTYPE
  5
40
330
5
100
AcDbSymbolTableRecord
100
AcDbLinetypeTableRecord
  2
DIVIDE2
 70
    0
  3
Divide (.5x) __..__..__..__..__..__..__..__.._
 72
   65
 73
    6
 40
15.875
 49
6.35
 74
    0
 49
-3.175
 74
    0
 49
0
 74
    0
 49
-3.175
 74
    0
 49
0
 74
    0
 49
-3.175
 74
    0
  0
LTYPE
  5
41
330
5
100
AcDbSymbolTableRecord
100
AcDbLinetypeTableRecord
  2
DIVIDEX2
 70
    0
  3
Divide (2x) ________  .  .  ________  .  .  _
 72
   65
 73
    6
 40
63.5
 49
25.4
 74
    0
 49
-12.7
 74
    0
 49
0
 74
    0
 49
-12.7
 74
    0
 49
0
 74
    0
 49
-12.7
 74
    0
  0
LTYPE
  5
42
330
5
100
AcDbSymbolTableRecord
100
AcDbLinetypeTableRecord
  2
BORDER
 70
    0
  3
Border __ __ . __ __ . __ __ . __ __ . __ __ .
 72
   65
 73
    6
 40
44.45
 49
12.7
 74
    0
 49
-6.35
 74
    0
 49
12.7
 74
    0
 49
-6.35
 74
    0
 49
0
 74
    0
 49
-6.35
 74
    0
  0
LTYPE
  5
43
330
5
100
AcDbSymbolTableRecord
100
AcDbLinetypeTableRecord
  2
BORDERTINY
 70
    0
  3
Border (.15x) __.__.__.__.__.__.__.__.__.__.__.
 72
   65
 73
    6
 40
6.6675
 49
1.905
 74
    0
 49
-0.9525
 74
    0
 49
1.905
 74
    0
 49
-0.9525
 74
    0
 49
0
 74
    0
 49
-0.9525
 74
    0
  0
LTYPE
  5
44
330
5
100
AcDbSymbolTableRecord
100
AcDbLinetypeTableRecord
  2
BORDER2
 70
    0
  3
Border (.5x) __.__.__.__.__.__.__.__.__.__.__.
 72
   65
 73
    6
 40
22.225
 49
6.35
 74
    0
 49
-3.175
 74
    0
 49
6.35
 74
    0
 49
-3.175
 74
    0
 49
0
 74
    0
 49
-3.175
 74
    0
  0
LTYPE
  5
45
330
5
100
AcDbSymbolTableRecord
100
AcDbLinetypeTableRecord
  2
BORDERX2
 70
    0
  3
Border (2x) ____  ____  .  ____  ____  .  ___
 72
   65
 73
    6
 40
88.89999999999999
 49
25.4
 74
    0
 49
-12.7
 74
    0
 49
25.4
 74
    0
 49
-12.7
 74
    0
 49
0
 74
    0
 49
-12.7
 74
    0
  0
LTYPE
  5
46
330
5
100
AcDbSymbolTableRecord
100
AcDbLinetypeTableRecord
  2
CENTER
 70
    0
  3
Center ____ _ ____ _ ____ _ ____ _ ____ _ ____
 72
   65
 73
    4
 40
50.8
 49
31.75
 74
    0
 49
-6.35
 74
    0
 49
6.35
 74
    0
 49
-6.35
 74
    0
  0
LTYPE
  5
47
330
5
100
AcDbSymbolTableRecord
100
AcDbLinetypeTableRecord
  2
CENTERTINY
 70
    0
  3
Center (.15x) ___ _ ___ _ ___ _ ___ _ ___ _ ___
 72
   65
 73
    4
 40
7.62
 49
4.7625
 74
    0
 49
-0.9525
 74
    0
 49
0.9525
 74
    0
 49
-0.9525
 74
    0
  0
LTYPE
  5
48
330
5
100
AcDbSymbolTableRecord
100
AcDbLinetypeTableRecord
  2
CENTER2
 70
    0
  3
Center (.5x) ___ _ ___ _ ___ _ ___ _ ___ _ ___
 72
   65
 73
    4
 40
28.575
 49
19.05
 74
    0
 49
-3.175
 74
    0
 49
3.175
 74
    0
 49
-3.175
 74
    0
  0
LTYPE
  5
49
330
5
100
AcDbSymbolTableRecord
100
AcDbLinetypeTableRecord
  2
CENTERX2
 70
    0
  3
Center (2x) ________  __  ________  __  _____
 72
   65
 73
    4
 40
101.6
 49
63.5
 74
    0
 49
-12.7
 74
    0
 49
12.7
 74
    0
 49
-12.7
 74
    0
  0
ENDTAB
  0
TABLE
  2
LAYER
  5
2
330
0
100
AcDbSymbolTable
 70
    1
  0
LAYER
  5
10
330
2
100
AcDbSymbolTableRecord
100
AcDbLayerTableRecord
  2
0
 70
    0
 62
    7
  6
CONTINUOUS
370
    0
390
F
  0
ENDTAB
  0
TABLE
  2
STYLE
  5
3
330
0
100
AcDbSymbolTable
 70
    3
  0
STYLE
  5
4A
330
2
100
AcDbSymbolTableRecord
100
AcDbTextStyleTableRecord
  2
STANDARD
 70
    0
 40
0
 41
1
 50
0
 71
    0
 42
1
  3
STANDARD
  4

  0
ENDTAB
  0
TABLE
  2
VIEW
  5
6
330
0
100
AcDbSymbolTable
 70
    0
  0
ENDTAB
  0
TABLE
  2
UCS
  5
7
330
0
100
AcDbSymbolTable
 70
    0
  0
ENDTAB
  0
TABLE
  2
APPID
  5
9
330
0
100
AcDbSymbolTable
 70
    1
  0
APPID
  5
12
330
9
100
AcDbSymbolTableRecord
100
AcDbRegAppTableRecord
  2
ACAD
 70
    0
  0
APPID
  5
4B
330
9
100
AcDbSymbolTableRecord
100
AcDbRegAppTableRecord
  2
LibreCad
 70
    0
  0
ENDTAB
  0
TABLE
  2
DIMSTYLE
  5
A
330
0
100
AcDbSymbolTable
 70
    1
100
AcDbDimStyleTable
 71
    1
  0
DIMSTYLE
105
4C
330
A
100
AcDbSymbolTableRecord
100
AcDbDimStyleTableRecord
  2
Standard
 70
    0
 40
2.5
 41
2.5
 42
0.625
 43
0.38
 44
1.25
 45
0
 46
0
 47
0
 48
0
 49
0
140
2.5
141
0.09
142
0
143
25.4
144
1
145
0
146
1
147
0.625
148
0
 71
    0
 72
    0
 73
    0
 74
    1
 75
    0
 76
    0
 77
    0
 78
    1
 79
    0
170
    0
171
    2
172
    0
173
    0
174
    0
175
    0
176
    0
177
    0
178
    0
179
    2
271
    4
272
    4
273
    2
274
    2
275
    0
276
    0
277
    2
278
   44
279
    0
280
    0
281
    0
282
    0
283
    1
284
    0
285
    0
286
    0
288
    0
289
    3
340
standard
341

371
   -2
372
   -2
  0
ENDTAB
  0
TABLE
  2
BLOCK_RECORD
  5
1
330
0
100
AcDbSymbolTable
 70
    2
  0
BLOCK_RECORD
  5
1F
330
1
100
AcDbSymbolTableRecord
100
AcDbBlockTableRecord
  2
*Model_Space
 70
    0
280
    1
281
    0
  0
BLOCK_RECORD
  5
1E
330
1
100
AcDbSymbolTableRecord
100
AcDbBlockTableRecord
  2
*Paper_Space
 70
    0
280
    1
281
    0
  0
ENDTAB
  0
ENDSEC
  0
SECTION
  2
BLOCKS
  0
BLOCK
  5
20
330
1F
100
AcDbEntity
  8
0
100
AcDbBlockBegin
  2
*Model_Space
 70
    0
 10
0
 20
0
 30
0
  3
*Model_Space
  1

  0
ENDBLK
  5
21
330
1F
100
AcDbEntity
  8
0
100
AcDbBlockEnd
  0
BLOCK
  5
1C
330
1B
100
AcDbEntity
  8
0
100
AcDbBlockBegin
  2
*Paper_Space
 70
    0
 10
0
 20
0
 30
0
  3
*Paper_Space
  1

  0
ENDBLK
  5
1D
330
1F
100
AcDbEntity
  8
0
100
AcDbBlockEnd
  0
ENDSEC
  0
SECTION
  2
ENTITIES
  0
LINE
  5
4D
100
AcDbEntity
  8
0
  6
ByLayer
 62
  256
370
   -1
100
AcDbLine
 10
0
 20
39.51219512195122
 11
43.5
 21
39.51219512195122
  0
LINE
  5
4E
100
AcDbEntity
  8
0
  6
ByLayer
 62
  256
370
   -1
100
AcDbLine
 10
0
 20
0.5
 11
43.5
 21
0.5
  0
LINE
  5
4F
100
AcDbEntity
  8
0
  6
ByLayer
 62
  256
370
   -1
100
AcDbLine
 10
0
 20
0.5
 11
0
 21
39.5
  0
LINE
  5
50
100
AcDbEntity
  8
0
  6
ByLayer
 62
  256
370
   -1
100
AcDbLine
 10
0
 20
39.00866996951221
 11
43.5
 21
39.00866996951221
  0
LINE
  5
51
100
AcDbEntity
  8
0
  6
ByLayer
 62
  256
370
   -1
100
AcDbLine
 10
43.48125839460323
 20
39.00569061152211
 11
43.48125839460323
 21
27.00569061152211
  0
LINE
  5
52
100
AcDbEntity
  8
0
  6
ByLayer
 62
  256
370
   -1
100
AcDbLine
 10
41.5
 20
39
 11
41.5
 21
27
  0
LINE
  5
53
100
AcDbEntity
  8
0
  6
ByLayer
 62
  256
370
   -1
100
AcDbLine
 10
39.5
 20
39
 11
39.5
 21
27
  0
LINE
  5
54
100
AcDbEntity
  8
0
  6
ByLayer
 62
  256
370
   -1
100
AcDbLine
 10
37.5
 20
39
 11
37.5
 21
27
  0
LINE
  5
55
100
AcDbEntity
  8
0
  6
ByLayer
 62
  256
370
   -1
100
AcDbLine
 10
35.5
 20
39
 11
35.5
 21
27
  0
LINE
  5
56
100
AcDbEntity
  8
0
  6
ByLayer
 62
  256
370
   -1
100
AcDbLine
 10
33.5
 20
39
 11
33.5
 21
27
  0
LINE
  5
57
100
AcDbEntity
  8
0
  6
ByLayer
 62
  256
370
   -1
100
AcDbLine
 10
31.5
 20
39
 11
31.5
 21
27
  0
LINE
  5
58
100
AcDbEntity
  8
0
  6
ByLayer
 62
  256
370
   -1
100
AcDbLine
 10
29.5
 20
39
 11
29.5
 21
27
  0
LINE
  5
59
100
AcDbEntity
  8
0
  6
ByLayer
 62
  256
370
   -1
100
AcDbLine
 10
27.5
 20
39
 11
27.5
 21
27
  0
LINE
  5
5A
100
AcDbEntity
  8
0
  6
ByLayer
 62
  256
370
   -1
100
AcDbLine
 10
25.5
 20
39
 11
25.5
 21
27
  0
LINE
  5
5B
100
AcDbEntity
  8
0
  6
ByLayer
 62
  256
370
   -1
100
AcDbLine
 10
23.5
 20
39
 11
23.5
 21
27
  0
LINE
  5
5C
100
AcDbEntity
  8
0
  6
ByLayer
 62
  256
370
   -1
100
AcDbLine
 10
21.5
 20
39
 11
21.5
 21
27
  0
LINE
  5
5D
100
AcDbEntity
  8
0
  6
ByLayer
 62
  256
370
   -1
100
AcDbLine
 10
19.5
 20
39
 11
19.5
 21
27
  0
LINE
  5
5E
100
AcDbEntity
  8
0
  6
ByLayer
 62
  256
370
   -1
100
AcDbLine
 10
17.5
 20
39
 11
17.5
 21
27
  0
LINE
  5
5F
100
AcDbEntity
  8
0
  6
ByLayer
 62
  256
370
   -1
100
AcDbLine
 10
15.5
 20
39
 11
15.5
 21
27
  0
LINE
  5
60
100
AcDbEntity
  8
0
  6
ByLayer
 62
  256
370
   -1
100
AcDbLine
 10
13.5
 20
39
 11
13.5
 21
27
  0
LINE
  5
61
100
AcDbEntity
  8
0
  6
ByLayer
 62
  256
370
   -1
100
AcDbLine
 10
11.5
 20
39
 11
11.5
 21
27
  0
LINE
  5
62
100
AcDbEntity
  8
0
  6
ByLayer
 62
  256
370
   -1
100
AcDbLine
 10
9.5
 20
39
 11
9.5
 21
27
  0
LINE
  5
63
100
AcDbEntity
  8
0
  6
ByLayer
 62
  256
370
   -1
100
AcDbLine
 10
7.5
 20
39
 11
7.499999999999999
 21
27
  0
LINE
  5
64
100
AcDbEntity
  8
0
  6
ByLayer
 62
  256
370
   -1
100
AcDbLine
 10
5.5
 20
39
 11
5.499999999999999
 21
27
  0
LINE
  5
65
100
AcDbEntity
  8
0
  6
ByLayer
 62
  256
370
   -1
100
AcDbLine
 10
3.5
 20
39
 11
3.499999999999999
 21
27
  0
LINE
  5
66
100
AcDbEntity
  8
0
  6
ByLayer
 62
  256
370
   -1
100
AcDbLine
 10
1.5
 20
39
 11
1.499999999999999
 21
27
  0
LINE
  5
67
100
AcDbEntity
  8
0
  6
ByLayer
 62
  256
370
   -1
100
AcDbLine
 10
43.5
 20
1
 11
43.5
 21
13
  0
LINE
  5
68
100
AcDbEntity
  8
0
  6
ByLayer
 62
  256
370
   -1
100
AcDbLine
 10
41.5
 20
1
 11
41.5
 21
13
  0
LINE
  5
69
100
AcDbEntity
  8
0
  6
ByLayer
 62
  256
370
   -1
100
AcDbLine
 10
39.5
 20
1
 11
39.5
 21
13
  0
LINE
  5
6A
100
AcDbEntity
  8
0
  6
ByLayer
 62
  256
370
   -1
100
AcDbLine
 10
37.5
 20
1
 11
37.5
 21
13
  0
LINE
  5
6B
100
AcDbEntity
  8
0
  6
ByLayer
 62
  256
370
   -1
100
AcDbLine
 10
35.5
 20
1
 11
35.5
 21
13
  0
LINE
  5
6C
100
AcDbEntity
  8
0
  6
ByLayer
 62
  256
370
   -1
100
AcDbLine
 10
33.5
 20
1
 11
33.5
 21
13
  0
LINE
  5
6D
100
AcDbEntity
  8
0
  6
ByLayer
 62
  256
370
   -1
100
AcDbLine
 10
31.5
 20
1
 11
31.5
 21
13
  0
LINE
  5
6E
100
AcDbEntity
  8
0
  6
ByLayer
 62
  256
370
   -1
100
AcDbLine
 10
29.5
 20
1
 11
29.5
 21
13
  0
LINE
  5
6F
100
AcDbEntity
  8
0
  6
ByLayer
 62
  256
370
   -1
100
AcDbLine
 10
27.5
 20
1
 11
27.5
 21
13
  0
LINE
  5
70
100
AcDbEntity
  8
0
  6
ByLayer
 62
  256
370
   -1
100
AcDbLine
 10
25.5
 20
1
 11
25.5
 21
13
  0
LINE
  5
71
100
AcDbEntity
  8
0
  6
ByLayer
 62
  256
370
   -1
100
AcDbLine
 10
23.5
 20
1
 11
23.5
 21
13
  0
LINE
  5
72
100
AcDbEntity
  8
0
  6
ByLayer
 62
  256
370
   -1
100
AcDbLine
 10
21.5
 20
1
 11
21.5
 21
13
  0
LINE
  5
73
100
AcDbEntity
  8
0
  6
ByLayer
 62
  256
370
   -1
100
AcDbLine
 10
19.5
 20
1
 11
19.5
 21
13
  0
LINE
  5
74
100
AcDbEntity
  8
0
  6
ByLayer
 62
  256
370
   -1
100
AcDbLine
 10
17.5
 20
1
 11
17.5
 21
13
  0
LINE
  5
75
100
AcDbEntity
  8
0
  6
ByLayer
 62
  256
370
   -1
100
AcDbLine
 10
15.5
 20
1
 11
15.5
 21
13
  0
LINE
  5
76
100
AcDbEntity
  8
0
  6
ByLayer
 62
  256
370
   -1
100
AcDbLine
 10
13.5
 20
1
 11
13.5
 21
13
  0
LINE
  5
77
100
AcDbEntity
  8
0
  6
ByLayer
 62
  256
370
   -1
100
AcDbLine
 10
11.5
 20
1
 11
11.5
 21
13
  0
LINE
  5
78
100
AcDbEntity
  8
0
  6
ByLayer
 62
  256
370
   -1
100
AcDbLine
 10
9.5
 20
1
 11
9.5
 21
13
  0
LINE
  5
79
100
AcDbEntity
  8
0
  6
ByLayer
 62
  256
370
   -1
100
AcDbLine
 10
7.5
 20
1
 11
7.500000000000001
 21
13
  0
LINE
  5
7A
100
AcDbEntity
  8
0
  6
ByLayer
 62
  256
370
   -1
100
AcDbLine
 10
5.5
 20
1
 11
5.500000000000001
 21
13
  0
LINE
  5
7B
100
AcDbEntity
  8
0
  6
ByLayer
 62
  256
370
   -1
100
AcDbLine
 10
3.5
 20
1
 11
3.500000000000001
 21
13
  0
LINE
  5
7C
100
AcDbEntity
  8
0
  6
ByLayer
 62
  256
370
   -1
100
AcDbLine
 10
1.5
 20
1
 11
1.500000000000001
 21
13
  0
LINE
  5
7D
100
AcDbEntity
  8
0
  6
ByLayer
 62
  256
370
   -1
100
AcDbLine
 10
0
 20
1
 11
43.5
 21
1
  0
LINE
  5
7E
100
AcDbEntity
  8
0
  6
ByLayer
 62
  256
370
   -1
100
AcDbLine
 10
0
 20
13
 11
43.5
 21
13
  0
LINE
  5
7F
100
AcDbEntity
  8
0
  6
ByLayer
 62
  256
370
   -1
100
AcDbLine
 10
0
 20
13.5
 11
43.5
 21
13.5
  0
LINE
  5
80
100
AcDbEntity
  8
0
  6
ByLayer
 62
  256
370
   -1
100
AcDbLine
 10
0
 20
27
 11
43.5
 21
27
  0
LINE
  5
81
100
AcDbEntity
  8
0
  6
ByLayer
 62
  256
370
   -1
100
AcDbLine
 10
0
 20
26.5
 11
43.5
 21
26.5
  0
LINE
  5
82
100
AcDbEntity
  8
0
  6
ByLayer
 62
  256
370
   -1
100
AcDbLine
 10
43.5
 20
13.5
 11
43.5
 21
26.5
  0
LINE
  5
83
100
AcDbEntity
  8
0
  6
ByLayer
 62
  256
370
   -1
100
AcDbLine
 10
41.5
 20
13.5
 11
41.5
 21
26.5
  0
LINE
  5
84
100
AcDbEntity
  8
0
  6
ByLayer
 62
  256
370
   -1
100
AcDbLine
 10
39.5
 20
13.5
 11
39.5
 21
26.5
  0
LINE
  5
85
100
AcDbEntity
  8
0
  6
ByLayer
 62
  256
370
   -1
100
AcDbLine
 10
37.5
 20
13.5
 11
37.5
 21
26.5
  0
LINE
  5
86
100
AcDbEntity
  8
0
  6
ByLayer
 62
  256
370
   -1
100
AcDbLine
 10
35.5
 20
13.5
 11
35.5
 21
26.5
  0
LINE
  5
87
100
AcDbEntity
  8
0
  6
ByLayer
 62
  256
370
   -1
100
AcDbLine
 10
33.5
 20
13.5
 11
33.5
 21
26.5
  0
LINE
  5
88
100
AcDbEntity
  8
0
  6
ByLayer
 62
  256
370
   -1
100
AcDbLine
 10
31.5
 20
13.5
 11
31.5
 21
26.5
  0
LINE
  5
89
100
AcDbEntity
  8
0
  6
ByLayer
 62
  256
370
   -1
100
AcDbLine
 10
29.5
 20
13.5
 11
29.5
 21
26.5
  0
LINE
  5
8A
100
AcDbEntity
  8
0
  6
ByLayer
 62
  256
370
   -1
100
AcDbLine
 10
27.5
 20
13.5
 11
27.5
 21
26.5
  0
LINE
  5
8B
100
AcDbEntity
  8
0
  6
ByLayer
 62
  256
370
   -1
100
AcDbLine
 10
25.5
 20
13.5
 11
25.5
 21
26.5
  0
LINE
  5
8C
100
AcDbEntity
  8
0
  6
ByLayer
 62
  256
370
   -1
100
AcDbLine
 10
23.5
 20
13.5
 11
23.5
 21
26.5
  0
LINE
  5
8D
100
AcDbEntity
  8
0
  6
ByLayer
 62
  256
370
   -1
100
AcDbLine
 10
21.5
 20
13.5
 11
21.5
 21
26.5
  0
LINE
  5
8E
100
AcDbEntity
  8
0
  6
ByLayer
 62
  256
370
   -1
100
AcDbLine
 10
19.5
 20
13.5
 11
19.5
 21
26.5
  0
LINE
  5
8F
100
AcDbEntity
  8
0
  6
ByLayer
 62
  256
370
   -1
100
AcDbLine
 10
17.5
 20
13.5
 11
17.5
 21
26.5
  0
LINE
  5
90
100
AcDbEntity
  8
0
  6
ByLayer
 62
  256
370
   -1
100
AcDbLine
 10
15.5
 20
13.5
 11
15.5
 21
26.5
  0
LINE
  5
91
100
AcDbEntity
  8
0
  6
ByLayer
 62
  256
370
   -1
100
AcDbLine
 10
13.5
 20
13.5
 11
13.5
 21
26.5
  0
LINE
  5
92
100
AcDbEntity
  8
0
  6
ByLayer
 62
  256
370
   -1
100
AcDbLine
 10
11.5
 20
13.5
 11
11.5
 21
26.5
  0
LINE
  5
93
100
AcDbEntity
  8
0
  6
ByLayer
 62
  256
370
   -1
100
AcDbLine
 10
9.5
 20
13.5
 11
9.5
 21
26.5
  0
LINE
  5
94
100
AcDbEntity
  8
0
  6
ByLayer
 62
  256
370
   -1
100
AcDbLine
 10
7.5
 20
13.5
 11
7.500000000000001
 21
26.5
  0
LINE
  5
95
100
AcDbEntity
  8
0
  6
ByLayer
 62
  256
370
   -1
100
AcDbLine
 10
5.5
 20
13.5
 11
5.500000000000001
 21
26.5
  0
LINE
  5
96
100
AcDbEntity
  8
0
  6
ByLayer
 62
  256
370
   -1
100
AcDbLine
 10
3.5
 20
13.5
 11
3.500000000000001
 21
26.5
  0
LINE
  5
97
100
AcDbEntity
  8
0
  6
ByLayer
 62
  256
370
   -1
100
AcDbLine
 10
1.5
 20
13.5
 11
1.500000000000001
 21
26.5
  0
LWPOLYLINE
  5
98
100
AcDbEntity
  8
0
  6
ByLayer
 62
  256
370
   -1
100
AcDbPolyline
 90
    4
 70
    1
 43
0
 10
0
 20
0.5
 10
0.5
 20
0.5
 10
0.5
 20
1
 10
0
 20
1
  0
LWPOLYLINE
  5
99
100
AcDbEntity
  8
0
  6
ByLayer
 62
  256
370
   -1
100
AcDbPolyline
 90
    4
 70
    1
 43
0
 10
12.5
 20
0.5
 10
12.3
 20
0.5
 10
12.3
 20
1
 10
12.5
 20
1
  0
LWPOLYLINE
  5
9A
100
AcDbEntity
  8
0
  6
ByLayer
 62
  256
370
   -1
100
AcDbPolyline
 90
    4
 70
    1
 43
0
 10
43.5
 20
0.5
 10
43.2
 20
0.5
 10
43.2
 20
1
 10
43.5
 20
1
  0
LWPOLYLINE
  5
9B
100
AcDbEntity
  8
0
  6
ByLayer
 62
  256
370
   -1
100
AcDbPolyline
 90
    4
 70
    1
 43
0
 10
43.5
 20
13
 10
43.2
 20
13
 10
43.2
 20
13.5
 10
43.5
 20
13.5
  0
LWPOLYLINE
  5
9C
100
AcDbEntity
  8
0
  6
ByLayer
 62
  256
370
   -1
100
AcDbPolyline
 90
    4
 70
    1
 43
0
 10
43.5
 20
26.5
 10
43.2
 20
26.5
 10
43.2
 20
27
 10
43.5
 20
27
  0
LWPOLYLINE
  5
9D
100
AcDbEntity
  8
0
  6
ByLayer
 62
  256
370
   -1
100
AcDbPolyline
 90
    4
 70
    1
 43
0
 10
43.5
 20
39
 10
43.2
 20
39
 10
43.2
 20
39.5
 10
43.5
 20
39.5
  0
LWPOLYLINE
  5
9E
100
AcDbEntity
  8
0
  6
ByLayer
 62
  256
370
   -1
100
AcDbPolyline
 90
    4
 70
    1
 43
0
 10
20.5
 20
0.5
 10
20.8
 20
0.5
 10
20.8
 20
1
 10
20.5
 20
1
  0
LWPOLYLINE
  5
9F
100
AcDbEntity
  8
0
  6
ByLayer
 62
  256
370
   -1
100
AcDbPolyline
 90
    4
 70
    1
 43
0
 10
20.5
 20
13
 10
20.8
 20
13
 10
20.8
 20
13.5
 10
20.5
 20
13.5
  0
LWPOLYLINE
  5
A0
100
AcDbEntity
  8
0
  6
ByLayer
 62
  256
370
   -1
100
AcDbPolyline
 90
    4
 70
    1
 43
0
 10
20.5
 20
26.5
 10
20.8
 20
26.5
 10
20.8
 20
27
 10
20.5
 20
27
  0
LWPOLYLINE
  5
A1
100
AcDbEntity
  8
0
  6
ByLayer
 62
  256
370
   -1
100
AcDbPolyline
 90
    4
 70
    1
 43
0
 10
20.5
 20
39
 10
20.8
 20
39
 10
20.8
 20
39.5
 10
20.5
 20
39.5
  0
LWPOLYLINE
  5
A2
100
AcDbEntity
  8
0
  6
ByLayer
 62
  256
370
   -1
100
AcDbPolyline
 90
    4
 70
    1
 43
0
 10
0
 20
13
 10
0.5
 20
13
 10
0.5
 20
13.5
 10
0
 20
13.5
  0
LWPOLYLINE
  5
A3
100
AcDbEntity
  8
0
  6
ByLayer
 62
  256
370
   -1
100
AcDbPolyline
 90
    4
 70
    1
 43
0
 10
0
 20
26.5
 10
0.5
 20
26.5
 10
0.5
 20
27
 10
0
 20
27
  0
LWPOLYLINE
  5
A4
100
AcDbEntity
  8
0
  6
ByLayer
 62
  256
370
   -1
100
AcDbPolyline
 90
    4
 70
    1
 43
0
 10
0
 20
39
 10
0.5
 20
39
 10
0.5
 20
39.5
 10
0
 20
39.5
  0
LWPOLYLINE
  5
A5
100
AcDbEntity
  8
0
  6
ByLayer
 62
  256
370
   -1
100
AcDbPolyline
 90
    4
 70
    1
 43
0
 10
12.5
 20
13
 10
12.2
 20
13
 10
12.2
 20
13.5
 10
12.5
 20
13.5
  0
LWPOLYLINE
  5
A6
100
AcDbEntity
  8
0
  6
ByLayer
 62
  256
370
   -1
100
AcDbPolyline
 90
    4
 70
    1
 43
0
 10
12.5
 20
26.5
 10
12.2
 20
26.5
 10
12.2
 20
27
 10
12.5
 20
27
  0
LWPOLYLINE
  5
A7
100
AcDbEntity
  8
0
  6
ByLayer
 62
  256
370
   -1
100
AcDbPolyline
 90
    4
 70
    1
 43
0
 10
12.5
 20
39
 10
12.2
 20
39
 10
12.2
 20
39.5
 10
12.5
 20
39.5
  0
MTEXT
  5
A8
100
AcDbEntity
  8
0
  6
ByLayer
 62
  256
370
   -1
100
AcDbMText
 10
22.22346245953323
 20
9.969403720164438
 30
0
 40
1
 41
6.861111625398309
 71
    1
 72
    1
  1
roof slope
  7
STANDARD
210
0
220
0
230
1
 50
0
 73
    2
 44
1
  0
LINE
  5
A9
100
AcDbEntity
  8
0
  6
ByLayer
 62
  256
370
   -1
100
AcDbLine
 10
27.9351000075441
 20
7.892444611796847
 11
24.71581338957434
 21
7.892444611796847
  0
LINE
  5
AA
100
AcDbEntity
  8
0
  6
ByLayer
 62
  256
370
   -1
100
AcDbLine
 10
24.71581338957434
 20
7.892444611796847
 11
26.06583681001327
 21
8.463608366597935
  0
LINE
  5
AB
100
AcDbEntity
  8
0
  6
ByLayer
 62
  256
370
   -1
100
AcDbLine
 10
26.06583681001327
 20
8.463608366597935
 11
24.81966134499272
 21
7.840520634087658
  0
LINE
  5
AC
100
AcDbEntity
  8
0
  6
ByLayer
 62
  256
370
   -1
100
AcDbLine
 10
24.81966134499272
 20
7.840520634087658
 11
25.96198885459489
 21
7.113584946159
  0
MTEXT
  5
AD
100
AcDbEntity
  8
0
  6
ByLayer
 62
  256
370
   -1
100
AcDbMText
 10
16.14835706755802
 20
5.088549815500599
 30
0
 40
0.5
 41
7.638889146032565
 71
    1
 72
    1
  1
2x6 rafters at 24" oc
  7
STANDARD
210
0
220
0
230
1
 50
0
 73
    2
 44
1
  0
MTEXT
  5
AE
100
AcDbEntity
  8
0
  6
ByLayer
 62
  256
370
   -1
100
AcDbMText
 10
17.13491264403263
 20
14.17524591460881
 30
0
 40
0.5
 41
7.638889146032565
 71
    1
 72
    1
  1
2x6 rafters at 24" oc
  7
STANDARD
210
0
220
0
230
1
 50
0
 73
    2
 44
1
  0
MTEXT
  5
AF
100
AcDbEntity
  8
0
  6
ByLayer
 62
  256
370
   -1
100
AcDbMText
 10
21.340754838477
 20
37.28141599519827
 30
0
 40
0.5
 41
7.638889146032565
 71
    1
 72
    1
  1
2x6 rafters at 24" oc
  7
STANDARD
210
0
220
0
230
1
 50
0
 73
    2
 44
1
  0
MTEXT
  5
B0
100
AcDbEntity
  8
0
  6
ByLayer
 62
  256
370
   -1
100
AcDbMText
 10
22.63885428120675
 20
40.60455056858641
 30
0
 40
0.5
 41
11.98611162539856
 71
    1
 72
    1
  1
2x14 beam spaced 5.5 inches apart
  7
STANDARD
210
0
220
0
230
1
 50
0
 73
    2
 44
1
  0
MTEXT
  5
B1
100
AcDbEntity
  8
0
  6
ByLayer
 62
  256
370
   -1
100
AcDbMText
 10
27.77932807441654
 20
25.85814089917651
 30
0
 40
0.5
 41
12.37500077143105
 71
    1
 72
    1
  1
2x14 beams spaced 5.5 inches apart
  7
STANDARD
210
0
220
0
230
1
 50
0
 73
    2
 44
1
  0
MTEXT
  5
B2
100
AcDbEntity
  8
0
  6
ByLayer
 62
  256
370
   -1
100
AcDbMText
 10
28.76588365089114
 20
14.7464096694099
 30
0
 40
0.5
 41
12.37500077143105
 71
    1
 72
    1
  1
2x14 beams spaced 5.5 inches apart
  7
STANDARD
210
0
220
0
230
1
 50
0
 73
    2
 44
1
  0
MTEXT
  5
B3
100
AcDbEntity
  8
0
  6
ByLayer
 62
  256
370
   -1
100
AcDbMText
 10
29.33704740569223
 20
2.648122863168679
 30
0
 40
0.5
 41
12.37500077143105
 71
    1
 72
    1
  1
2x14 beams spaced 5.5 inches apart
  7
STANDARD
210
0
220
0
230
1
 50
0
 73
    2
 44
1
  0
MTEXT
  5
B4
100
AcDbEntity
  8
0
  6
ByLayer
 62
  256
370
   -1
100
AcDbMText
 10
32.45248606824362
 20
47.7700594924546
 30
0
 40
0.5
 41
6.069444444444499
 71
    1
 72
    1
  1
1 roof pitch 2:12.5
  7
STANDARD
210
0
220
0
230
1
 50
0
 73
    2
 44
1
  0
MTEXT
  5
B5
100
AcDbEntity
  8
0
  6
ByLayer
 62
  256
370
   -1
100
AcDbMText
 10
0.2076959108367591
 20
44.03153309739294
 30
0
 40
0.5
 41
9.375000257143748
 71
    1
 72
    1
  1
4 x 6 treated fascia board
  7
STANDARD
210
0
220
0
230
1
 50
0
 73
    2
 44
1
  0
LINE
  5
B6
100
AcDbEntity
  8
0
  6
ByLayer
 62
  256
370
   -1
100
AcDbLine
 10
0.1557719331275693
 20
42.681509676954
 11
0.1557719331275693
 21
40.81224647942317
  0
LINE
  5
B7
100
AcDbEntity
  8
0
  6
ByLayer
 62
  256
370
   -1
100
AcDbLine
 10
0.1557719331275693
 20
40.81224647942317
 11
0.6230877325102774
 21
41.59110614506102
  0
LINE
  5
B8
100
AcDbEntity
  8
0
  6
ByLayer
 62
  256
370
   -1
100
AcDbLine
 10
-0.4673157993827081
 20
41.6949541004794
 11
-0.5711637548010876
 21
41.6949541004794
  0
LINE
  5
B9
100
AcDbEntity
  8
0
  6
ByLayer
 62
  256
370
   -1
100
AcDbLine
 10
-0.5711637548010876
 20
41.6949541004794
 11
0
 21
40.81224647942317
  0
LINE
  5
BA
100
AcDbEntity
  8
0
  6
ByLayer
 62
  256
370
   -1
100
AcDbLine
 10
4.912705465226682
 20
48.0551916416719
 11
5.912705465226682
 21
48.0551916416719
  0
LINE
  5
BB
100
AcDbEntity
  8
0
  6
ByLayer
 62
  256
370
   -1
100
AcDbLine
 10
5.908907752097354
 20
47.82817185283913
 11
5.918346901861088
 21
48.26237274197088
  0
LINE
  5
BC
100
AcDbEntity
  8
0
  6
ByLayer
 62
  256
370
   -1
100
AcDbLine
 10
4.908357877141572
 20
47.77153695425672
 11
4.908357877141572
 21
48.28125104149835
  0
MTEXT
  5
BD
100
AcDbEntity
  8
0
  6
ByLayer
 62
  256
370
   -1
100
AcDbMText
 10
3.898368852422057
 20
49.34787496480027
 30
0
 40
1
 41
5.638888888888935
 71
    1
 72
    1
  1
one foot
  7
STANDARD
210
0
220
0
230
1
 50
0
 73
    2
 44
1
  0
LINE
  5
BE
100
AcDbEntity
  8
0
  6
ByLayer
 62
  256
370
   -1
100
AcDbLine
 10
19.36043824824403
 20
46.66362039320355
 11
13.80051752054318
 21
46.7629046919125
  0
LINE
  5
BF
100
AcDbEntity
  8
0
  6
ByLayer
 62
  256
370
   -1
100
AcDbLine
 10
13.80051752054318
 20
46.7629046919125
 11
15.68691919601311
 21
47.4578947828751
  0
LINE
  5
C0
100
AcDbEntity
  8
0
  6
ByLayer
 62
  256
370
   -1
100
AcDbLine
 10
15.19049770246839
 20
45.77006170482306
 11
14.09837041667001
 21
46.56433609449461
  0
MTEXT
  5
C1
100
AcDbEntity
  8
0
  6
ByLayer
 62
  256
370
   -1
100
AcDbMText
 10
17.97045806631881
 20
49.04644356221819
 30
0
 40
0.5
 41
1.666666666666713
 71
    1
 72
    1
  1
north\P
  7
STANDARD
210
0
220
0
230
1
 50
0
 73
    2
 44
1
  0
LINE
  5
C2
100
AcDbEntity
  8
0
  6
ByLayer
 62
  256
370
   -1
100
AcDbLine
 10
60
 20
0.5
 11
66.5
 21
0.5
  0
LINE
  5
C3
100
AcDbEntity
  8
0
  6
ByLayer
 62
  256
370
   -1
100
AcDbLine
 10
60
 20
0.5
 11
60
 21
1
  0
LINE
  5
C4
100
AcDbEntity
  8
0
  6
ByLayer
 62
  256
370
   -1
100
AcDbLine
 10
60
 20
0.5
 11
60.3
 21
0.5
  0
LINE
  5
C5
100
AcDbEntity
  8
0
  6
ByLayer
 62
  256
370
   -1
100
AcDbLine
 10
60
 20
1
 11
60
 21
13
  0
LINE
  5
C6
100
AcDbEntity
  8
0
  6
ByLayer
 62
  256
370
   -1
100
AcDbLine
 10
60
 20
13
 11
66.5
 21
13
  0
LINE
  5
C7
100
AcDbEntity
  8
0
  6
ByLayer
 62
  256
370
   -1
100
AcDbLine
 10
60
 20
13
 11
60
 21
13.5
  0
LINE
  5
C8
100
AcDbEntity
  8
0
  6
ByLayer
 62
  256
370
   -1
100
AcDbLine
 10
60
 20
13.5
 11
60.3
 21
13.5
  0
LINE
  5
C9
100
AcDbEntity
  8
0
  6
ByLayer
 62
  256
370
   -1
100
AcDbLine
 10
66.5
 20
13.5
 11
60
 21
13.5
  0
LINE
  5
CA
100
AcDbEntity
  8
0
  6
ByLayer
 62
  256
370
   -1
100
AcDbLine
 10
60
 20
1
 11
66.5
 21
1
  0
LINE
  5
CB
100
AcDbEntity
  8
0
  6
ByLayer
 62
  256
370
   -1
100
AcDbLine
 10
66.34999999999999
 20
0.5
 11
66.34999999999999
 21
1
  0
LINE
  5
CC
100
AcDbEntity
  8
0
  6
ByLayer
 62
  256
370
   -1
100
AcDbLine
 10
66.5
 20
0
 11
66.5
 21
0.4
  0
LINE
  5
CD
100
AcDbEntity
  8
0
  6
ByLayer
 62
  256
370
   -1
100
AcDbLine
 10
66.5
 20
0.4
 11
66.3
 21
0.2
  0
LINE
  5
CE
100
AcDbEntity
  8
0
  6
ByLayer
 62
  256
370
   -1
100
AcDbLine
 10
66.5
 20
0.4
 11
66.5
 21
0.2
  0
LINE
  5
CF
100
AcDbEntity
  8
0
  6
ByLayer
 62
  256
370
   -1
100
AcDbLine
 10
66.5
 20
0.2
 11
66.5
 21
0.4
  0
LINE
  5
D0
100
AcDbEntity
  8
0
  6
ByLayer
 62
  256
370
   -1
100
AcDbLine
 10
66.7
 20
0.2
 11
66.5
 21
0.4
  0
MTEXT
  5
D1
100
AcDbEntity
  8
0
  6
ByLayer
 62
  256
370
   -1
100
AcDbMText
 10
64.87959864058266
 20
0.43479299513957
 30
0
 40
0.5
 41
1.388888888888912
 71
    1
 72
    1
  1
peak
  7
STANDARD
210
0
220
0
230
1
 50
0
 73
    2
 44
1
  0
LINE
  5
D2
100
AcDbEntity
  8
0
  6
ByLayer
 62
  256
370
   -1
100
AcDbLine
 10
66.5
 20
41
 11
66.5
 21
40.6
  0
LINE
  5
D3
100
AcDbEntity
  8
0
  6
ByLayer
 62
  256
370
   -1
100
AcDbLine
 10
66.5
 20
40.6
 11
66.7
 21
40.8
  0
LINE
  5
D4
100
AcDbEntity
  8
0
  6
ByLayer
 62
  256
370
   -1
100
AcDbLine
 10
66.7
 20
40.8
 11
66.5
 21
40.6
  0
LINE
  5
D5
100
AcDbEntity
  8
0
  6
ByLayer
 62
  256
370
   -1
100
AcDbLine
 10
66.5
 20
40.6
 11
66.3
 21
40.8
  0
MTEXT
  5
D6
100
AcDbEntity
  8
0
  6
ByLayer
 62
  256
370
   -1
100
AcDbMText
 10
65.86266717785799
 20
41.73709238010596
 30
0
 40
0.5
 41
1.388888888888912
 71
    1
 72
    1
  1
peak
  7
STANDARD
210
0
220
0
230
1
 50
0
 73
    2
 44
1
  0
LINE
  5
D7
100
AcDbEntity
  8
0
  6
ByLayer
 62
  256
370
   -1
100
AcDbLine
 10
60
 20
0.5
 11
60
 21
39.5
  0
LINE
  5
D8
100
AcDbEntity
  8
0
  6
ByLayer
 62
  256
370
   -1
100
AcDbLine
 10
60
 20
39.5
 11
66.5
 21
39.5
  0
LINE
  5
D9
100
AcDbEntity
  8
0
  6
ByLayer
 62
  256
370
   -1
100
AcDbLine
 10
60
 20
39
 11
66.5
 21
39
  0
LINE
  5
DA
100
AcDbEntity
  8
0
  6
ByLayer
 62
  256
370
   -1
100
AcDbLine
 10
66.5
 20
0.5
 11
73
 21
0.5
  0
LINE
  5
DB
100
AcDbEntity
  8
0
  6
ByLayer
 62
  256
370
   -1
100
AcDbLine
 10
73
 20
39.5
 11
73
 21
0.5
  0
LINE
  5
DC
100
AcDbEntity
  8
0
  6
ByLayer
 62
  256
370
   -1
100
AcDbLine
 10
73
 20
0.5
 11
73
 21
1
  0
LINE
  5
DD
100
AcDbEntity
  8
0
  6
ByLayer
 62
  256
370
   -1
100
AcDbLine
 10
73
 20
1
 11
66.5
 21
1
  0
LINE
  5
DE
100
AcDbEntity
  8
0
  6
ByLayer
 62
  256
370
   -1
100
AcDbLine
 10
66.34999999999999
 20
0.5
 11
66.34999999999999
 21
1
  0
LINE
  5
DF
100
AcDbEntity
  8
0
  6
ByLayer
 62
  256
370
   -1
100
AcDbLine
 10
66.65000000000001
 20
1
 11
66.65000000000001
 21
0.5
  0
LWPOLYLINE
  5
E0
100
AcDbEntity
  8
0
  6
ByLayer
 62
  256
370
   -1
100
AcDbPolyline
 90
    4
 70
    1
 43
0
 10
66.34999999999999
 20
13
 10
66.65000000000001
 20
13
 10
66.65000000000001
 20
13.5
 10
66.34999999999999
 20
13.5
  0
LWPOLYLINE
  5
E1
100
AcDbEntity
  8
0
  6
ByLayer
 62
  256
370
   -1
100
AcDbPolyline
 90
    4
 70
    1
 43
0
 10
60
 20
26.5
 10
73
 20
26.5
 10
73
 20
27
 10
60
 20
27
  0
LWPOLYLINE
  5
E2
100
AcDbEntity
  8
0
  6
ByLayer
 62
  256
370
   -1
100
AcDbPolyline
 90
    4
 70
    1
 43
0
 10
66.34999999999999
 20
26.5
 10
66.65000000000001
 20
26.5
 10
66.65000000000001
 20
27
 10
66.34999999999999
 20
27
  0
LWPOLYLINE
  5
E3
100
AcDbEntity
  8
0
  6
ByLayer
 62
  256
370
   -1
100
AcDbPolyline
 90
    4
 70
    1
 43
0
 10
66.65000000000001
 20
39.5
 10
66.34999999999999
 20
39.5
 10
66.34999999999999
 20
39
 10
66.65000000000001
 20
39
  0
LWPOLYLINE
  5
E4
100
AcDbEntity
  8
0
  6
ByLayer
 62
  256
370
   -1
100
AcDbPolyline
 90
    4
 70
    1
 43
0
 10
66.34999999999999
 20
39
 10
73
 20
39
 10
73
 20
39.5
 10
66.34999999999999
 20
39.5
  0
LINE
  5
E5
100
AcDbEntity
  8
0
  6
DASHED
 62
  256
370
   -1
100
AcDbLine
 10
43.54624704843742
 20
39.53266114573115
 11
50.85422137995463
 21
42.98944900413135
  0
LINE
  5
E6
100
AcDbEntity
  8
0
  6
DASHEDTINY
 62
  256
370
   -1
100
AcDbLine
 10
62.40778079930563
 20
39.5094612272184
 11
61.54938381433377
 21
39.60226090126941
  0
MTEXT
  5
E7
100
AcDbEntity
  8
0
  6
DASHEDTINY
 62
  256
370
   -1
100
AcDbMText
 10
48.85902838785787
 20
43.80144615207771
 30
0
 40
0.5
 41
4.430555555555603
 71
    1
 72
    1
  1
Overlap point
  7
STANDARD
210
0
220
0
230
1
 50
0
 73
    2
 44
1
  0
LINE
  5
E8
100
AcDbEntity
  8
0
  6
DASHEDTINY
 62
  256
370
   -1
100
AcDbLine
 10
43.49957533736689
 20
39.50656123740434
 11
44.0858717155632
 21
39.51689245111705
  0
LINE
  5
E9
100
AcDbEntity
  8
0
  6
DASHEDTINY
 62
  256
370
   -1
100
AcDbLine
 10
43.50215814079507
 20
39.50656123740434
 11
43.71653082533381
 21
39.8810677344901
  0
LINE
  5
EA
100
AcDbEntity
  8
0
  6
DASHED
 62
  256
370
   -1
100
AcDbLine
 10
50.85422137995463
 20
42.98944900413135
 11
62.49883748042326
 21
39.49979463505333
  0
LINE
  5
EB
100
AcDbEntity
  8
0
  6
DASHEDTINY
 62
  256
370
   -1
100
AcDbLine
 10
62.50159449826615
 20
39.49979463505333
 11
62.10182691104743
 21
40.15872189950352
  0
LINE
  5
EC
100
AcDbEntity
  8
0
  6
ByLayer
 62
  256
370
   -1
100
AcDbLine
 10
60
 20
13.5
 11
73
 21
13.5
  0
LINE
  5
ED
100
AcDbEntity
  8
0
  6
ByLayer
 62
  256
370
   -1
100
AcDbLine
 10
60
 20
13
 11
73
 21
13
  0
LWPOLYLINE
  5
EE
100
AcDbEntity
  8
0
  6
ByLayer
 62
  256
370
   -1
100
AcDbPolyline
 90
    4
 70
    1
 43
0
 10
62.5
 20
39
 10
62.8
 20
39
 10
62.8
 20
39.5
 10
62.5
 20
39.5
  0
LWPOLYLINE
  5
EF
100
AcDbEntity
  8
0
  6
DASHEDTINY
 62
  256
370
   -1
100
AcDbPolyline
 90
    4
 70
    1
 43
0
 10
70.5
 20
39.5
 10
70.2
 20
39.5
 10
70.2
 20
39
 10
70.5
 20
39
  0
LWPOLYLINE
  5
F0
100
AcDbEntity
  8
0
  6
ByLayer
 62
  256
370
   -1
100
AcDbPolyline
 90
    4
 70
    1
 43
0
 10
70.5
 20
26.5
 10
70.2
 20
26.5
 10
70.2
 20
27
 10
70.5
 20
27
  0
LWPOLYLINE
  5
F1
100
AcDbEntity
  8
0
  6
ByLayer
 62
  256
370
   -1
100
AcDbPolyline
 90
    4
 70
    1
 43
0
 10
62.5
 20
26.5
 10
62.8
 20
26.5
 10
62.8
 20
27
 10
62.5
 20
27
  0
LWPOLYLINE
  5
F2
100
AcDbEntity
  8
0
  6
ByLayer
 62
  256
370
   -1
100
AcDbPolyline
 90
    4
 70
    1
 43
0
 10
62.5
 20
13.5
 10
62.8
 20
13.5
 10
62.8
 20
13
 10
62.5
 20
13
  0
LWPOLYLINE
  5
F3
100
AcDbEntity
  8
0
  6
ByLayer
 62
  256
370
   -1
100
AcDbPolyline
 90
    4
 70
    1
 43
0
 10
70.5
 20
13.5
 10
70.2
 20
13.5
 10
70.2
 20
13
 10
70.5
 20
13
  0
LWPOLYLINE
  5
F4
100
AcDbEntity
  8
0
  6
ByLayer
 62
  256
370
   -1
100
AcDbPolyline
 90
    4
 70
    1
 43
0
 10
70.5
 20
0.5
 10
70.2
 20
0.5
 10
70.2
 20
1
 10
70.5
 20
1
  0
LWPOLYLINE
  5
F5
100
AcDbEntity
  8
0
  6
ByLayer
 62
  256
370
   -1
100
AcDbPolyline
 90
    4
 70
    1
 43
0
 10
62.5
 20
1
 10
62.8
 20
1
 10
62.8
 20
0.5
 10
62.5
 20
0.5
  0
LINE
  5
F6
100
AcDbEntity
  8
0
  6
DASHED
 62
  256
370
   -1
100
AcDbLine
 10
66.5
 20
40.2
 11
66.5
 21
0.2000000000000028
  0
LINE
  5
F7
100
AcDbEntity
  8
0
  6
ByLayer
 62
  256
370
   -1
100
AcDbLine
 10
60.5
 20
39
 11
60.5
 21
39.5
  0
LINE
  5
F8
100
AcDbEntity
  8
0
  6
ByLayer
 62
  256
370
   -1
100
AcDbLine
 10
62.083
 20
39
 11
62.083
 21
39.5
  0
LINE
  5
F9
100
AcDbEntity
  8
0
  6
ByLayer
 62
  256
370
   -1
100
AcDbLine
 10
63.833
 20
39
 11
63.833
 21
39.5
  0
LINE
  5
FA
100
AcDbEntity
  8
0
  6
ByLayer
 62
  256
370
   -1
100
AcDbLine
 10
65.166
 20
39
 11
65.166
 21
39.5
  0
LINE
  5
FB
100
AcDbEntity
  8
0
  6
ByLayer
 62
  256
370
   -1
100
AcDbLine
 10
67.833
 20
39
 11
67.833
 21
39.5
  0
LINE
  5
FC
100
AcDbEntity
  8
0
  6
ByLayer
 62
  256
370
   -1
100
AcDbLine
 10
69.166
 20
39
 11
69.166
 21
39.5
  0
LINE
  5
FD
100
AcDbEntity
  8
0
  6
ByLayer
 62
  256
370
   -1
100
AcDbLine
 10
70.916
 20
39
 11
70.916
 21
39.5
  0
LINE
  5
FE
100
AcDbEntity
  8
0
  6
ByLayer
 62
  256
370
   -1
100
AcDbLine
 10
72.5
 20
39
 11
72.5
 21
39.5
  0
LINE
  5
FF
100
AcDbEntity
  8
0
  6
ByLayer
 62
  256
370
   -1
100
AcDbLine
 10
59.95256051025439
 20
52.09065869109904
 11
66.45256051025439
 21
52.09065869109904
  0
LINE
  5
100
100
AcDbEntity
  8
0
  6
ByLayer
 62
  256
370
   -1
100
AcDbLine
 10
59.95256051025439
 20
51.59065869109904
 11
66.45256051025439
 21
51.59065869109904
  0
LWPOLYLINE
  5
101
100
AcDbEntity
  8
0
  6
ByLayer
 62
  256
370
   -1
100
AcDbPolyline
 90
    4
 70
    1
 43
0
 10
66.60256051025439
 20
52.09065869109904
 10
66.30256051025438
 20
52.09065869109904
 10
66.30256051025438
 20
51.59065869109904
 10
66.60256051025439
 20
51.59065869109904
  0
LWPOLYLINE
  5
102
100
AcDbEntity
  8
0
  6
ByLayer
 62
  256
370
   -1
100
AcDbPolyline
 90
    4
 70
    1
 43
0
 10
66.30256051025438
 20
51.59065869109904
 10
72.95256051025439
 20
51.59065869109904
 10
72.95256051025439
 20
52.09065869109904
 10
66.30256051025438
 20
52.09065869109904
  0
LWPOLYLINE
  5
103
100
AcDbEntity
  8
0
  6
ByLayer
 62
  256
370
   -1
100
AcDbPolyline
 90
    4
 70
    1
 43
0
 10
62.45256051025439
 20
51.59065869109904
 10
62.75256051025438
 20
51.59065869109904
 10
62.75256051025438
 20
52.09065869109904
 10
62.45256051025439
 20
52.09065869109904
  0
LWPOLYLINE
  5
104
100
AcDbEntity
  8
0
  6
DASHEDTINY
 62
  256
370
   -1
100
AcDbPolyline
 90
    4
 70
    1
 43
0
 10
70.45256051025439
 20
52.09065869109904
 10
70.15256051025439
 20
52.09065869109904
 10
70.15256051025439
 20
51.59065869109904
 10
70.45256051025439
 20
51.59065869109904
  0
LINE
  5
105
100
AcDbEntity
  8
0
  6
ByLayer
 62
  256
370
   -1
100
AcDbLine
 10
60.45256051025439
 20
51.59065869109904
 11
60.45256051025439
 21
52.09065869109904
  0
LINE
  5
106
100
AcDbEntity
  8
0
  6
ByLayer
 62
  256
370
   -1
100
AcDbLine
 10
62.03556051025438
 20
51.59065869109904
 11
62.03556051025438
 21
52.09065869109904
  0
LINE
  5
107
100
AcDbEntity
  8
0
  6
ByLayer
 62
  256
370
   -1
100
AcDbLine
 10
63.78556051025438
 20
51.59065869109904
 11
63.78556051025438
 21
52.09065869109904
  0
LINE
  5
108
100
AcDbEntity
  8
0
  6
ByLayer
 62
  256
370
   -1
100
AcDbLine
 10
65.11856051025438
 20
51.59065869109904
 11
65.11856051025438
 21
52.09065869109904
  0
LINE
  5
109
100
AcDbEntity
  8
0
  6
ByLayer
 62
  256
370
   -1
100
AcDbLine
 10
67.78556051025438
 20
51.59065869109904
 11
67.78556051025438
 21
52.09065869109904
  0
LINE
  5
10A
100
AcDbEntity
  8
0
  6
ByLayer
 62
  256
370
   -1
100
AcDbLine
 10
69.11856051025438
 20
51.59065869109904
 11
69.11856051025438
 21
52.09065869109904
  0
LINE
  5
10B
100
AcDbEntity
  8
0
  6
ByLayer
 62
  256
370
   -1
100
AcDbLine
 10
70.86856051025438
 20
51.59065869109904
 11
70.86856051025438
 21
52.09065869109904
  0
LINE
  5
10C
100
AcDbEntity
  8
0
  6
ByLayer
 62
  256
370
   -1
100
AcDbLine
 10
72.45256051025439
 20
51.59065869109904
 11
72.45256051025439
 21
52.09065869109904
  0
LINE
  5
10D
100
AcDbEntity
  8
0
  6
ByLayer
 62
  256
370
   -1
100
AcDbLine
 10
59.95204001688335
 20
51.59213943642423
 11
59.95204001688335
 21
52.09213943642423
  0
LINE
  5
10E
100
AcDbEntity
  8
0
  6
ByLayer
 62
  256
370
   -1
100
AcDbLine
 10
59.49560070755818
 20
52.39571829414562
 11
59.91977575928411
 21
52.12303433232181
  0
LINE
  5
10F
100
AcDbEntity
  8
0
  6
ByLayer
 62
  256
370
   -1
100
AcDbLine
 10
60.46514368293173
 20
52.19373017427613
 11
60.46514368293173
 21
52.87039037583892
  0
LINE
  5
110
100
AcDbEntity
  8
0
  6
ByLayer
 62
  256
370
   -1
100
AcDbLine
 10
62.04065101791375
 20
52.18363076828265
 11
62.04065101791375
 21
52.90068859381935
  0
LINE
  5
111
100
AcDbEntity
  8
0
  6
ByLayer
 62
  256
370
   -1
100
AcDbLine
 10
62.5759195355679
 20
52.80979393987808
 11
62.59611834755485
 21
52.22402839225656
  0
LINE
  5
112
100
AcDbEntity
  8
0
  6
ByLayer
 62
  256
370
   -1
100
AcDbLine
 10
63.80804706677178
 20
52.29472423421088
 11
63.81814647276526
 21
52.90068859381935
  0
LINE
  5
113
100
AcDbEntity
  8
0
  6
ByLayer
 62
  256
370
   -1
100
AcDbLine
 10
65.12096984592347
 20
52.33512185818478
 11
65.13106925191694
 21
52.95118562378672
  0
LINE
  5
114
100
AcDbEntity
  8
0
  6
ByLayer
 62
  256
370
   -1
100
AcDbLine
 10
66.42379321908167
 20
52.26442601623045
 11
66.4136938130882
 21
52.93098681179977
  0
LINE
  5
115
100
AcDbEntity
  8
0
  6
ByLayer
 62
  256
370
   -1
100
AcDbLine
 10
67.80741184018768
 20
52.2846248282174
 11
67.80741184018768
 21
52.90068859381935
  0
LINE
  5
116
100
AcDbEntity
  8
0
  6
ByLayer
 62
  256
370
   -1
100
AcDbLine
 10
69.12033461933936
 20
52.26442601623045
 11
69.11023521334589
 21
52.91078799981282
  0
LINE
  5
117
100
AcDbEntity
  8
0
  6
ByLayer
 62
  256
370
   -1
100
AcDbLine
 10
70.28176630858893
 20
52.2846248282174
 11
70.26156749660198
 21
53.01178205974757
  0
LINE
  5
118
100
AcDbEntity
  8
0
  6
ByLayer
 62
  256
370
   -1
100
AcDbLine
 10
70.86753185621045
 20
52.26442601623045
 11
70.83723363823003
 21
53.03198087173451
  0
LINE
  5
119
100
AcDbEntity
  8
0
  6
ByLayer
 62
  256
370
   -1
100
AcDbLine
 10
72.45313859718594
 20
52.2846248282174
 11
72.44303919119247
 21
52.99158324776062
  0
MTEXT
  5
11A
100
AcDbEntity
  8
0
  6
ByLayer
 62
  256
370
   -1
100
AcDbMText
 10
70.92812829217129
 20
52.38561888815214
 30
0
 40
0.1
 41
0.7861111111111221
 71
    1
 72
    1
  1
vertical 2x6\P
  7
STANDARD
210
0
220
0
230
1
 50
90
 73
    2
 44
1
  0
MTEXT
  5
11B
100
AcDbEntity
  8
0
  6
ByLayer
 62
  256
370
   -1
100
AcDbMText
 10
69.22132867927411
 20
52.30482364020435
 30
0
 40
0.1
 41
0.7861111111111221
 71
    1
 72
    1
  1
vertical 2x6\P
  7
STANDARD
210
0
220
0
230
1
 50
90
 73
    2
 44
1
  0
MTEXT
  5
11C
100
AcDbEntity
  8
0
  6
ByLayer
 62
  256
370
   -1
100
AcDbMText
 10
67.89830649412896
 20
52.25432661023698
 30
0
 40
0.1
 41
0.7861111111111221
 71
    1
 72
    1
  1
vertical 2x6\P
  7
STANDARD
210
0
220
0
230
1
 50
90
 73
    2
 44
1
  0
MTEXT
  5
11D
100
AcDbEntity
  8
0
  6
ByLayer
 62
  256
370
   -1
100
AcDbMText
 10
65.28256034181906
 20
52.21392898626308
 30
0
 40
0.1
 41
0.7861111111111221
 71
    1
 72
    1
  1
vertical 2x6\P
  7
STANDARD
210
0
220
0
230
1
 50
90
 73
    2
 44
1
  0
MTEXT
  5
11E
100
AcDbEntity
  8
0
  6
ByLayer
 62
  256
370
   -1
100
AcDbMText
 10
63.91914053270001
 20
52.2846248282174
 30
0
 40
0.1
 41
0.7861111111111221
 71
    1
 72
    1
  1
vertical 2x6\P
  7
STANDARD
210
0
220
0
230
1
 50
90
 73
    2
 44
1
  0
MTEXT
  5
11F
100
AcDbEntity
  8
0
  6
ByLayer
 62
  256
370
   -1
100
AcDbMText
 10
61.84876230403773
 20
52.29472423421088
 30
0
 40
0.1
 41
0.7861111111111221
 71
    1
 72
    1
  1
vertical 2x6\P
  7
STANDARD
210
0
220
0
230
1
 50
90
 73
    2
 44
1
  0
MTEXT
  5
120
100
AcDbEntity
  8
0
  6
ByLayer
 62
  256
370
   -1
100
AcDbMText
 10
60.30355318703614
 20
52.2442272042435
 30
0
 40
0.1
 41
0.7861111111111221
 71
    1
 72
    1
  1
vertical 2x6\P
  7
STANDARD
210
0
220
0
230
1
 50
90
 73
    2
 44
1
  0
LINE
  5
121
100
AcDbEntity
  8
0
  6
ByLayer
 62
  256
370
   -1
100
AcDbLine
 10
73.00860592682704
 20
52.11293492632834
 11
73.83675721829195
 21
52.60780582000859
  0
MTEXT
  5
122
100
AcDbEntity
  8
0
  6
ByLayer
 62
  256
370
   -1
100
AcDbMText
 10
66.52478727901642
 20
52.48661294808689
 30
0
 40
0.1
 41
0.7861111111111282
 71
    1
 72
    1
  1
vertical 6x6\P
  7
STANDARD
210
0
220
0
230
1
 50
90
 73
    2
 44
1
  0
MTEXT
  5
123
100
AcDbEntity
  8
0
  6
ByLayer
 62
  256
370
   -1
100
AcDbMText
 10
70.32216393256283
 20
52.3250224521913
 30
0
 40
0.1
 41
1.205555555555581
 71
    1
 72
    1
  1
vertical 4x6 beam\P\P
  7
STANDARD
210
0
220
0
230
1
 50
90
 73
    2
 44
1
  0
MTEXT
  5
124
100
AcDbEntity
  8
0
  6
ByLayer
 62
  256
370
   -1
100
AcDbMText
 10
62.71731121947654
 20
52.63810403798901
 30
0
 40
0.1
 41
1.205555555555581
 71
    1
 72
    1
  1
vertical 4x6 beam\P\P
  7
STANDARD
210
0
220
0
230
1
 50
90
 73
    2
 44
1
  0
MTEXT
  5
125
100
AcDbEntity
  8
0
  6
ByLayer
 62
  256
370
   -1
100
AcDbMText
 10
73.54387444448119
 20
52.17353136228918
 30
0
 40
0.1
 41
0.7305556069842847
 71
    1
 72
    1
  1
2x10 fascia\P\P
  7
STANDARD
210
0
220
0
230
1
 50
45
 73
    2
 44
1
  0
MTEXT
  5
126
100
AcDbEntity
  8
0
  6
ByLayer
 62
  256
370
   -1
100
AcDbMText
 10
59.20271793374742
 20
52.45631473010647
 30
0
 40
0.1
 41
0.7305556069842847
 71
    1
 72
    1
  1
2x10 fascia\P\P
  7
STANDARD
210
0
220
0
230
1
 50
315
 73
    2
 44
1
  0
LINE
  5
127
100
AcDbEntity
  8
0
  6
ByLayer
 62
  256
370
   -1
100
AcDbLine
 10
66.43389262507516
 20
51.23428660489606
 11
66.43389262507516
 21
50.73428660489606
  0
LINE
  5
128
100
AcDbEntity
  8
0
  6
ByLayer
 62
  256
370
   -1
100
AcDbLine
 10
65.13106925191694
 20
51.18378957492868
 11
65.13106925191694
 21
50.68378957492868
  0
LINE
  5
129
100
AcDbEntity
  8
0
  6
ByLayer
 62
  256
370
   -1
100
AcDbLine
 10
63.78784825478484
 20
51.16359076294173
 11
63.78784825478484
 21
50.66359076294173
  0
LINE
  5
12A
100
AcDbEntity
  8
0
  6
ByLayer
 62
  256
370
   -1
100
AcDbLine
 10
62.58601894156138
 20
51.07269610900046
 11
62.58601894156138
 21
50.57269610900046
  0
LINE
  5
12B
100
AcDbEntity
  8
0
  6
ByLayer
 62
  256
370
   -1
100
AcDbLine
 10
62.04065101791375
 20
51.04239789102004
 11
62.04065101791375
 21
50.54239789102004
  0
LINE
  5
12C
100
AcDbEntity
  8
0
  6
ByLayer
 62
  256
370
   -1
100
AcDbLine
 10
60.46514368293173
 20
51.16359076294173
 11
60.46514368293173
 21
50.66359076294173
  0
LINE
  5
12D
100
AcDbEntity
  8
0
  6
ByLayer
 62
  256
370
   -1
100
AcDbLine
 10
59.95007397726454
 20
51.13329254496131
 11
59.95007397726454
 21
50.63329254496131
  0
LINE
  5
12E
100
AcDbEntity
  8
0
  6
ByLayer
 62
  256
370
   -1
100
AcDbLine
 10
69.14053343132632
 20
51.22418719890258
 11
69.14053343132632
 21
50.72418719890258
  0
LINE
  5
12F
100
AcDbEntity
  8
0
  6
ByLayer
 62
  256
370
   -1
100
AcDbLine
 10
72.46323800317941
 20
51.18378957492868
 11
72.46323800317941
 21
50.68378957492868
  0
LINE
  5
130
100
AcDbEntity
  8
0
  6
ByLayer
 62
  256
370
   -1
100
AcDbLine
 10
72.97830770884661
 20
51.17369016893521
 11
72.97830770884661
 21
50.67369016893521
  0
LINE
  5
131
100
AcDbEntity
  8
0
  6
ByLayer
 62
  256
370
   -1
100
AcDbLine
 10
67.79731243419421
 20
51.23428660489606
 11
67.79731243419421
 21
50.73428660489606
  0
LINE
  5
132
100
AcDbEntity
  8
0
  6
ByLayer
 62
  256
370
   -1
100
AcDbLine
 10
59.97027278925148
 20
50.92120501909834
 11
66.4540914370621
 21
51.00200026704614
  0
LINE
  5
133
100
AcDbEntity
  8
0
  6
ByLayer
 62
  256
370
   -1
100
AcDbLine
 10
66.4540914370621
 20
51.00200026704614
 11
72.98840711484009
 21
50.97170204906572
  0
LINE
  5
134
100
AcDbEntity
  8
0
  6
ByLayer
 62
  256
370
   -1
100
AcDbLine
 10
70.28176630858893
 20
51.22418719890258
 11
70.28176630858893
 21
50.72418719890258
  0
LINE
  5
135
100
AcDbEntity
  8
0
  6
ByLayer
 62
  256
370
   -1
100
AcDbLine
 10
70.88773066819741
 20
51.26458482287648
 11
70.88773066819741
 21
50.76458482287648
  0
MTEXT
  5
136
100
AcDbEntity
  8
0
  6
ByLayer
 62
  256
370
   -1
100
AcDbMText
 10
65.66633776957109
 20
50.44653293740505
 30
0
 40
0.3
 41
0.5166666666666853
 71
    1
 72
    1
  1
16"\P\P\P
  7
STANDARD
210
0
220
0
230
1
 50
90
 73
    2
 44
1
  0
MTEXT
  5
137
100
AcDbEntity
  8
0
  6
ByLayer
 62
  256
370
   -1
100
AcDbMText
 10
64.4342102383672
 20
50.3859365014442
 30
0
 40
0.3
 41
0.5166666666666853
 71
    1
 72
    1
  1
16"\P\P\P
  7
STANDARD
210
0
220
0
230
1
 50
90
 73
    2
 44
1
  0
MTEXT
  5
138
100
AcDbEntity
  8
0
  6
ByLayer
 62
  256
370
   -1
100
AcDbMText
 10
67.15095045061184
 20
50.40613531343115
 30
0
 40
0.3
 41
0.5166666666666853
 71
    1
 72
    1
  1
16"\P\P\P
  7
STANDARD
210
0
220
0
230
1
 50
90
 73
    2
 44
1
  0
MTEXT
  5
139
100
AcDbEntity
  8
0
  6
ByLayer
 62
  256
370
   -1
100
AcDbMText
 10
68.44367441777658
 20
50.3859365014442
 30
0
 40
0.3
 41
0.5166666666666853
 71
    1
 72
    1
  1
16"\P\P\P
  7
STANDARD
210
0
220
0
230
1
 50
90
 73
    2
 44
1
  0
MTEXT
  5
13A
100
AcDbEntity
  8
0
  6
ByLayer
 62
  256
370
   -1
100
AcDbMText
 10
63.22228151915026
 20
50.3859365014442
 30
0
 40
0.3
 41
0.5166666666666853
 71
    1
 72
    1
  1
16"\P\P\P
  7
STANDARD
210
0
220
0
230
1
 50
90
 73
    2
 44
1
  0
MTEXT
  5
13B
100
AcDbEntity
  8
0
  6
ByLayer
 62
  256
370
   -1
100
AcDbMText
 10
69.84749185086953
 20
50.33543947147682
 30
0
 40
0.3
 41
0.5166666666666853
 71
    1
 72
    1
  1
16"\P\P\P
  7
STANDARD
210
0
220
0
230
1
 50
90
 73
    2
 44
1
  0
MTEXT
  5
13C
100
AcDbEntity
  8
0
  6
ByLayer
 62
  256
370
   -1
100
AcDbMText
 10
70.65544433034749
 20
50.32534006548335
 30
0
 40
0.3
 41
0.3500000000000186
 71
    1
 72
    1
  1
5"\P\P\P
  7
STANDARD
210
0
220
0
230
1
 50
90
 73
    2
 44
1
  0
MTEXT
  5
13D
100
AcDbEntity
  8
0
  6
ByLayer
 62
  256
370
   -1
100
AcDbMText
 10
62.1012474538746
 20
50.32534006548335
 30
0
 40
0.3
 41
0.3500000000000186
 71
    1
 72
    1
  1
5"\P\P\P
  7
STANDARD
210
0
220
0
230
1
 50
90
 73
    2
 44
1
  0
MTEXT
  5
13E
100
AcDbEntity
  8
0
  6
ByLayer
 62
  256
370
   -1
100
AcDbMText
 10
61.01051160657936
 20
50.25464422352903
 30
0
 40
0.3
 41
0.5166666666666667
 71
    1
 72
    1
  1
19"\P\P\P
  7
STANDARD
210
0
220
0
230
1
 50
90
 73
    2
 44
1
  0
MTEXT
  5
13F
100
AcDbEntity
  8
0
  6
ByLayer
 62
  256
370
   -1
100
AcDbMText
 10
71.65528552370147
 20
50.33543947147682
 30
0
 40
0.3
 41
0.5166666666666667
 71
    1
 72
    1
  1
19"\P\P\P
  7
STANDARD
210
0
220
0
230
1
 50
90
 73
    2
 44
1
  0
MTEXT
  5
140
100
AcDbEntity
  8
0
  6
ByLayer
 62
  256
370
   -1
100
AcDbMText
 10
72.61472909308154
 20
50.41623471942462
 30
0
 40
0.3
 41
0.3500000000000186
 71
    1
 72
    1
  1
6"\P\P\P
  7
STANDARD
210
0
220
0
230
1
 50
90
 73
    2
 44
1
  0
MTEXT
  5
141
100
AcDbEntity
  8
0
  6
ByLayer
 62
  256
370
   -1
100
AcDbMText
 10
60.02076981921886
 20
50.36573768945725
 30
0
 40
0.3
 41
0.3500000000000186
 71
    1
 72
    1
  1
6"\P\P\P
  7
STANDARD
210
0
220
0
230
1
 50
90
 73
    2
 44
1
  0
LINE
  5
142
100
AcDbEntity
  8
0
  6
ByLayer
 62
  256
370
   -1
100
AcDbLine
 10
74.33162811197219
 20
52.09273611434138
 11
73.83162811197219
 21
52.09273611434138
  0
LINE
  5
143
100
AcDbEntity
  8
0
  6
ByLayer
 62
  256
370
   -1
100
AcDbLine
 10
74.3720257359461
 20
51.57766640867419
 11
73.8720257359461
 21
51.57766640867419
  0
MTEXT
  5
144
100
AcDbEntity
  8
0
  6
ByLayer
 62
  256
370
   -1
100
AcDbMText
 10
74.70530613373076
 20
52.18363076828265
 30
0
 40
0.15
 41
0.3083333333333427
 71
    1
 72
    1
  1
1.5"\P\P\P
  7
STANDARD
210
0
220
0
230
1
 50
0
 73
    2
 44
1
  0
MTEXT
  5
145
100
AcDbEntity
  8
0
  6
ByLayer
 62
  256
370
   -1
100
AcDbMText
 10
74.74570375770465
 20
51.61806403264809
 30
0
 40
0.15
 41
0.3083333333333427
 71
    1
 72
    1
  1
1.5"\P\P\P
  7
STANDARD
210
0
220
0
230
1
 50
0
 73
    2
 44
1
  0
MTEXT
  5
146
100
AcDbEntity
  8
0
  6
ByLayer
 62
  256
370
   -1
100
AcDbMText
 10
74.69520672773729
 20
51.92104621245232
 30
0
 40
0.15
 41
0.3416666666666853
 71
    1
 72
    1
  1
5.5"\P\P\P
  7
STANDARD
210
0
220
0
230
1
 50
0
 73
    2
 44
1
  0
LINE
  5
147
100
AcDbEntity
  8
0
  6
ByLayer
 62
  256
370
   -1
100
AcDbLine
 10
74.09934177412228
 20
52.08263670834791
 11
74.09934177412228
 21
51.58263670834791
  0
MTEXT
  5
148
100
AcDbEntity
  8
0
  6
ByLayer
 62
  256
370
   -1
100
AcDbMText
 10
72.54403325112722
 20
52.3654200761652
 30
0
 40
0.1
 41
0.7861111111111221
 71
    1
 72
    1
  1
vertical 2x6\P
  7
STANDARD
210
0
220
0
230
1
 50
90
 73
    2
 44
1
  0
LINE
  5
149
100
AcDbEntity
  8
0
  6
ByLayer
 62
  256
370
   -1
100
AcDbLine
 10
40.8097937627909
 20
51.56881578380514
 11
41.23396881451683
 21
51.29613182198133
  0
LINE
  5
14A
100
AcDbEntity
  8
0
  6
ByLayer
 62
  256
370
   -1
100
AcDbLine
 10
54.32279898205976
 20
51.28603241598785
 11
55.15095027352466
 21
51.7809033096681
  0
MTEXT
  5
14B
100
AcDbEntity
  8
0
  6
ByLayer
 62
  256
370
   -1
100
AcDbMText
 10
54.8580674997139
 20
51.3466288519487
 30
0
 40
0.1
 41
0.7305556069842847
 71
    1
 72
    1
  1
2x10 fascia\P\P
  7
STANDARD
210
0
220
0
230
1
 50
45
 73
    2
 44
1
  0
MTEXT
  5
14C
100
AcDbEntity
  8
0
  6
ByLayer
 62
  256
370
   -1
100
AcDbMText
 10
40.51691098898014
 20
51.62941221976599
 30
0
 40
0.1
 41
0.7305556069842847
 71
    1
 72
    1
  1
2x10 fascia\P\P
  7
STANDARD
210
0
220
0
230
1
 50
315
 73
    2
 44
1
  0
LINE
  5
14D
100
AcDbEntity
  8
0
  6
ByLayer
 62
  256
370
   -1
100
AcDbLine
 10
55.64582116720491
 20
51.2658336040009
 11
55.14582116720491
 21
51.2658336040009
  0
LINE
  5
14E
100
AcDbEntity
  8
0
  6
ByLayer
 62
  256
370
   -1
100
AcDbLine
 10
55.68621879117881
 20
50.75076389833371
 11
55.18621879117881
 21
50.75076389833371
  0
MTEXT
  5
14F
100
AcDbEntity
  8
0
  6
ByLayer
 62
  256
370
   -1
100
AcDbMText
 10
56.01949918896347
 20
51.35672825794217
 30
0
 40
0.15
 41
0.3083333333333427
 71
    1
 72
    1
  1
1.5"\P\P\P
  7
STANDARD
210
0
220
0
230
1
 50
0
 73
    2
 44
1
  0
MTEXT
  5
150
100
AcDbEntity
  8
0
  6
ByLayer
 62
  256
370
   -1
100
AcDbMText
 10
56.05989681293736
 20
50.7911615223076
 30
0
 40
0.15
 41
0.3083333333333427
 71
    1
 72
    1
  1
1.5"\P\P\P
  7
STANDARD
210
0
220
0
230
1
 50
0
 73
    2
 44
1
  0
MTEXT
  5
151
100
AcDbEntity
  8
0
  6
ByLayer
 62
  256
370
   -1
100
AcDbMText
 10
56.00939978297
 20
51.09414370211184
 30
0
 40
0.15
 41
0.3416666666666853
 71
    1
 72
    1
  1
5.5"\P\P\P
  7
STANDARD
210
0
220
0
230
1
 50
0
 73
    2
 44
1
  0
LINE
  5
152
100
AcDbEntity
  8
0
  6
ByLayer
 62
  256
370
   -1
100
AcDbLine
 10
55.41353482935499
 20
51.25573419800743
 11
55.41353482935499
 21
50.75573419800743
  0
LINE
  5
153
100
AcDbEntity
  8
0
  6
ByLayer
 62
  256
370
   -1
100
AcDbLine
 10
47.7185193657621
 20
48.85515258090222
 11
47.7185193657621
 21
48.35515258090222
  0
LINE
  5
154
100
AcDbEntity
  8
0
  6
ByLayer
 62
  256
370
   -1
100
AcDbLine
 10
46.41569599260388
 20
48.80465555093485
 11
46.41569599260388
 21
48.30465555093485
  0
LINE
  5
155
100
AcDbEntity
  8
0
  6
ByLayer
 62
  256
370
   -1
100
AcDbLine
 10
45.07247499547178
 20
48.7844567389479
 11
45.07247499547178
 21
48.2844567389479
  0
LINE
  5
156
100
AcDbEntity
  8
0
  6
ByLayer
 62
  256
370
   -1
100
AcDbLine
 10
43.87064568224832
 20
48.69356208500663
 11
43.87064568224832
 21
48.19356208500663
  0
LINE
  5
157
100
AcDbEntity
  8
0
  6
ByLayer
 62
  256
370
   -1
100
AcDbLine
 10
43.32527775860069
 20
48.6632638670262
 11
43.32527775860069
 21
48.1632638670262
  0
LINE
  5
158
100
AcDbEntity
  8
0
  6
ByLayer
 62
  256
370
   -1
100
AcDbLine
 10
41.74977042361867
 20
48.7844567389479
 11
41.74977042361867
 21
48.2844567389479
  0
LINE
  5
159
100
AcDbEntity
  8
0
  6
ByLayer
 62
  256
370
   -1
100
AcDbLine
 10
41.23470071795148
 20
48.75415852096747
 11
41.23470071795148
 21
48.25415852096747
  0
LINE
  5
15A
100
AcDbEntity
  8
0
  6
ByLayer
 62
  256
370
   -1
100
AcDbLine
 10
50.42516017201326
 20
48.84505317490875
 11
50.42516017201326
 21
48.34505317490875
  0
LINE
  5
15B
100
AcDbEntity
  8
0
  6
ByLayer
 62
  256
370
   -1
100
AcDbLine
 10
53.74786474386635
 20
48.80465555093485
 11
53.74786474386635
 21
48.30465555093485
  0
LINE
  5
15C
100
AcDbEntity
  8
0
  6
ByLayer
 62
  256
370
   -1
100
AcDbLine
 10
54.26293444953355
 20
48.79455614494137
 11
54.26293444953355
 21
48.29455614494137
  0
LINE
  5
15D
100
AcDbEntity
  8
0
  6
ByLayer
 62
  256
370
   -1
100
AcDbLine
 10
49.08193917488115
 20
48.85515258090222
 11
49.08193917488115
 21
48.35515258090222
  0
LINE
  5
15E
100
AcDbEntity
  8
0
  6
ByLayer
 62
  256
370
   -1
100
AcDbLine
 10
41.25489952993842
 20
48.54207099510451
 11
47.73871817774904
 21
48.62286624305231
  0
LINE
  5
15F
100
AcDbEntity
  8
0
  6
ByLayer
 62
  256
370
   -1
100
AcDbLine
 10
47.73871817774904
 20
48.62286624305231
 11
54.27303385552703
 21
48.59256802507188
  0
LINE
  5
160
100
AcDbEntity
  8
0
  6
ByLayer
 62
  256
370
   -1
100
AcDbLine
 10
51.56639304927587
 20
48.84505317490875
 11
51.56639304927587
 21
48.34505317490875
  0
LINE
  5
161
100
AcDbEntity
  8
0
  6
ByLayer
 62
  256
370
   -1
100
AcDbLine
 10
52.17235740888434
 20
48.88545079888264
 11
52.17235740888434
 21
48.38545079888264
  0
MTEXT
  5
162
100
AcDbEntity
  8
0
  6
ByLayer
 62
  256
370
   -1
100
AcDbMText
 10
46.95096451025803
 20
48.06739891341121
 30
0
 40
0.3
 41
0.5166666666666853
 71
    1
 72
    1
  1
16"\P\P\P
  7
STANDARD
210
0
220
0
230
1
 50
90
 73
    2
 44
1
  0
MTEXT
  5
163
100
AcDbEntity
  8
0
  6
ByLayer
 62
  256
370
   -1
100
AcDbMText
 10
45.71883697905414
 20
48.00680247745036
 30
0
 40
0.3
 41
0.5166666666666853
 71
    1
 72
    1
  1
16"\P\P\P
  7
STANDARD
210
0
220
0
230
1
 50
90
 73
    2
 44
1
  0
MTEXT
  5
164
100
AcDbEntity
  8
0
  6
ByLayer
 62
  256
370
   -1
100
AcDbMText
 10
48.43557719129878
 20
48.02700128943732
 30
0
 40
0.3
 41
0.5166666666666853
 71
    1
 72
    1
  1
16"\P\P\P
  7
STANDARD
210
0
220
0
230
1
 50
90
 73
    2
 44
1
  0
MTEXT
  5
165
100
AcDbEntity
  8
0
  6
ByLayer
 62
  256
370
   -1
100
AcDbMText
 10
49.72830115846352
 20
48.00680247745036
 30
0
 40
0.3
 41
0.5166666666666853
 71
    1
 72
    1
  1
16"\P\P\P
  7
STANDARD
210
0
220
0
230
1
 50
90
 73
    2
 44
1
  0
MTEXT
  5
166
100
AcDbEntity
  8
0
  6
ByLayer
 62
  256
370
   -1
100
AcDbMText
 10
44.5069082598372
 20
48.00680247745036
 30
0
 40
0.3
 41
0.5166666666666853
 71
    1
 72
    1
  1
16"\P\P\P
  7
STANDARD
210
0
220
0
230
1
 50
90
 73
    2
 44
1
  0
MTEXT
  5
167
100
AcDbEntity
  8
0
  6
ByLayer
 62
  256
370
   -1
100
AcDbMText
 10
51.13211859155647
 20
47.95630544748299
 30
0
 40
0.3
 41
0.5166666666666853
 71
    1
 72
    1
  1
16"\P\P\P
  7
STANDARD
210
0
220
0
230
1
 50
90
 73
    2
 44
1
  0
MTEXT
  5
168
100
AcDbEntity
  8
0
  6
ByLayer
 62
  256
370
   -1
100
AcDbMText
 10
51.94007107103443
 20
47.94620604148952
 30
0
 40
0.3
 41
0.3500000000000186
 71
    1
 72
    1
  1
5"\P\P\P
  7
STANDARD
210
0
220
0
230
1
 50
90
 73
    2
 44
1
  0
MTEXT
  5
169
100
AcDbEntity
  8
0
  6
ByLayer
 62
  256
370
   -1
100
AcDbMText
 10
43.38587419456154
 20
47.94620604148952
 30
0
 40
0.3
 41
0.3500000000000186
 71
    1
 72
    1
  1
5"\P\P\P
  7
STANDARD
210
0
220
0
230
1
 50
90
 73
    2
 44
1
  0
MTEXT
  5
16A
100
AcDbEntity
  8
0
  6
ByLayer
 62
  256
370
   -1
100
AcDbMText
 10
42.2951383472663
 20
47.87551019953519
 30
0
 40
0.3
 41
0.5166666666666667
 71
    1
 72
    1
  1
19"\P\P\P
  7
STANDARD
210
0
220
0
230
1
 50
90
 73
    2
 44
1
  0
MTEXT
  5
16B
100
AcDbEntity
  8
0
  6
ByLayer
 62
  256
370
   -1
100
AcDbMText
 10
52.9399122643884
 20
47.95630544748299
 30
0
 40
0.3
 41
0.5166666666666667
 71
    1
 72
    1
  1
19"\P\P\P
  7
STANDARD
210
0
220
0
230
1
 50
90
 73
    2
 44
1
  0
MTEXT
  5
16C
100
AcDbEntity
  8
0
  6
ByLayer
 62
  256
370
   -1
100
AcDbMText
 10
53.89935583376847
 20
48.03710069543079
 30
0
 40
0.3
 41
0.3500000000000186
 71
    1
 72
    1
  1
6"\P\P\P
  7
STANDARD
210
0
220
0
230
1
 50
90
 73
    2
 44
1
  0
MTEXT
  5
16D
100
AcDbEntity
  8
0
  6
ByLayer
 62
  256
370
   -1
100
AcDbMText
 10
41.30539655990579
 20
47.98660366546341
 30
0
 40
0.3
 41
0.3500000000000186
 71
    1
 72
    1
  1
6"\P\P\P
  7
STANDARD
210
0
220
0
230
1
 50
90
 73
    2
 44
1
  0
LINE
  5
16E
100
AcDbEntity
  8
0
  6
ByLayer
 62
  256
370
   -1
100
AcDbLine
 10
53.79689796696443
 20
49.90549080422357
 11
53.78679856097096
 21
50.61244922376678
  0
MTEXT
  5
16F
100
AcDbEntity
  8
0
  6
ByLayer
 62
  256
370
   -1
100
AcDbMText
 10
53.93243983240949
 20
49.62253216529478
 30
0
 40
0.1
 41
0.7861111111111221
 71
    1
 72
    1
  1
vertical 2x6\P
  7
STANDARD
210
0
220
0
230
1
 50
90
 73
    2
 44
1
  0
LINE
  5
170
100
AcDbEntity
  8
0
  6
ByLayer
 62
  256
370
   -1
100
AcDbLine
 10
54.26781541461384
 20
50.76351418044197
 11
54.26781541461384
 21
51.59351418044196
  0
LINE
  5
171
100
AcDbEntity
  8
0
  6
ByLayer
 62
  256
370
   -1
100
AcDbLine
 10
51.46611716096255
 20
50.75753084466067
 11
51.4708568687639
 21
51.35236417373014
  0
LINE
  5
172
100
AcDbEntity
  8
0
  6
ByLayer
 62
  256
370
   -1
100
AcDbLine
 10
51.76945846024897
 20
50.76227055246202
 11
51.77182831414964
 21
51.32866563472339
  0
LINE
  5
173
100
AcDbEntity
  8
0
  6
ByLayer
 62
  256
370
   -1
100
AcDbLine
 10
49.0997535654871
 20
50.76375618075856
 11
49.09863311418805
 21
51.5087745311747
  0
LINE
  5
174
100
AcDbEntity
  8
0
  6
ByLayer
 62
  256
370
   -1
100
AcDbLine
 10
54.26728447156059
 20
51.1651457155768
 11
47.76596164966494
 21
51.59650885217835
  0
LINE
  5
175
100
AcDbEntity
  8
0
  6
ByLayer
 62
  256
370
   -1
100
AcDbLine
 10
50.4327535654871
 20
50.76375618075856
 11
50.43523071416885
 21
51.41635022904837
  0
LINE
  5
176
100
AcDbEntity
  8
0
  6
ByLayer
 62
  256
370
   -1
100
AcDbLine
 10
52.1827535654871
 20
50.76375618075856
 11
52.18418289286712
 21
51.30259724181596
  0
LINE
  5
177
100
AcDbEntity
  8
0
  6
ByLayer
 62
  256
370
   -1
100
AcDbLine
 10
53.7667535654871
 20
50.76375618075856
 11
53.76961515241881
 21
51.19121410848422
  0
LINE
  5
178
100
AcDbEntity
  8
0
  6
ByLayer
 62
  256
370
   -1
100
AcDbLine
 10
47.91918645099587
 20
50.75560533836646
 11
47.91548355427607
 21
51.58875710032258
  0
LINE
  5
179
100
AcDbEntity
  8
0
  6
ByLayer
 62
  256
370
   -1
100
AcDbLine
 10
41.26745089940714
 20
51.1651457155768
 11
47.7687737213028
 21
51.59650885217835
  0
LINE
  5
17A
100
AcDbEntity
  8
0
  6
ByLayer
 62
  256
370
   -1
100
AcDbLine
 10
41.26637553408112
 20
50.76384191430428
 11
41.26683868590088
 21
51.15962800711162
  0
LINE
  5
17B
100
AcDbEntity
  8
0
  6
ByLayer
 62
  256
370
   -1
100
AcDbLine
 10
41.7667535654871
 20
50.76375618075856
 11
41.76897069768702
 21
51.19117556806153
  0
LINE
  5
17C
100
AcDbEntity
  8
0
  6
ByLayer
 62
  256
370
   -1
100
AcDbLine
 10
41.26623307211607
 20
50.76523692608375
 11
41.26683868590088
 21
51.1675148973491
  0
LINE
  5
17D
100
AcDbEntity
  8
0
  6
ByLayer
 62
  256
370
   -1
100
AcDbLine
 10
43.3497535654871
 20
50.76375618075856
 11
43.34634874518275
 21
51.30422099479873
  0
LINE
  5
17E
100
AcDbEntity
  8
0
  6
ByLayer
 62
  256
370
   -1
100
AcDbLine
 10
43.76961185459411
 20
50.77054142206267
 11
43.7722408180066
 21
51.32788166551116
  0
LINE
  5
17F
100
AcDbEntity
  8
0
  6
ByLayer
 62
  256
370
   -1
100
AcDbLine
 10
44.07194264703079
 20
51.3515423362236
 11
44.0693136836183
 21
50.7600255684127
  0
LINE
  5
180
100
AcDbEntity
  8
0
  6
ByLayer
 62
  256
370
   -1
100
AcDbLine
 10
46.4327535654871
 20
50.76375618075856
 11
46.43817402848772
 21
51.51638655769762
  0
LINE
  5
181
100
AcDbEntity
  8
0
  6
ByLayer
 62
  256
370
   -1
100
AcDbLine
 10
45.0997535654871
 20
50.76375618075856
 11
45.09986734131551
 21
51.41989538494841
  0
LINE
  5
182
100
AcDbEntity
  8
0
  6
ByLayer
 62
  256
370
   -1
100
AcDbLine
 10
47.61915368644351
 20
50.75645182127389
 11
47.62428838060853
 21
51.59854166433802
  0
LINE
  5
183
100
AcDbEntity
  8
0
  6
ByLayer
 62
  256
370
   -1
100
AcDbLine
 10
65.6168457402585
 20
51.82098606803342
 11
72.1168457402585
 21
51.82098606803342
  0
LINE
  5
184
100
AcDbEntity
  8
0
  6
ByLayer
 62
  256
370
   -1
100
AcDbLine
 10
65.6168457402585
 20
51.32098606803342
 11
72.1168457402585
 21
51.32098606803342
  0
LWPOLYLINE
  5
185
100
AcDbEntity
  8
0
  6
ByLayer
 62
  256
370
   -1
100
AcDbPolyline
 90
    4
 70
    1
 43
0
 10
72.2668457402585
 20
51.82098606803342
 10
71.96684574025849
 20
51.82098606803342
 10
71.96684574025849
 20
51.32098606803342
 10
72.2668457402585
 20
51.32098606803342
  0
LWPOLYLINE
  5
186
100
AcDbEntity
  8
0
  6
ByLayer
 62
  256
370
   -1
100
AcDbPolyline
 90
    4
 70
    1
 43
0
 10
71.96684574025849
 20
51.32098606803342
 10
78.6168457402585
 20
51.32098606803342
 10
78.6168457402585
 20
51.82098606803342
 10
71.96684574025849
 20
51.82098606803342
  0
LWPOLYLINE
  5
187
100
AcDbEntity
  8
0
  6
ByLayer
 62
  256
370
   -1
100
AcDbPolyline
 90
    4
 70
    1
 43
0
 10
68.1168457402585
 20
51.32098606803342
 10
68.41684574025848
 20
51.32098606803342
 10
68.41684574025848
 20
51.82098606803342
 10
68.1168457402585
 20
51.82098606803342
  0
LWPOLYLINE
  5
188
100
AcDbEntity
  8
0
  6
DASHEDTINY
 62
  256
370
   -1
100
AcDbPolyline
 90
    4
 70
    1
 43
0
 10
76.1168457402585
 20
51.82098606803342
 10
75.81684574025849
 20
51.82098606803342
 10
75.81684574025849
 20
51.32098606803342
 10
76.1168457402585
 20
51.32098606803342
  0
LINE
  5
189
100
AcDbEntity
  8
0
  6
ByLayer
 62
  256
370
   -1
100
AcDbLine
 10
66.1168457402585
 20
51.32098606803342
 11
66.1168457402585
 21
51.82098606803342
  0
LINE
  5
18A
100
AcDbEntity
  8
0
  6
ByLayer
 62
  256
370
   -1
100
AcDbLine
 10
67.6998457402585
 20
51.32098606803342
 11
67.6998457402585
 21
51.82098606803342
  0
LINE
  5
18B
100
AcDbEntity
  8
0
  6
ByLayer
 62
  256
370
   -1
100
AcDbLine
 10
69.4498457402585
 20
51.32098606803342
 11
69.4498457402585
 21
51.82098606803342
  0
LINE
  5
18C
100
AcDbEntity
  8
0
  6
ByLayer
 62
  256
370
   -1
100
AcDbLine
 10
70.78284574025849
 20
51.32098606803342
 11
70.78284574025849
 21
51.82098606803342
  0
LINE
  5
18D
100
AcDbEntity
  8
0
  6
ByLayer
 62
  256
370
   -1
100
AcDbLine
 10
73.4498457402585
 20
51.32098606803342
 11
73.4498457402585
 21
51.82098606803342
  0
LINE
  5
18E
100
AcDbEntity
  8
0
  6
ByLayer
 62
  256
370
   -1
100
AcDbLine
 10
74.78284574025849
 20
51.32098606803342
 11
74.78284574025849
 21
51.82098606803342
  0
LINE
  5
18F
100
AcDbEntity
  8
0
  6
ByLayer
 62
  256
370
   -1
100
AcDbLine
 10
76.53284574025849
 20
51.32098606803342
 11
76.53284574025849
 21
51.82098606803342
  0
LINE
  5
190
100
AcDbEntity
  8
0
  6
ByLayer
 62
  256
370
   -1
100
AcDbLine
 10
78.1168457402585
 20
51.32098606803342
 11
78.1168457402585
 21
51.82098606803342
  0
LINE
  5
191
100
AcDbEntity
  8
0
  6
ByLayer
 62
  256
370
   -1
100
AcDbLine
 10
65.61632524688746
 20
51.32246681335862
 11
65.61632524688746
 21
51.82246681335862
  0
LINE
  5
192
100
AcDbEntity
  8
0
  6
ByLayer
 62
  256
370
   -1
100
AcDbLine
 10
65.15988593756228
 20
52.12604567108001
 11
65.58406098928822
 21
51.85336170925619
  0
LINE
  5
193
100
AcDbEntity
  8
0
  6
ByLayer
 62
  256
370
   -1
100
AcDbLine
 10
66.12942891293584
 20
51.92405755121052
 11
66.12942891293584
 21
52.60071775277331
  0
LINE
  5
194
100
AcDbEntity
  8
0
  6
ByLayer
 62
  256
370
   -1
100
AcDbLine
 10
67.70493624791786
 20
51.91395814521704
 11
67.70493624791786
 21
52.63101597075373
  0
LINE
  5
195
100
AcDbEntity
  8
0
  6
ByLayer
 62
  256
370
   -1
100
AcDbLine
 10
68.240204765572
 20
52.54012131681246
 11
68.26040357755895
 21
51.95435576919094
  0
LINE
  5
196
100
AcDbEntity
  8
0
  6
ByLayer
 62
  256
370
   -1
100
AcDbLine
 10
69.47233229677589
 20
52.02505161114526
 11
69.48243170276936
 21
52.63101597075373
  0
LINE
  5
197
100
AcDbEntity
  8
0
  6
ByLayer
 62
  256
370
   -1
100
AcDbLine
 10
70.78525507592758
 20
52.06544923511916
 11
70.79535448192104
 21
52.6815130007211
  0
LINE
  5
198
100
AcDbEntity
  8
0
  6
ByLayer
 62
  256
370
   -1
100
AcDbLine
 10
72.08807844908577
 20
51.99475339316484
 11
72.07797904309231
 21
52.66131418873415
  0
LINE
  5
199
100
AcDbEntity
  8
0
  6
ByLayer
 62
  256
370
   -1
100
AcDbLine
 10
73.47169707019179
 20
52.01495220515179
 11
73.47169707019179
 21
52.63101597075373
  0
LINE
  5
19A
100
AcDbEntity
  8
0
  6
ByLayer
 62
  256
370
   -1
100
AcDbLine
 10
74.78461984934347
 20
51.99475339316484
 11
74.77452044334999
 21
52.6411153767472
  0
LINE
  5
19B
100
AcDbEntity
  8
0
  6
ByLayer
 62
  256
370
   -1
100
AcDbLine
 10
75.94605153859303
 20
52.01495220515179
 11
75.92585272660608
 21
52.74210943668195
  0
LINE
  5
19C
100
AcDbEntity
  8
0
  6
ByLayer
 62
  256
370
   -1
100
AcDbLine
 10
76.53181708621455
 20
51.99475339316484
 11
76.50151886823414
 21
52.76230824866889
  0
LINE
  5
19D
100
AcDbEntity
  8
0
  6
ByLayer
 62
  256
370
   -1
100
AcDbLine
 10
78.11742382719004
 20
52.01495220515179
 11
78.10732442119658
 21
52.721910624695
  0
MTEXT
  5
19E
100
AcDbEntity
  8
0
  6
ByLayer
 62
  256
370
   -1
100
AcDbMText
 10
76.59241352217541
 20
52.11594626508653
 30
0
 40
0.1
 41
0.7861111111111221
 71
    1
 72
    1
  1
vertical 2x6\P
  7
STANDARD
210
0
220
0
230
1
 50
90
 73
    2
 44
1
  0
MTEXT
  5
19F
100
AcDbEntity
  8
0
  6
ByLayer
 62
  256
370
   -1
100
AcDbMText
 10
74.88561390927822
 20
52.03515101713873
 30
0
 40
0.1
 41
0.7861111111111221
 71
    1
 72
    1
  1
vertical 2x6\P
  7
STANDARD
210
0
220
0
230
1
 50
90
 73
    2
 44
1
  0
MTEXT
  5
1A0
100
AcDbEntity
  8
0
  6
ByLayer
 62
  256
370
   -1
100
AcDbMText
 10
73.56259172413306
 20
51.98465398717136
 30
0
 40
0.1
 41
0.7861111111111221
 71
    1
 72
    1
  1
vertical 2x6\P
  7
STANDARD
210
0
220
0
230
1
 50
90
 73
    2
 44
1
  0
MTEXT
  5
1A1
100
AcDbEntity
  8
0
  6
ByLayer
 62
  256
370
   -1
100
AcDbMText
 10
70.94684557182316
 20
51.94425636319746
 30
0
 40
0.1
 41
0.7861111111111221
 71
    1
 72
    1
  1
vertical 2x6\P
  7
STANDARD
210
0
220
0
230
1
 50
90
 73
    2
 44
1
  0
MTEXT
  5
1A2
100
AcDbEntity
  8
0
  6
ByLayer
 62
  256
370
   -1
100
AcDbMText
 10
69.58342576270411
 20
52.01495220515179
 30
0
 40
0.1
 41
0.7861111111111221
 71
    1
 72
    1
  1
vertical 2x6\P
  7
STANDARD
210
0
220
0
230
1
 50
90
 73
    2
 44
1
  0
MTEXT
  5
1A3
100
AcDbEntity
  8
0
  6
ByLayer
 62
  256
370
   -1
100
AcDbMText
 10
67.51304753404185
 20
52.02505161114526
 30
0
 40
0.1
 41
0.7861111111111221
 71
    1
 72
    1
  1
vertical 2x6\P
  7
STANDARD
210
0
220
0
230
1
 50
90
 73
    2
 44
1
  0
MTEXT
  5
1A4
100
AcDbEntity
  8
0
  6
ByLayer
 62
  256
370
   -1
100
AcDbMText
 10
65.96783841704024
 20
51.97455458117788
 30
0
 40
0.1
 41
0.7861111111111221
 71
    1
 72
    1
  1
vertical 2x6\P
  7
STANDARD
210
0
220
0
230
1
 50
90
 73
    2
 44
1
  0
LINE
  5
1A5
100
AcDbEntity
  8
0
  6
ByLayer
 62
  256
370
   -1
100
AcDbLine
 10
78.67289115683116
 20
51.84326230326272
 11
79.50104244829606
 21
52.33813319694297
  0
MTEXT
  5
1A6
100
AcDbEntity
  8
0
  6
ByLayer
 62
  256
370
   -1
100
AcDbMText
 10
72.18907250902052
 20
52.21694032502128
 30
0
 40
0.1
 41
0.7861111111111282
 71
    1
 72
    1
  1
vertical 6x6\P
  7
STANDARD
210
0
220
0
230
1
 50
90
 73
    2
 44
1
  0
MTEXT
  5
1A7
100
AcDbEntity
  8
0
  6
ByLayer
 62
  256
370
   -1
100
AcDbMText
 10
75.98644916256694
 20
52.05534982912568
 30
0
 40
0.1
 41
1.205555555555581
 71
    1
 72
    1
  1
vertical 4x6 beam\P\P
  7
STANDARD
210
0
220
0
230
1
 50
90
 73
    2
 44
1
  0
MTEXT
  5
1A8
100
AcDbEntity
  8
0
  6
ByLayer
 62
  256
370
   -1
100
AcDbMText
 10
68.38159644948064
 20
52.36843141492339
 30
0
 40
0.1
 41
1.205555555555581
 71
    1
 72
    1
  1
vertical 4x6 beam\P\P
  7
STANDARD
210
0
220
0
230
1
 50
90
 73
    2
 44
1
  0
MTEXT
  5
1A9
100
AcDbEntity
  8
0
  6
ByLayer
 62
  256
370
   -1
100
AcDbMText
 10
79.2081596744853
 20
51.90385873922357
 30
0
 40
0.1
 41
0.7305556069842847
 71
    1
 72
    1
  1
2x10 fascia\P\P
  7
STANDARD
210
0
220
0
230
1
 50
45
 73
    2
 44
1
  0
MTEXT
  5
1AA
100
AcDbEntity
  8
0
  6
ByLayer
 62
  256
370
   -1
100
AcDbMText
 10
64.86700316375152
 20
52.18664210704085
 30
0
 40
0.1
 41
0.7305556069842847
 71
    1
 72
    1
  1
2x10 fascia\P\P
  7
STANDARD
210
0
220
0
230
1
 50
315
 73
    2
 44
1
  0
LINE
  5
1AB
100
AcDbEntity
  8
0
  6
ByLayer
 62
  256
370
   -1
100
AcDbLine
 10
72.09817785507926
 20
50.96461398183044
 11
72.09817785507926
 21
50.46461398183044
  0
LINE
  5
1AC
100
AcDbEntity
  8
0
  6
ByLayer
 62
  256
370
   -1
100
AcDbLine
 10
70.79535448192104
 20
50.91411695186306
 11
70.79535448192104
 21
50.41411695186306
  0
LINE
  5
1AD
100
AcDbEntity
  8
0
  6
ByLayer
 62
  256
370
   -1
100
AcDbLine
 10
69.45213348478894
 20
50.89391813987611
 11
69.45213348478894
 21
50.39391813987611
  0
LINE
  5
1AE
100
AcDbEntity
  8
0
  6
ByLayer
 62
  256
370
   -1
100
AcDbLine
 10
68.25030417156549
 20
50.80302348593484
 11
68.25030417156549
 21
50.30302348593484
  0
LINE
  5
1AF
100
AcDbEntity
  8
0
  6
ByLayer
 62
  256
370
   -1
100
AcDbLine
 10
67.70493624791786
 20
50.77272526795442
 11
67.70493624791786
 21
50.27272526795442
  0
LINE
  5
1B0
100
AcDbEntity
  8
0
  6
ByLayer
 62
  256
370
   -1
100
AcDbLine
 10
66.12942891293584
 20
50.89391813987611
 11
66.12942891293584
 21
50.39391813987611
  0
LINE
  5
1B1
100
AcDbEntity
  8
0
  6
ByLayer
 62
  256
370
   -1
100
AcDbLine
 10
65.61435920726865
 20
50.86361992189569
 11
65.61435920726865
 21
50.36361992189569
  0
LINE
  5
1B2
100
AcDbEntity
  8
0
  6
ByLayer
 62
  256
370
   -1
100
AcDbLine
 10
74.80481866133042
 20
50.95451457583697
 11
74.80481866133042
 21
50.45451457583697
  0
LINE
  5
1B3
100
AcDbEntity
  8
0
  6
ByLayer
 62
  256
370
   -1
100
AcDbLine
 10
78.12752323318352
 20
50.91411695186306
 11
78.12752323318352
 21
50.41411695186306
  0
LINE
  5
1B4
100
AcDbEntity
  8
0
  6
ByLayer
 62
  256
370
   -1
100
AcDbLine
 10
78.64259293885073
 20
50.90401754586959
 11
78.64259293885073
 21
50.40401754586959
  0
LINE
  5
1B5
100
AcDbEntity
  8
0
  6
ByLayer
 62
  256
370
   -1
100
AcDbLine
 10
73.46159766419831
 20
50.96461398183044
 11
73.46159766419831
 21
50.46461398183044
  0
LINE
  5
1B6
100
AcDbEntity
  8
0
  6
ByLayer
 62
  256
370
   -1
100
AcDbLine
 10
65.63455801925559
 20
50.65153239603273
 11
72.1183766670662
 21
50.73232764398053
  0
LINE
  5
1B7
100
AcDbEntity
  8
0
  6
ByLayer
 62
  256
370
   -1
100
AcDbLine
 10
72.1183766670662
 20
50.73232764398053
 11
78.65269234484418
 21
50.7020294260001
  0
LINE
  5
1B8
100
AcDbEntity
  8
0
  6
ByLayer
 62
  256
370
   -1
100
AcDbLine
 10
75.94605153859303
 20
50.95451457583697
 11
75.94605153859303
 21
50.45451457583697
  0
LINE
  5
1B9
100
AcDbEntity
  8
0
  6
ByLayer
 62
  256
370
   -1
100
AcDbLine
 10
76.55201589820152
 20
50.99491219981086
 11
76.55201589820152
 21
50.49491219981086
  0
MTEXT
  5
1BA
100
AcDbEntity
  8
0
  6
ByLayer
 62
  256
370
   -1
100
AcDbMText
 10
71.33062299957518
 20
50.17686031433943
 30
0
 40
0.3
 41
0.5166666666666853
 71
    1
 72
    1
  1
16"\P\P\P
  7
STANDARD
210
0
220
0
230
1
 50
90
 73
    2
 44
1
  0
MTEXT
  5
1BB
100
AcDbEntity
  8
0
  6
ByLayer
 62
  256
370
   -1
100
AcDbMText
 10
70.09849546837131
 20
50.11626387837858
 30
0
 40
0.3
 41
0.5166666666666853
 71
    1
 72
    1
  1
16"\P\P\P
  7
STANDARD
210
0
220
0
230
1
 50
90
 73
    2
 44
1
  0
MTEXT
  5
1BC
100
AcDbEntity
  8
0
  6
ByLayer
 62
  256
370
   -1
100
AcDbMText
 10
72.81523568061596
 20
50.13646269036553
 30
0
 40
0.3
 41
0.5166666666666853
 71
    1
 72
    1
  1
16"\P\P\P
  7
STANDARD
210
0
220
0
230
1
 50
90
 73
    2
 44
1
  0
MTEXT
  5
1BD
100
AcDbEntity
  8
0
  6
ByLayer
 62
  256
370
   -1
100
AcDbMText
 10
74.10795964778069
 20
50.11626387837858
 30
0
 40
0.3
 41
0.5166666666666853
 71
    1
 72
    1
  1
16"\P\P\P
  7
STANDARD
210
0
220
0
230
1
 50
90
 73
    2
 44
1
  0
MTEXT
  5
1BE
100
AcDbEntity
  8
0
  6
ByLayer
 62
  256
370
   -1
100
AcDbMText
 10
68.88656674915437
 20
50.11626387837858
 30
0
 40
0.3
 41
0.5166666666666853
 71
    1
 72
    1
  1
16"\P\P\P
  7
STANDARD
210
0
220
0
230
1
 50
90
 73
    2
 44
1
  0
MTEXT
  5
1BF
100
AcDbEntity
  8
0
  6
ByLayer
 62
  256
370
   -1
100
AcDbMText
 10
75.51177708087363
 20
50.06576684841121
 30
0
 40
0.3
 41
0.5166666666666853
 71
    1
 72
    1
  1
16"\P\P\P
  7
STANDARD
210
0
220
0
230
1
 50
90
 73
    2
 44
1
  0
MTEXT
  5
1C0
100
AcDbEntity
  8
0
  6
ByLayer
 62
  256
370
   -1
100
AcDbMText
 10
76.31972956035159
 20
50.05566744241774
 30
0
 40
0.3
 41
0.3500000000000186
 71
    1
 72
    1
  1
5"\P\P\P
  7
STANDARD
210
0
220
0
230
1
 50
90
 73
    2
 44
1
  0
MTEXT
  5
1C1
100
AcDbEntity
  8
0
  6
ByLayer
 62
  256
370
   -1
100
AcDbMText
 10
67.7655326838787
 20
50.05566744241774
 30
0
 40
0.3
 41
0.3500000000000186
 71
    1
 72
    1
  1
5"\P\P\P
  7
STANDARD
210
0
220
0
230
1
 50
90
 73
    2
 44
1
  0
MTEXT
  5
1C2
100
AcDbEntity
  8
0
  6
ByLayer
 62
  256
370
   -1
100
AcDbMText
 10
66.67479683658345
 20
49.98497160046341
 30
0
 40
0.3
 41
0.5166666666666667
 71
    1
 72
    1
  1
19"\P\P\P
  7
STANDARD
210
0
220
0
230
1
 50
90
 73
    2
 44
1
  0
MTEXT
  5
1C3
100
AcDbEntity
  8
0
  6
ByLayer
 62
  256
370
   -1
100
AcDbMText
 10
77.31957075370556
 20
50.06576684841121
 30
0
 40
0.3
 41
0.5166666666666667
 71
    1
 72
    1
  1
19"\P\P\P
  7
STANDARD
210
0
220
0
230
1
 50
90
 73
    2
 44
1
  0
MTEXT
  5
1C4
100
AcDbEntity
  8
0
  6
ByLayer
 62
  256
370
   -1
100
AcDbMText
 10
78.27901432308565
 20
50.14656209635901
 30
0
 40
0.3
 41
0.3500000000000186
 71
    1
 72
    1
  1
6"\P\P\P
  7
STANDARD
210
0
220
0
230
1
 50
90
 73
    2
 44
1
  0
MTEXT
  5
1C5
100
AcDbEntity
  8
0
  6
ByLayer
 62
  256
370
   -1
100
AcDbMText
 10
65.68505504922297
 20
50.09606506639163
 30
0
 40
0.3
 41
0.3500000000000186
 71
    1
 72
    1
  1
6"\P\P\P
  7
STANDARD
210
0
220
0
230
1
 50
90
 73
    2
 44
1
  0
LINE
  5
1C6
100
AcDbEntity
  8
0
  6
ByLayer
 62
  256
370
   -1
100
AcDbLine
 10
79.99591334197629
 20
51.82306349127577
 11
79.49591334197629
 21
51.82306349127577
  0
LINE
  5
1C7
100
AcDbEntity
  8
0
  6
ByLayer
 62
  256
370
   -1
100
AcDbLine
 10
80.03631096595021
 20
51.30799378560857
 11
79.53631096595021
 21
51.30799378560857
  0
MTEXT
  5
1C8
100
AcDbEntity
  8
0
  6
ByLayer
 62
  256
370
   -1
100
AcDbMText
 10
80.36959136373486
 20
51.91395814521704
 30
0
 40
0.15
 41
0.3083333333333427
 71
    1
 72
    1
  1
1.5"\P\P\P
  7
STANDARD
210
0
220
0
230
1
 50
0
 73
    2
 44
1
  0
MTEXT
  5
1C9
100
AcDbEntity
  8
0
  6
ByLayer
 62
  256
370
   -1
100
AcDbMText
 10
80.40998898770874
 20
51.34839140958247
 30
0
 40
0.15
 41
0.3083333333333427
 71
    1
 72
    1
  1
1.5"\P\P\P
  7
STANDARD
210
0
220
0
230
1
 50
0
 73
    2
 44
1
  0
MTEXT
  5
1CA
100
AcDbEntity
  8
0
  6
ByLayer
 62
  256
370
   -1
100
AcDbMText
 10
80.3594919577414
 20
51.6513735893867
 30
0
 40
0.15
 41
0.3416666666666853
 71
    1
 72
    1
  1
5.5"\P\P\P
  7
STANDARD
210
0
220
0
230
1
 50
0
 73
    2
 44
1
  0
LINE
  5
1CB
100
AcDbEntity
  8
0
  6
ByLayer
 62
  256
370
   -1
100
AcDbLine
 10
79.76362700412639
 20
51.8129640852823
 11
79.76362700412639
 21
51.3129640852823
  0
MTEXT
  5
1CC
100
AcDbEntity
  8
0
  6
ByLayer
 62
  256
370
   -1
100
AcDbMText
 10
78.20831848113133
 20
52.09574745309958
 30
0
 40
0.1
 41
0.7861111111111221
 71
    1
 72
    1
  1
vertical 2x6\P
  7
STANDARD
210
0
220
0
230
1
 50
90
 73
    2
 44
1
  0
LINE
  5
1CD
100
AcDbEntity
  8
0
  6
ByLayer
 62
  256
370
   -1
100
AcDbLine
 10
72.64495837863672
 20
50.93846050841972
 11
79.14495837863672
 21
50.93846050841972
  0
LINE
  5
1CE
100
AcDbEntity
  8
0
  6
ByLayer
 62
  256
370
   -1
100
AcDbLine
 10
72.64495837863672
 20
50.43846050841972
 11
79.14495837863672
 21
50.43846050841972
  0
LWPOLYLINE
  5
1CF
100
AcDbEntity
  8
0
  6
ByLayer
 62
  256
370
   -1
100
AcDbPolyline
 90
    4
 70
    1
 43
0
 10
79.29495837863672
 20
50.93846050841972
 10
78.99495837863671
 20
50.93846050841972
 10
78.99495837863671
 20
50.43846050841972
 10
79.29495837863672
 20
50.43846050841972
  0
LWPOLYLINE
  5
1D0
100
AcDbEntity
  8
0
  6
ByLayer
 62
  256
370
   -1
100
AcDbPolyline
 90
    4
 70
    1
 43
0
 10
78.99495837863671
 20
50.43846050841972
 10
85.64495837863672
 20
50.43846050841972
 10
85.64495837863672
 20
50.93846050841972
 10
78.99495837863671
 20
50.93846050841972
  0
LWPOLYLINE
  5
1D1
100
AcDbEntity
  8
0
  6
ByLayer
 62
  256
370
   -1
100
AcDbPolyline
 90
    4
 70
    1
 43
0
 10
75.14495837863672
 20
50.43846050841972
 10
75.44495837863673
 20
50.43846050841972
 10
75.44495837863673
 20
50.93846050841972
 10
75.14495837863672
 20
50.93846050841972
  0
LWPOLYLINE
  5
1D2
100
AcDbEntity
  8
0
  6
DASHEDTINY
 62
  256
370
   -1
100
AcDbPolyline
 90
    4
 70
    1
 43
0
 10
83.14495837863672
 20
50.93846050841972
 10
82.84495837863673
 20
50.93846050841972
 10
82.84495837863673
 20
50.43846050841972
 10
83.14495837863672
 20
50.43846050841972
  0
LINE
  5
1D3
100
AcDbEntity
  8
0
  6
ByLayer
 62
  256
370
   -1
100
AcDbLine
 10
73.14495837863672
 20
50.43846050841972
 11
73.14495837863672
 21
50.93846050841972
  0
LINE
  5
1D4
100
AcDbEntity
  8
0
  6
ByLayer
 62
  256
370
   -1
100
AcDbLine
 10
74.72795837863671
 20
50.43846050841972
 11
74.72795837863671
 21
50.93846050841972
  0
LINE
  5
1D5
100
AcDbEntity
  8
0
  6
ByLayer
 62
  256
370
   -1
100
AcDbLine
 10
76.47795837863671
 20
50.43846050841972
 11
76.47795837863671
 21
50.93846050841972
  0
LINE
  5
1D6
100
AcDbEntity
  8
0
  6
ByLayer
 62
  256
370
   -1
100
AcDbLine
 10
77.81095837863671
 20
50.43846050841972
 11
77.81095837863671
 21
50.93846050841972
  0
LINE
  5
1D7
100
AcDbEntity
  8
0
  6
ByLayer
 62
  256
370
   -1
100
AcDbLine
 10
80.47795837863671
 20
50.43846050841972
 11
80.47795837863671
 21
50.93846050841972
  0
LINE
  5
1D8
100
AcDbEntity
  8
0
  6
ByLayer
 62
  256
370
   -1
100
AcDbLine
 10
81.81095837863671
 20
50.43846050841972
 11
81.81095837863671
 21
50.93846050841972
  0
LINE
  5
1D9
100
AcDbEntity
  8
0
  6
ByLayer
 62
  256
370
   -1
100
AcDbLine
 10
83.56095837863671
 20
50.43846050841972
 11
83.56095837863671
 21
50.93846050841972
  0
LINE
  5
1DA
100
AcDbEntity
  8
0
  6
ByLayer
 62
  256
370
   -1
100
AcDbLine
 10
85.14495837863672
 20
50.43846050841972
 11
85.14495837863672
 21
50.93846050841972
  0
LINE
  5
1DB
100
AcDbEntity
  8
0
  6
ByLayer
 62
  256
370
   -1
100
AcDbLine
 10
72.64443788526569
 20
50.43994125374491
 11
72.64443788526569
 21
50.93994125374491
  0
LINE
  5
1DC
100
AcDbEntity
  8
0
  6
ByLayer
 62
  256
370
   -1
100
AcDbLine
 10
72.18799857594053
 20
51.2435201114663
 11
72.61217362766645
 21
50.97083614964249
  0
LINE
  5
1DD
100
AcDbEntity
  8
0
  6
ByLayer
 62
  256
370
   -1
100
AcDbLine
 10
73.15754155131407
 20
51.04153199159681
 11
73.15754155131407
 21
51.7181921931596
  0
LINE
  5
1DE
100
AcDbEntity
  8
0
  6
ByLayer
 62
  256
370
   -1
100
AcDbLine
 10
74.73304888629609
 20
51.03143258560333
 11
74.73304888629609
 21
51.74849041114003
  0
LINE
  5
1DF
100
AcDbEntity
  8
0
  6
ByLayer
 62
  256
370
   -1
100
AcDbLine
 10
75.26831740395023
 20
51.65759575719876
 11
75.28851621593719
 21
51.07183020957724
  0
LINE
  5
1E0
100
AcDbEntity
  8
0
  6
ByLayer
 62
  256
370
   -1
100
AcDbLine
 10
76.50044493515412
 20
51.14252605153155
 11
76.51054434114761
 21
51.74849041114003
  0
LINE
  5
1E1
100
AcDbEntity
  8
0
  6
ByLayer
 62
  256
370
   -1
100
AcDbLine
 10
77.8133677143058
 20
51.18292367550546
 11
77.82346712029928
 21
51.7989874411074
  0
LINE
  5
1E2
100
AcDbEntity
  8
0
  6
ByLayer
 62
  256
370
   -1
100
AcDbLine
 10
79.11619108746402
 20
51.11222783355113
 11
79.10609168147053
 21
51.77878862912045
  0
LINE
  5
1E3
100
AcDbEntity
  8
0
  6
ByLayer
 62
  256
370
   -1
100
AcDbLine
 10
80.49980970857001
 20
51.13242664553808
 11
80.49980970857001
 21
51.74849041114003
  0
LINE
  5
1E4
100
AcDbEntity
  8
0
  6
ByLayer
 62
  256
370
   -1
100
AcDbLine
 10
81.81273248772169
 20
51.11222783355113
 11
81.80263308172823
 21
51.7585898171335
  0
LINE
  5
1E5
100
AcDbEntity
  8
0
  6
ByLayer
 62
  256
370
   -1
100
AcDbLine
 10
82.97416417697127
 20
51.13242664553808
 11
82.95396536498433
 21
51.85958387706825
  0
LINE
  5
1E6
100
AcDbEntity
  8
0
  6
ByLayer
 62
  256
370
   -1
100
AcDbLine
 10
83.55992972459279
 20
51.11222783355113
 11
83.52963150661236
 21
51.87978268905519
  0
LINE
  5
1E7
100
AcDbEntity
  8
0
  6
ByLayer
 62
  256
370
   -1
100
AcDbLine
 10
85.14553646556828
 20
51.13242664553808
 11
85.1354370595748
 21
51.8393850650813
  0
MTEXT
  5
1E8
100
AcDbEntity
  8
0
  6
ByLayer
 62
  256
370
   -1
100
AcDbMText
 10
83.62052616055362
 20
51.23342070547282
 30
0
 40
0.1
 41
0.7861111111111221
 71
    1
 72
    1
  1
vertical 2x6\P
  7
STANDARD
210
0
220
0
230
1
 50
90
 73
    2
 44
1
  0
MTEXT
  5
1E9
100
AcDbEntity
  8
0
  6
ByLayer
 62
  256
370
   -1
100
AcDbMText
 10
81.91372654765644
 20
51.15262545752503
 30
0
 40
0.1
 41
0.7861111111111221
 71
    1
 72
    1
  1
vertical 2x6\P
  7
STANDARD
210
0
220
0
230
1
 50
90
 73
    2
 44
1
  0
MTEXT
  5
1EA
100
AcDbEntity
  8
0
  6
ByLayer
 62
  256
370
   -1
100
AcDbMText
 10
80.5907043625113
 20
51.10212842755766
 30
0
 40
0.1
 41
0.7861111111111221
 71
    1
 72
    1
  1
vertical 2x6\P
  7
STANDARD
210
0
220
0
230
1
 50
90
 73
    2
 44
1
  0
MTEXT
  5
1EB
100
AcDbEntity
  8
0
  6
ByLayer
 62
  256
370
   -1
100
AcDbMText
 10
77.97495821020141
 20
51.06173080358376
 30
0
 40
0.1
 41
0.7861111111111221
 71
    1
 72
    1
  1
vertical 2x6\P
  7
STANDARD
210
0
220
0
230
1
 50
90
 73
    2
 44
1
  0
MTEXT
  5
1EC
100
AcDbEntity
  8
0
  6
ByLayer
 62
  256
370
   -1
100
AcDbMText
 10
76.61153840108234
 20
51.13242664553808
 30
0
 40
0.1
 41
0.7861111111111221
 71
    1
 72
    1
  1
vertical 2x6\P
  7
STANDARD
210
0
220
0
230
1
 50
90
 73
    2
 44
1
  0
MTEXT
  5
1ED
100
AcDbEntity
  8
0
  6
ByLayer
 62
  256
370
   -1
100
AcDbMText
 10
74.54116017242006
 20
51.14252605153155
 30
0
 40
0.1
 41
0.7861111111111221
 71
    1
 72
    1
  1
vertical 2x6\P
  7
STANDARD
210
0
220
0
230
1
 50
90
 73
    2
 44
1
  0
MTEXT
  5
1EE
100
AcDbEntity
  8
0
  6
ByLayer
 62
  256
370
   -1
100
AcDbMText
 10
72.99595105541849
 20
51.09202902156418
 30
0
 40
0.1
 41
0.7861111111111221
 71
    1
 72
    1
  1
vertical 2x6\P
  7
STANDARD
210
0
220
0
230
1
 50
90
 73
    2
 44
1
  0
LINE
  5
1EF
100
AcDbEntity
  8
0
  6
ByLayer
 62
  256
370
   -1
100
AcDbLine
 10
85.70100379520937
 20
50.96073674364902
 11
86.52915508667428
 21
51.45560763732927
  0
MTEXT
  5
1F0
100
AcDbEntity
  8
0
  6
ByLayer
 62
  256
370
   -1
100
AcDbMText
 10
79.21718514739877
 20
51.33441476540757
 30
0
 40
0.1
 41
0.7861111111111282
 71
    1
 72
    1
  1
vertical 6x6\P
  7
STANDARD
210
0
220
0
230
1
 50
90
 73
    2
 44
1
  0
MTEXT
  5
1F1
100
AcDbEntity
  8
0
  6
ByLayer
 62
  256
370
   -1
100
AcDbMText
 10
83.01456180094516
 20
51.17282426951198
 30
0
 40
0.1
 41
1.205555555555581
 71
    1
 72
    1
  1
vertical 4x6 beam\P\P
  7
STANDARD
210
0
220
0
230
1
 50
90
 73
    2
 44
1
  0
MTEXT
  5
1F2
100
AcDbEntity
  8
0
  6
ByLayer
 62
  256
370
   -1
100
AcDbMText
 10
75.40970908785889
 20
51.48590585530969
 30
0
 40
0.1
 41
1.205555555555581
 71
    1
 72
    1
  1
vertical 4x6 beam\P\P
  7
STANDARD
210
0
220
0
230
1
 50
90
 73
    2
 44
1
  0
MTEXT
  5
1F3
100
AcDbEntity
  8
0
  6
ByLayer
 62
  256
370
   -1
100
AcDbMText
 10
86.23627231286352
 20
51.02133317960986
 30
0
 40
0.1
 41
0.7305556069842847
 71
    1
 72
    1
  1
2x10 fascia\P\P
  7
STANDARD
210
0
220
0
230
1
 50
45
 73
    2
 44
1
  0
MTEXT
  5
1F4
100
AcDbEntity
  8
0
  6
ByLayer
 62
  256
370
   -1
100
AcDbMText
 10
71.89511580212977
 20
51.30411654742715
 30
0
 40
0.1
 41
0.7305556069842847
 71
    1
 72
    1
  1
2x10 fascia\P\P
  7
STANDARD
210
0
220
0
230
1
 50
315
 73
    2
 44
1
  0
LINE
  5
1F5
100
AcDbEntity
  8
0
  6
ByLayer
 62
  256
370
   -1
100
AcDbLine
 10
79.1262904934575
 20
50.08208842221674
 11
79.1262904934575
 21
49.58208842221674
  0
LINE
  5
1F6
100
AcDbEntity
  8
0
  6
ByLayer
 62
  256
370
   -1
100
AcDbLine
 10
77.82346712029928
 20
50.03159139224936
 11
77.82346712029928
 21
49.53159139224936
  0
LINE
  5
1F7
100
AcDbEntity
  8
0
  6
ByLayer
 62
  256
370
   -1
100
AcDbLine
 10
76.48024612316718
 20
50.01139258026241
 11
76.48024612316718
 21
49.51139258026241
  0
LINE
  5
1F8
100
AcDbEntity
  8
0
  6
ByLayer
 62
  256
370
   -1
100
AcDbLine
 10
75.27841680994371
 20
49.92049792632114
 11
75.27841680994371
 21
49.42049792632114
  0
LINE
  5
1F9
100
AcDbEntity
  8
0
  6
ByLayer
 62
  256
370
   -1
100
AcDbLine
 10
74.73304888629609
 20
49.89019970834072
 11
74.73304888629609
 21
49.39019970834072
  0
LINE
  5
1FA
100
AcDbEntity
  8
0
  6
ByLayer
 62
  256
370
   -1
100
AcDbLine
 10
73.15754155131407
 20
50.01139258026241
 11
73.15754155131407
 21
49.51139258026241
  0
LINE
  5
1FB
100
AcDbEntity
  8
0
  6
ByLayer
 62
  256
370
   -1
100
AcDbLine
 10
72.64247184564687
 20
49.98109436228199
 11
72.64247184564687
 21
49.48109436228199
  0
LINE
  5
1FC
100
AcDbEntity
  8
0
  6
ByLayer
 62
  256
370
   -1
100
AcDbLine
 10
81.83293129970866
 20
50.07198901622326
 11
81.83293129970866
 21
49.57198901622326
  0
LINE
  5
1FD
100
AcDbEntity
  8
0
  6
ByLayer
 62
  256
370
   -1
100
AcDbLine
 10
85.15563587156174
 20
50.03159139224936
 11
85.15563587156174
 21
49.53159139224936
  0
LINE
  5
1FE
100
AcDbEntity
  8
0
  6
ByLayer
 62
  256
370
   -1
100
AcDbLine
 10
85.67070557722894
 20
50.02149198625589
 11
85.67070557722894
 21
49.52149198625589
  0
LINE
  5
1FF
100
AcDbEntity
  8
0
  6
ByLayer
 62
  256
370
   -1
100
AcDbLine
 10
80.48971030257655
 20
50.08208842221674
 11
80.48971030257655
 21
49.58208842221674
  0
LINE
  5
200
100
AcDbEntity
  8
0
  6
ByLayer
 62
  256
370
   -1
100
AcDbLine
 10
72.66267065763381
 20
49.76900683641902
 11
79.14648930544445
 21
49.84980208436682
  0
LINE
  5
201
100
AcDbEntity
  8
0
  6
ByLayer
 62
  256
370
   -1
100
AcDbLine
 10
79.14648930544445
 20
49.84980208436682
 11
85.68080498322243
 21
49.8195038663864
  0
LINE
  5
202
100
AcDbEntity
  8
0
  6
ByLayer
 62
  256
370
   -1
100
AcDbLine
 10
82.97416417697127
 20
50.07198901622326
 11
82.97416417697127
 21
49.57198901622326
  0
LINE
  5
203
100
AcDbEntity
  8
0
  6
ByLayer
 62
  256
370
   -1
100
AcDbLine
 10
83.58012853657974
 20
50.11238664019716
 11
83.58012853657974
 21
49.61238664019716
  0
MTEXT
  5
204
100
AcDbEntity
  8
0
  6
ByLayer
 62
  256
370
   -1
100
AcDbMText
 10
78.35873563795343
 20
49.29433475472572
 30
0
 40
0.3
 41
0.5166666666666853
 71
    1
 72
    1
  1
16"\P\P\P
  7
STANDARD
210
0
220
0
230
1
 50
90
 73
    2
 44
1
  0
MTEXT
  5
205
100
AcDbEntity
  8
0
  6
ByLayer
 62
  256
370
   -1
100
AcDbMText
 10
77.12660810674953
 20
49.23373831876488
 30
0
 40
0.3
 41
0.5166666666666853
 71
    1
 72
    1
  1
16"\P\P\P
  7
STANDARD
210
0
220
0
230
1
 50
90
 73
    2
 44
1
  0
MTEXT
  5
206
100
AcDbEntity
  8
0
  6
ByLayer
 62
  256
370
   -1
100
AcDbMText
 10
79.84334831899417
 20
49.25393713075183
 30
0
 40
0.3
 41
0.5166666666666853
 71
    1
 72
    1
  1
16"\P\P\P
  7
STANDARD
210
0
220
0
230
1
 50
90
 73
    2
 44
1
  0
MTEXT
  5
207
100
AcDbEntity
  8
0
  6
ByLayer
 62
  256
370
   -1
100
AcDbMText
 10
81.13607228615891
 20
49.23373831876488
 30
0
 40
0.3
 41
0.5166666666666853
 71
    1
 72
    1
  1
16"\P\P\P
  7
STANDARD
210
0
220
0
230
1
 50
90
 73
    2
 44
1
  0
MTEXT
  5
208
100
AcDbEntity
  8
0
  6
ByLayer
 62
  256
370
   -1
100
AcDbMText
 10
75.9146793875326
 20
49.23373831876488
 30
0
 40
0.3
 41
0.5166666666666853
 71
    1
 72
    1
  1
16"\P\P\P
  7
STANDARD
210
0
220
0
230
1
 50
90
 73
    2
 44
1
  0
MTEXT
  5
209
100
AcDbEntity
  8
0
  6
ByLayer
 62
  256
370
   -1
100
AcDbMText
 10
82.53988971925187
 20
49.1832412887975
 30
0
 40
0.3
 41
0.5166666666666853
 71
    1
 72
    1
  1
16"\P\P\P
  7
STANDARD
210
0
220
0
230
1
 50
90
 73
    2
 44
1
  0
MTEXT
  5
20A
100
AcDbEntity
  8
0
  6
ByLayer
 62
  256
370
   -1
100
AcDbMText
 10
83.34784219872984
 20
49.17314188280403
 30
0
 40
0.3
 41
0.3500000000000186
 71
    1
 72
    1
  1
5"\P\P\P
  7
STANDARD
210
0
220
0
230
1
 50
90
 73
    2
 44
1
  0
MTEXT
  5
20B
100
AcDbEntity
  8
0
  6
ByLayer
 62
  256
370
   -1
100
AcDbMText
 10
74.79364532225694
 20
49.17314188280403
 30
0
 40
0.3
 41
0.3500000000000186
 71
    1
 72
    1
  1
5"\P\P\P
  7
STANDARD
210
0
220
0
230
1
 50
90
 73
    2
 44
1
  0
MTEXT
  5
20C
100
AcDbEntity
  8
0
  6
ByLayer
 62
  256
370
   -1
100
AcDbMText
 10
73.7029094749617
 20
49.10244604084971
 30
0
 40
0.3
 41
0.5166666666666667
 71
    1
 72
    1
  1
19"\P\P\P
  7
STANDARD
210
0
220
0
230
1
 50
90
 73
    2
 44
1
  0
MTEXT
  5
20D
100
AcDbEntity
  8
0
  6
ByLayer
 62
  256
370
   -1
100
AcDbMText
 10
84.34768339208381
 20
49.1832412887975
 30
0
 40
0.3
 41
0.5166666666666667
 71
    1
 72
    1
  1
19"\P\P\P
  7
STANDARD
210
0
220
0
230
1
 50
90
 73
    2
 44
1
  0
MTEXT
  5
20E
100
AcDbEntity
  8
0
  6
ByLayer
 62
  256
370
   -1
100
AcDbMText
 10
85.30712696146387
 20
49.2640365367453
 30
0
 40
0.3
 41
0.3500000000000186
 71
    1
 72
    1
  1
6"\P\P\P
  7
STANDARD
210
0
220
0
230
1
 50
90
 73
    2
 44
1
  0
MTEXT
  5
20F
100
AcDbEntity
  8
0
  6
ByLayer
 62
  256
370
   -1
100
AcDbMText
 10
72.71316768760119
 20
49.21353950677793
 30
0
 40
0.3
 41
0.3500000000000186
 71
    1
 72
    1
  1
6"\P\P\P
  7
STANDARD
210
0
220
0
230
1
 50
90
 73
    2
 44
1
  0
LINE
  5
210
100
AcDbEntity
  8
0
  6
ByLayer
 62
  256
370
   -1
100
AcDbLine
 10
87.02402598035454
 20
50.94053793166206
 11
86.52402598035454
 21
50.94053793166206
  0
LINE
  5
211
100
AcDbEntity
  8
0
  6
ByLayer
 62
  256
370
   -1
100
AcDbLine
 10
87.06442360432843
 20
50.42546822599487
 11
86.56442360432843
 21
50.42546822599487
  0
MTEXT
  5
212
100
AcDbEntity
  8
0
  6
ByLayer
 62
  256
370
   -1
100
AcDbMText
 10
87.3977040021131
 20
51.03143258560333
 30
0
 40
0.15
 41
0.3083333333333427
 71
    1
 72
    1
  1
1.5"\P\P\P
  7
STANDARD
210
0
220
0
230
1
 50
0
 73
    2
 44
1
  0
MTEXT
  5
213
100
AcDbEntity
  8
0
  6
ByLayer
 62
  256
370
   -1
100
AcDbMText
 10
87.43810162608699
 20
50.46586584996876
 30
0
 40
0.15
 41
0.3083333333333427
 71
    1
 72
    1
  1
1.5"\P\P\P
  7
STANDARD
210
0
220
0
230
1
 50
0
 73
    2
 44
1
  0
MTEXT
  5
214
100
AcDbEntity
  8
0
  6
ByLayer
 62
  256
370
   -1
100
AcDbMText
 10
87.38760459611962
 20
50.768848029773
 30
0
 40
0.15
 41
0.3416666666666853
 71
    1
 72
    1
  1
5.5"\P\P\P
  7
STANDARD
210
0
220
0
230
1
 50
0
 73
    2
 44
1
  0
LINE
  5
215
100
AcDbEntity
  8
0
  6
ByLayer
 62
  256
370
   -1
100
AcDbLine
 10
86.79173964250461
 20
50.93043852566859
 11
86.79173964250461
 21
50.43043852566859
  0
MTEXT
  5
216
100
AcDbEntity
  8
0
  6
ByLayer
 62
  256
370
   -1
100
AcDbMText
 10
85.23643111950955
 20
51.21322189348588
 30
0
 40
0.1
 41
0.7861111111111221
 71
    1
 72
    1
  1
vertical 2x6\P
  7
STANDARD
210
0
220
0
230
1
 50
90
 73
    2
 44
1
  0
LINE
  5
217
100
AcDbEntity
  8
0
  6
ByLayer
 62
  256
370
   -1
100
AcDbLine
 10
70.76190550644992
 20
54.68009779289733
 11
77.26190550644992
 21
54.68009779289733
  0
LINE
  5
218
100
AcDbEntity
  8
0
  6
ByLayer
 62
  256
370
   -1
100
AcDbLine
 10
70.76190550644992
 20
54.18009779289733
 11
77.26190550644992
 21
54.18009779289733
  0
LWPOLYLINE
  5
219
100
AcDbEntity
  8
0
  6
ByLayer
 62
  256
370
   -1
100
AcDbPolyline
 90
    4
 70
    1
 43
0
 10
77.41190550644993
 20
54.68009779289733
 10
77.11190550644992
 20
54.68009779289733
 10
77.11190550644992
 20
54.18009779289733
 10
77.41190550644993
 20
54.18009779289733
  0
LWPOLYLINE
  5
21A
100
AcDbEntity
  8
0
  6
ByLayer
 62
  256
370
   -1
100
AcDbPolyline
 90
    4
 70
    1
 43
0
 10
77.11190550644992
 20
54.18009779289733
 10
83.76190550644992
 20
54.18009779289733
 10
83.76190550644992
 20
54.68009779289733
 10
77.11190550644992
 20
54.68009779289733
  0
LWPOLYLINE
  5
21B
100
AcDbEntity
  8
0
  6
ByLayer
 62
  256
370
   -1
100
AcDbPolyline
 90
    4
 70
    1
 43
0
 10
73.26190550644992
 20
54.18009779289733
 10
73.56190550644993
 20
54.18009779289733
 10
73.56190550644993
 20
54.68009779289733
 10
73.26190550644992
 20
54.68009779289733
  0
LWPOLYLINE
  5
21C
100
AcDbEntity
  8
0
  6
DASHEDTINY
 62
  256
370
   -1
100
AcDbPolyline
 90
    4
 70
    1
 43
0
 10
81.26190550644992
 20
54.68009779289733
 10
80.96190550644994
 20
54.68009779289733
 10
80.96190550644994
 20
54.18009779289733
 10
81.26190550644992
 20
54.18009779289733
  0
LINE
  5
21D
100
AcDbEntity
  8
0
  6
ByLayer
 62
  256
370
   -1
100
AcDbLine
 10
71.26190550644992
 20
54.18009779289733
 11
71.26190550644992
 21
54.68009779289733
  0
LINE
  5
21E
100
AcDbEntity
  8
0
  6
ByLayer
 62
  256
370
   -1
100
AcDbLine
 10
72.84490550644992
 20
54.18009779289733
 11
72.84490550644992
 21
54.68009779289733
  0
LINE
  5
21F
100
AcDbEntity
  8
0
  6
ByLayer
 62
  256
370
   -1
100
AcDbLine
 10
74.59490550644992
 20
54.18009779289733
 11
74.59490550644992
 21
54.68009779289733
  0
LINE
  5
220
100
AcDbEntity
  8
0
  6
ByLayer
 62
  256
370
   -1
100
AcDbLine
 10
75.92790550644992
 20
54.18009779289733
 11
75.92790550644992
 21
54.68009779289733
  0
LINE
  5
221
100
AcDbEntity
  8
0
  6
ByLayer
 62
  256
370
   -1
100
AcDbLine
 10
78.59490550644992
 20
54.18009779289733
 11
78.59490550644992
 21
54.68009779289733
  0
LINE
  5
222
100
AcDbEntity
  8
0
  6
ByLayer
 62
  256
370
   -1
100
AcDbLine
 10
79.92790550644992
 20
54.18009779289733
 11
79.92790550644992
 21
54.68009779289733
  0
LINE
  5
223
100
AcDbEntity
  8
0
  6
ByLayer
 62
  256
370
   -1
100
AcDbLine
 10
81.67790550644992
 20
54.18009779289733
 11
81.67790550644992
 21
54.68009779289733
  0
LINE
  5
224
100
AcDbEntity
  8
0
  6
ByLayer
 62
  256
370
   -1
100
AcDbLine
 10
83.26190550644992
 20
54.18009779289733
 11
83.26190550644992
 21
54.68009779289733
  0
LINE
  5
225
100
AcDbEntity
  8
0
  6
ByLayer
 62
  256
370
   -1
100
AcDbLine
 10
70.76138501307889
 20
54.18157853822252
 11
70.76138501307889
 21
54.68157853822252
  0
LINE
  5
226
100
AcDbEntity
  8
0
  6
ByLayer
 62
  256
370
   -1
100
AcDbLine
 10
70.30494570375373
 20
54.98515739594392
 11
70.72912075547966
 21
54.7124734341201
  0
LINE
  5
227
100
AcDbEntity
  8
0
  6
ByLayer
 62
  256
370
   -1
100
AcDbLine
 10
71.27448867912727
 20
54.78316927607442
 11
71.27448867912727
 21
55.45982947763721
  0
LINE
  5
228
100
AcDbEntity
  8
0
  6
ByLayer
 62
  256
370
   -1
100
AcDbLine
 10
72.84999601410929
 20
54.77306987008095
 11
72.84999601410929
 21
55.49012769561764
  0
LINE
  5
229
100
AcDbEntity
  8
0
  6
ByLayer
 62
  256
370
   -1
100
AcDbLine
 10
73.38526453176344
 20
55.39923304167637
 11
73.4054633437504
 21
54.81346749405485
  0
LINE
  5
22A
100
AcDbEntity
  8
0
  6
ByLayer
 62
  256
370
   -1
100
AcDbLine
 10
74.61739206296733
 20
54.88416333600917
 11
74.62749146896081
 21
55.49012769561764
  0
LINE
  5
22B
100
AcDbEntity
  8
0
  6
ByLayer
 62
  256
370
   -1
100
AcDbLine
 10
75.930314842119
 20
54.92456095998307
 11
75.94041424811249
 21
55.54062472558501
  0
LINE
  5
22C
100
AcDbEntity
  8
0
  6
ByLayer
 62
  256
370
   -1
100
AcDbLine
 10
77.23313821527722
 20
54.85386511802874
 11
77.22303880928374
 21
55.52042591359806
  0
LINE
  5
22D
100
AcDbEntity
  8
0
  6
ByLayer
 62
  256
370
   -1
100
AcDbLine
 10
78.61675683638322
 20
54.87406393001569
 11
78.61675683638322
 21
55.49012769561764
  0
LINE
  5
22E
100
AcDbEntity
  8
0
  6
ByLayer
 62
  256
370
   -1
100
AcDbLine
 10
79.92967961553489
 20
54.85386511802874
 11
79.91958020954144
 21
55.50022710161111
  0
LINE
  5
22F
100
AcDbEntity
  8
0
  6
ByLayer
 62
  256
370
   -1
100
AcDbLine
 10
81.09111130478448
 20
54.87406393001569
 11
81.07091249279753
 21
55.60122116154586
  0
LINE
  5
230
100
AcDbEntity
  8
0
  6
ByLayer
 62
  256
370
   -1
100
AcDbLine
 10
81.676876852406
 20
54.85386511802874
 11
81.64657863442557
 21
55.6214199735328
  0
LINE
  5
231
100
AcDbEntity
  8
0
  6
ByLayer
 62
  256
370
   -1
100
AcDbLine
 10
83.26248359338149
 20
54.87406393001569
 11
83.252384187388
 21
55.58102234955891
  0
MTEXT
  5
232
100
AcDbEntity
  8
0
  6
ByLayer
 62
  256
370
   -1
100
AcDbMText
 10
81.73747328836683
 20
54.97505798995044
 30
0
 40
0.1
 41
0.7861111111111221
 71
    1
 72
    1
  1
vertical 2x6\P
  7
STANDARD
210
0
220
0
230
1
 50
90
 73
    2
 44
1
  0
MTEXT
  5
233
100
AcDbEntity
  8
0
  6
ByLayer
 62
  256
370
   -1
100
AcDbMText
 10
80.03067367546964
 20
54.89426274200264
 30
0
 40
0.1
 41
0.7861111111111221
 71
    1
 72
    1
  1
vertical 2x6\P
  7
STANDARD
210
0
220
0
230
1
 50
90
 73
    2
 44
1
  0
MTEXT
  5
234
100
AcDbEntity
  8
0
  6
ByLayer
 62
  256
370
   -1
100
AcDbMText
 10
78.70765149032451
 20
54.84376571203527
 30
0
 40
0.1
 41
0.7861111111111221
 71
    1
 72
    1
  1
vertical 2x6\P
  7
STANDARD
210
0
220
0
230
1
 50
90
 73
    2
 44
1
  0
MTEXT
  5
235
100
AcDbEntity
  8
0
  6
ByLayer
 62
  256
370
   -1
100
AcDbMText
 10
76.09190533801461
 20
54.80336808806137
 30
0
 40
0.1
 41
0.7861111111111221
 71
    1
 72
    1
  1
vertical 2x6\P
  7
STANDARD
210
0
220
0
230
1
 50
90
 73
    2
 44
1
  0
MTEXT
  5
236
100
AcDbEntity
  8
0
  6
ByLayer
 62
  256
370
   -1
100
AcDbMText
 10
74.72848552889555
 20
54.87406393001569
 30
0
 40
0.1
 41
0.7861111111111221
 71
    1
 72
    1
  1
vertical 2x6\P
  7
STANDARD
210
0
220
0
230
1
 50
90
 73
    2
 44
1
  0
MTEXT
  5
237
100
AcDbEntity
  8
0
  6
ByLayer
 62
  256
370
   -1
100
AcDbMText
 10
72.65810730023327
 20
54.88416333600917
 30
0
 40
0.1
 41
0.7861111111111221
 71
    1
 72
    1
  1
vertical 2x6\P
  7
STANDARD
210
0
220
0
230
1
 50
90
 73
    2
 44
1
  0
MTEXT
  5
238
100
AcDbEntity
  8
0
  6
ByLayer
 62
  256
370
   -1
100
AcDbMText
 10
71.11289818323169
 20
54.83366630604179
 30
0
 40
0.1
 41
0.7861111111111221
 71
    1
 72
    1
  1
vertical 2x6\P
  7
STANDARD
210
0
220
0
230
1
 50
90
 73
    2
 44
1
  0
LINE
  5
239
100
AcDbEntity
  8
0
  6
ByLayer
 62
  256
370
   -1
100
AcDbLine
 10
83.81795092302258
 20
54.70237402812663
 11
84.64610221448748
 21
55.19724492180688
  0
MTEXT
  5
23A
100
AcDbEntity
  8
0
  6
ByLayer
 62
  256
370
   -1
100
AcDbMText
 10
77.33413227521197
 20
55.07605204988518
 30
0
 40
0.1
 41
0.7861111111111282
 71
    1
 72
    1
  1
vertical 6x6\P
  7
STANDARD
210
0
220
0
230
1
 50
90
 73
    2
 44
1
  0
MTEXT
  5
23B
100
AcDbEntity
  8
0
  6
ByLayer
 62
  256
370
   -1
100
AcDbMText
 10
81.13150892875836
 20
54.91446155398959
 30
0
 40
0.1
 41
1.205555555555581
 71
    1
 72
    1
  1
vertical 4x6 beam\P\P
  7
STANDARD
210
0
220
0
230
1
 50
90
 73
    2
 44
1
  0
MTEXT
  5
23C
100
AcDbEntity
  8
0
  6
ByLayer
 62
  256
370
   -1
100
AcDbMText
 10
73.52665621567209
 20
55.2275431397873
 30
0
 40
0.1
 41
1.205555555555581
 71
    1
 72
    1
  1
vertical 4x6 beam\P\P
  7
STANDARD
210
0
220
0
230
1
 50
90
 73
    2
 44
1
  0
MTEXT
  5
23D
100
AcDbEntity
  8
0
  6
ByLayer
 62
  256
370
   -1
100
AcDbMText
 10
84.35321944067672
 20
54.76297046408747
 30
0
 40
0.1
 41
0.7305556069842847
 71
    1
 72
    1
  1
2x10 fascia\P\P
  7
STANDARD
210
0
220
0
230
1
 50
45
 73
    2
 44
1
  0
MTEXT
  5
23E
100
AcDbEntity
  8
0
  6
ByLayer
 62
  256
370
   -1
100
AcDbMText
 10
70.01206292994297
 20
55.04575383190476
 30
0
 40
0.1
 41
0.7305556069842847
 71
    1
 72
    1
  1
2x10 fascia\P\P
  7
STANDARD
210
0
220
0
230
1
 50
315
 73
    2
 44
1
  0
LINE
  5
23F
100
AcDbEntity
  8
0
  6
ByLayer
 62
  256
370
   -1
100
AcDbLine
 10
77.24323762127071
 20
53.82372570669435
 11
77.24323762127071
 21
53.32372570669435
  0
LINE
  5
240
100
AcDbEntity
  8
0
  6
ByLayer
 62
  256
370
   -1
100
AcDbLine
 10
75.94041424811249
 20
53.77322867672697
 11
75.94041424811249
 21
53.27322867672697
  0
LINE
  5
241
100
AcDbEntity
  8
0
  6
ByLayer
 62
  256
370
   -1
100
AcDbLine
 10
74.59719325098038
 20
53.75302986474002
 11
74.59719325098038
 21
53.25302986474002
  0
LINE
  5
242
100
AcDbEntity
  8
0
  6
ByLayer
 62
  256
370
   -1
100
AcDbLine
 10
73.39536393775691
 20
53.66213521079875
 11
73.39536393775691
 21
53.16213521079875
  0
LINE
  5
243
100
AcDbEntity
  8
0
  6
ByLayer
 62
  256
370
   -1
100
AcDbLine
 10
72.84999601410929
 20
53.63183699281833
 11
72.84999601410929
 21
53.13183699281833
  0
LINE
  5
244
100
AcDbEntity
  8
0
  6
ByLayer
 62
  256
370
   -1
100
AcDbLine
 10
71.27448867912727
 20
53.75302986474002
 11
71.27448867912727
 21
53.25302986474002
  0
LINE
  5
245
100
AcDbEntity
  8
0
  6
ByLayer
 62
  256
370
   -1
100
AcDbLine
 10
70.75941897346007
 20
53.7227316467596
 11
70.75941897346007
 21
53.2227316467596
  0
LINE
  5
246
100
AcDbEntity
  8
0
  6
ByLayer
 62
  256
370
   -1
100
AcDbLine
 10
79.94987842752187
 20
53.81362630070088
 11
79.94987842752187
 21
53.31362630070088
  0
LINE
  5
247
100
AcDbEntity
  8
0
  6
ByLayer
 62
  256
370
   -1
100
AcDbLine
 10
83.27258299937495
 20
53.77322867672697
 11
83.27258299937495
 21
53.27322867672697
  0
LINE
  5
248
100
AcDbEntity
  8
0
  6
ByLayer
 62
  256
370
   -1
100
AcDbLine
 10
83.78765270504215
 20
53.7631292707335
 11
83.78765270504215
 21
53.2631292707335
  0
LINE
  5
249
100
AcDbEntity
  8
0
  6
ByLayer
 62
  256
370
   -1
100
AcDbLine
 10
78.60665743038976
 20
53.82372570669435
 11
78.60665743038976
 21
53.32372570669435
  0
LINE
  5
24A
100
AcDbEntity
  8
0
  6
ByLayer
 62
  256
370
   -1
100
AcDbLine
 10
70.77961778544702
 20
53.51064412089664
 11
77.26343643325765
 21
53.59143936884443
  0
LINE
  5
24B
100
AcDbEntity
  8
0
  6
ByLayer
 62
  256
370
   -1
100
AcDbLine
 10
77.26343643325765
 20
53.59143936884443
 11
83.79775211103563
 21
53.56114115086401
  0
LINE
  5
24C
100
AcDbEntity
  8
0
  6
ByLayer
 62
  256
370
   -1
100
AcDbLine
 10
81.09111130478448
 20
53.81362630070088
 11
81.09111130478448
 21
53.31362630070088
  0
LINE
  5
24D
100
AcDbEntity
  8
0
  6
ByLayer
 62
  256
370
   -1
100
AcDbLine
 10
81.69707566439294
 20
53.85402392467477
 11
81.69707566439294
 21
53.35402392467477
  0
MTEXT
  5
24E
100
AcDbEntity
  8
0
  6
ByLayer
 62
  256
370
   -1
100
AcDbMText
 10
76.47568276576663
 20
53.03597203920334
 30
0
 40
0.3
 41
0.5166666666666853
 71
    1
 72
    1
  1
16"\P\P\P
  7
STANDARD
210
0
220
0
230
1
 50
90
 73
    2
 44
1
  0
MTEXT
  5
24F
100
AcDbEntity
  8
0
  6
ByLayer
 62
  256
370
   -1
100
AcDbMText
 10
75.24355523456273
 20
52.97537560324249
 30
0
 40
0.3
 41
0.5166666666666853
 71
    1
 72
    1
  1
16"\P\P\P
  7
STANDARD
210
0
220
0
230
1
 50
90
 73
    2
 44
1
  0
MTEXT
  5
250
100
AcDbEntity
  8
0
  6
ByLayer
 62
  256
370
   -1
100
AcDbMText
 10
77.96029544680738
 20
52.99557441522944
 30
0
 40
0.3
 41
0.5166666666666853
 71
    1
 72
    1
  1
16"\P\P\P
  7
STANDARD
210
0
220
0
230
1
 50
90
 73
    2
 44
1
  0
MTEXT
  5
251
100
AcDbEntity
  8
0
  6
ByLayer
 62
  256
370
   -1
100
AcDbMText
 10
79.25301941397211
 20
52.97537560324249
 30
0
 40
0.3
 41
0.5166666666666853
 71
    1
 72
    1
  1
16"\P\P\P
  7
STANDARD
210
0
220
0
230
1
 50
90
 73
    2
 44
1
  0
MTEXT
  5
252
100
AcDbEntity
  8
0
  6
ByLayer
 62
  256
370
   -1
100
AcDbMText
 10
74.03162651534581
 20
52.97537560324249
 30
0
 40
0.3
 41
0.5166666666666853
 71
    1
 72
    1
  1
16"\P\P\P
  7
STANDARD
210
0
220
0
230
1
 50
90
 73
    2
 44
1
  0
MTEXT
  5
253
100
AcDbEntity
  8
0
  6
ByLayer
 62
  256
370
   -1
100
AcDbMText
 10
80.65683684706508
 20
52.92487857327512
 30
0
 40
0.3
 41
0.5166666666666853
 71
    1
 72
    1
  1
16"\P\P\P
  7
STANDARD
210
0
220
0
230
1
 50
90
 73
    2
 44
1
  0
MTEXT
  5
254
100
AcDbEntity
  8
0
  6
ByLayer
 62
  256
370
   -1
100
AcDbMText
 10
81.46478932654304
 20
52.91477916728164
 30
0
 40
0.3
 41
0.3500000000000186
 71
    1
 72
    1
  1
5"\P\P\P
  7
STANDARD
210
0
220
0
230
1
 50
90
 73
    2
 44
1
  0
MTEXT
  5
255
100
AcDbEntity
  8
0
  6
ByLayer
 62
  256
370
   -1
100
AcDbMText
 10
72.91059245007014
 20
52.91477916728164
 30
0
 40
0.3
 41
0.3500000000000186
 71
    1
 72
    1
  1
5"\P\P\P
  7
STANDARD
210
0
220
0
230
1
 50
90
 73
    2
 44
1
  0
MTEXT
  5
256
100
AcDbEntity
  8
0
  6
ByLayer
 62
  256
370
   -1
100
AcDbMText
 10
71.81985660277491
 20
52.84408332532732
 30
0
 40
0.3
 41
0.5166666666666667
 71
    1
 72
    1
  1
19"\P\P\P
  7
STANDARD
210
0
220
0
230
1
 50
90
 73
    2
 44
1
  0
MTEXT
  5
257
100
AcDbEntity
  8
0
  6
ByLayer
 62
  256
370
   -1
100
AcDbMText
 10
82.46463051989701
 20
52.92487857327512
 30
0
 40
0.3
 41
0.5166666666666667
 71
    1
 72
    1
  1
19"\P\P\P
  7
STANDARD
210
0
220
0
230
1
 50
90
 73
    2
 44
1
  0
MTEXT
  5
258
100
AcDbEntity
  8
0
  6
ByLayer
 62
  256
370
   -1
100
AcDbMText
 10
83.42407408927707
 20
53.00567382122291
 30
0
 40
0.3
 41
0.3500000000000186
 71
    1
 72
    1
  1
6"\P\P\P
  7
STANDARD
210
0
220
0
230
1
 50
90
 73
    2
 44
1
  0
MTEXT
  5
259
100
AcDbEntity
  8
0
  6
ByLayer
 62
  256
370
   -1
100
AcDbMText
 10
70.83011481541439
 20
52.95517679125554
 30
0
 40
0.3
 41
0.3500000000000186
 71
    1
 72
    1
  1
6"\P\P\P
  7
STANDARD
210
0
220
0
230
1
 50
90
 73
    2
 44
1
  0
LINE
  5
25A
100
AcDbEntity
  8
0
  6
ByLayer
 62
  256
370
   -1
100
AcDbLine
 10
85.14097310816774
 20
54.68217521613968
 11
84.64097310816774
 21
54.68217521613968
  0
LINE
  5
25B
100
AcDbEntity
  8
0
  6
ByLayer
 62
  256
370
   -1
100
AcDbLine
 10
85.18137073214163
 20
54.16710551047248
 11
84.68137073214163
 21
54.16710551047248
  0
MTEXT
  5
25C
100
AcDbEntity
  8
0
  6
ByLayer
 62
  256
370
   -1
100
AcDbMText
 10
85.51465112992631
 20
54.77306987008095
 30
0
 40
0.15
 41
0.3083333333333427
 71
    1
 72
    1
  1
1.5"\P\P\P
  7
STANDARD
210
0
220
0
230
1
 50
0
 73
    2
 44
1
  0
MTEXT
  5
25D
100
AcDbEntity
  8
0
  6
ByLayer
 62
  256
370
   -1
100
AcDbMText
 10
85.55504875390019
 20
54.20750313444638
 30
0
 40
0.15
 41
0.3083333333333427
 71
    1
 72
    1
  1
1.5"\P\P\P
  7
STANDARD
210
0
220
0
230
1
 50
0
 73
    2
 44
1
  0
MTEXT
  5
25E
100
AcDbEntity
  8
0
  6
ByLayer
 62
  256
370
   -1
100
AcDbMText
 10
85.50455172393282
 20
54.51048531425061
 30
0
 40
0.15
 41
0.3416666666666853
 71
    1
 72
    1
  1
5.5"\P\P\P
  7
STANDARD
210
0
220
0
230
1
 50
0
 73
    2
 44
1
  0
LINE
  5
25F
100
AcDbEntity
  8
0
  6
ByLayer
 62
  256
370
   -1
100
AcDbLine
 10
84.90868677031781
 20
54.6720758101462
 11
84.90868677031781
 21
54.1720758101462
  0
MTEXT
  5
260
100
AcDbEntity
  8
0
  6
ByLayer
 62
  256
370
   -1
100
AcDbMText
 10
83.35337824732275
 20
54.95485917796349
 30
0
 40
0.1
 41
0.7861111111111221
 71
    1
 72
    1
  1
vertical 2x6\P
  7
STANDARD
210
0
220
0
230
1
 50
90
 73
    2
 44
1
  0
LINE
  5
261
100
AcDbEntity
  8
0
  6
ByLayer
 62
  256
370
   -1
100
AcDbLine
 10
54.27665730247629
 20
50.53448809253585
 11
47.77533448058064
 21
50.96585122913739
  0
LINE
  5
262
100
AcDbEntity
  8
0
  6
ByLayer
 62
  256
370
   -1
100
AcDbLine
 10
41.28045809333095
 20
50.53429681027224
 11
47.78178091522661
 21
50.96565994687379
  0
LINE
  5
263
100
AcDbEntity
  8
0
  6
ByLayer
 62
  256
370
   -1
100
AcDbLine
 10
47.77867508061816
 20
51.5930346987741
 11
47.77867508061816
 21
50.2630346987741
  0
LINE
  5
264
100
AcDbEntity
  8
0
  6
ByLayer
 62
  256
370
   -1
100
AcDbLine
 10
49.14805486637671
 20
49.47291995130853
 11
49.14805486637671
 21
50.08898371691047
  0
LINE
  5
265
100
AcDbEntity
  8
0
  6
ByLayer
 62
  256
370
   -1
100
AcDbLine
 10
50.46097764552839
 20
49.45272113932158
 11
50.45087823953492
 21
50.09908312290394
  0
LINE
  5
266
100
AcDbEntity
  8
0
  6
ByLayer
 62
  256
370
   -1
100
AcDbLine
 10
51.62240933477796
 20
49.47291995130853
 11
51.60221052279101
 21
50.20007718283869
  0
LINE
  5
267
100
AcDbEntity
  8
0
  6
ByLayer
 62
  256
370
   -1
100
AcDbLine
 10
52.20817488239948
 20
49.45272113932158
 11
52.17787666441906
 21
50.22027599482563
  0
MTEXT
  5
268
100
AcDbEntity
  8
0
  6
ByLayer
 62
  256
370
   -1
100
AcDbMText
 10
50.56197170546314
 20
49.49311876329547
 30
0
 40
0.1
 41
0.7861111111111221
 71
    1
 72
    1
  1
vertical 2x6\P
  7
STANDARD
210
0
220
0
230
1
 50
90
 73
    2
 44
1
  0
MTEXT
  5
269
100
AcDbEntity
  8
0
  6
ByLayer
 62
  256
370
   -1
100
AcDbMText
 10
49.23894952031799
 20
49.4426217333281
 30
0
 40
0.1
 41
0.7861111111111221
 71
    1
 72
    1
  1
vertical 2x6\P
  7
STANDARD
210
0
220
0
230
1
 50
90
 73
    2
 44
1
  0
MTEXT
  5
26A
100
AcDbEntity
  8
0
  6
ByLayer
 62
  256
370
   -1
100
AcDbMText
 10
51.74141621243244
 20
48.95343079601351
 30
0
 40
0.1
 41
1.205555555555581
 71
    1
 72
    1
  1
vertical 4x6 beam\P\P
  7
STANDARD
210
0
220
0
230
1
 50
90
 73
    2
 44
1
  0
MTEXT
  5
26B
100
AcDbEntity
  8
0
  6
ByLayer
 62
  256
370
   -1
100
AcDbMText
 10
52.33274250334801
 20
49.22706166450062
 30
0
 40
0.1
 41
0.7861111111111221
 71
    1
 72
    1
  1
vertical 2x6\P
  7
STANDARD
210
0
220
0
230
1
 50
90
 73
    2
 44
1
  0
LINE
  5
26C
100
AcDbEntity
  8
0
  6
ByLayer
 62
  256
370
   -1
100
AcDbLine
 10
41.8331407256397
 20
49.32019194290045
 11
41.8331407256397
 21
49.99685214446324
  0
LINE
  5
26D
100
AcDbEntity
  8
0
  6
ByLayer
 62
  256
370
   -1
100
AcDbLine
 10
43.40864806062172
 20
49.31009253690697
 11
43.40864806062172
 21
50.02715036244366
  0
LINE
  5
26E
100
AcDbEntity
  8
0
  6
ByLayer
 62
  256
370
   -1
100
AcDbLine
 10
45.17604410947975
 20
49.42118600283519
 11
45.18614351547323
 21
50.02715036244366
  0
LINE
  5
26F
100
AcDbEntity
  8
0
  6
ByLayer
 62
  256
370
   -1
100
AcDbLine
 10
46.48896688863144
 20
49.46158362680909
 11
46.49906629462491
 21
50.07764739241104
  0
LINE
  5
270
100
AcDbEntity
  8
0
  6
ByLayer
 62
  256
370
   -1
100
AcDbLine
 10
47.79179026178964
 20
49.39088778485477
 11
47.78169085579617
 21
50.05744858042409
  0
MTEXT
  5
271
100
AcDbEntity
  8
0
  6
ByLayer
 62
  256
370
   -1
100
AcDbMText
 10
46.65055738452703
 20
49.34039075488739
 30
0
 40
0.1
 41
0.7861111111111221
 71
    1
 72
    1
  1
vertical 2x6\P
  7
STANDARD
210
0
220
0
230
1
 50
90
 73
    2
 44
1
  0
MTEXT
  5
272
100
AcDbEntity
  8
0
  6
ByLayer
 62
  256
370
   -1
100
AcDbMText
 10
45.28713757540798
 20
49.41108659684172
 30
0
 40
0.1
 41
0.7861111111111221
 71
    1
 72
    1
  1
vertical 2x6\P
  7
STANDARD
210
0
220
0
230
1
 50
90
 73
    2
 44
1
  0
MTEXT
  5
273
100
AcDbEntity
  8
0
  6
ByLayer
 62
  256
370
   -1
100
AcDbMText
 10
43.2167593467457
 20
49.42118600283519
 30
0
 40
0.1
 41
0.7861111111111221
 71
    1
 72
    1
  1
vertical 2x6\P
  7
STANDARD
210
0
220
0
230
1
 50
90
 73
    2
 44
1
  0
MTEXT
  5
274
100
AcDbEntity
  8
0
  6
ByLayer
 62
  256
370
   -1
100
AcDbMText
 10
41.67155022974411
 20
49.37068897286782
 30
0
 40
0.1
 41
0.7861111111111221
 71
    1
 72
    1
  1
vertical 2x6\P
  7
STANDARD
210
0
220
0
230
1
 50
90
 73
    2
 44
1
  0
MTEXT
  5
275
100
AcDbEntity
  8
0
  6
ByLayer
 62
  256
370
   -1
100
AcDbMText
 10
47.89278432172439
 20
49.21392947034321
 30
0
 40
0.1
 41
0.7861111111111282
 71
    1
 72
    1
  1
vertical 6x6\P
  7
STANDARD
210
0
220
0
230
1
 50
90
 73
    2
 44
1
  0
LINE
  5
276
100
AcDbEntity
  8
0
  6
ByLayer
 62
  256
370
   -1
100
AcDbLine
 10
43.93100747805978
 20
50.15935373059154
 11
43.95120629004673
 21
49.57358818297002
  0
MTEXT
  5
277
100
AcDbEntity
  8
0
  6
ByLayer
 62
  256
370
   -1
100
AcDbMText
 10
44.19154424091092
 20
48.77822046003084
 30
0
 40
0.1
 41
1.205555555555581
 71
    1
 72
    1
  1
vertical 4x6 beam\P\P
  7
STANDARD
210
0
220
0
230
1
 50
90
 73
    2
 44
1
  0
LINE
  5
278
100
AcDbEntity
  8
0
  6
ByLayer
 62
  256
370
   -1
100
AcDbLine
 10
47.79254603351352
 20
50.22385288114866
 11
43.79254603351352
 21
50.22385288114866
  0
LINE
  5
279
100
AcDbEntity
  8
0
  6
ByLayer
 62
  256
370
   -1
100
AcDbLine
 10
47.7826223320946
 20
50.23377658256757
 11
51.7826223320946
 21
50.23377658256757
  0
LWPOLYLINE
  5
27A
100
AcDbEntity
  8
0
  6
ByLayer
 62
  256
370
   -1
100
AcDbPolyline
 90
    4
 70
    1
 43
0
 10
83
 20
30
 10
86
 20
30
 10
86
 20
41
 10
83
 20
41
  0
LWPOLYLINE
  5
27B
100
AcDbEntity
  8
0
  6
ByLayer
 62
  256
370
   -1
100
AcDbPolyline
 90
    4
 70
    1
 43
0
 10
81
 20
41
 10
88
 20
41
 10
88
 20
44
 10
81
 20
44
  0
MTEXT
  5
27C
100
AcDbEntity
  8
0
  6
ByLayer
 62
  256
370
   -1
100
AcDbMText
 10
85.77160566058738
 20
42.66671826921939
 30
0
 40
0.5
 41
1.055555555555555
 71
    1
 72
    1
  1
2x4
  7
STANDARD
210
0
220
0
230
1
 50
0
 73
    2
 44
1
  0
MTEXT
  5
27D
100
AcDbEntity
  8
0
  6
ByLayer
 62
  256
370
   -1
100
AcDbMText
 10
84.34755601360445
 20
36.91574854101909
 30
0
 40
0.5
 41
1.000000000000031
 71
    1
 72
    1
  1
2x6
  7
STANDARD
210
0
220
0
230
1
 50
90
 73
    2
 44
1
  0
LINE
  5
27E
100
AcDbEntity
  8
0
  6
ByLayer
 62
  256
370
   -1
100
AcDbLine
 10
84.71897280855056
 20
44.54305772295132
 11
84.56621267514524
 21
44.37681875424553
  0
LINE
  5
27F
100
AcDbEntity
  8
0
  6
ByLayer
 62
  256
370
   -1
100
AcDbLine
 10
84.56621267514524
 20
44.37681875424553
 11
84.44939610254117
 21
44.52957888765086
  0
MTEXT
  5
280
100
AcDbEntity
  8
0
  6
ByLayer
 62
  256
370
   -1
100
AcDbMText
 10
78.4762282460844
 20
46.85435740491034
 30
0
 40
0.5
 41
14.4305558126993
 71
    1
 72
    1
  1
#9x3" screws 4" from edge\P and 12 in o/c securing 2x4 to top of 2x6
  7
STANDARD
210
0
220
0
230
1
 50
0
 73
    2
 44
1
  0
LINE
  5
281
100
AcDbEntity
  8
0
  6
ByLayer
 62
  256
370
   -1
100
AcDbLine
 10
84.56664057467874
 20
44.3646236175452
 11
84.62492535409046
 21
45.26897905650459
  0
LWPOLYLINE
  5
282
100
AcDbEntity
  8
0
  6
ByLayer
 62
  256
370
   -1
100
AcDbPolyline
 90
    4
 70
    1
 43
0
 10
76.82019627785016
 20
45.03252885253285
 10
94.32644790338722
 20
45.03252885253285
 10
94.32644790338722
 20
28.44765889149773
 10
76.82019627785016
 20
28.44765889149773
  0
MTEXT
  5
283
100
AcDbEntity
  8
0
  6
ByLayer
 62
  256
370
   -1
100
AcDbMText
 10
77.51123252622662
 20
31.90284013338005
 30
0
 40
1
 41
9.750000000000187
 71
    1
 72
    1
  1
rafter drawing
  7
STANDARD
210
0
220
0
230
1
 50
90
 73
    2
 44
1
  0
ENDSEC
  0
SECTION
  2
OBJECTS
  0
DICTIONARY
  5
C
330
0
100
AcDbDictionary
281
    1
  3
ACAD_GROUP
350
D
  0
DICTIONARY
  5
D
330
C
100
AcDbDictionary
281
    1
  0
ENDSEC
  0
EOF
