999
dxfrw 0.6.3
  0
SECTION
  2
HEADER
  9
$ACADVER
  1
AC1021
  9
$DWGCODEPAGE
  3
ANSI_1252
  9
$INSBASE
 10
0
 20
0
 30
0
  9
$EXTMIN
 10
0
 20
-3.624492921297464e-016
 30
0
  9
$EXTMAX
 10
11
 20
8.500000000000004
 30
0
  9
$LIMMIN
 10
0
 20
0
  9
$LIMMAX
 10
12
 20
9
  9
$ORTHOMODE
 70
    0
  9
$REGENMODE
 70
    1
  9
$FILLMODE
 70
    1
  9
$QTEXTMODE
 70
    0
  9
$MIRRTEXT
 70
    0
  9
$LTSCALE
 40
1
  9
$ATTMODE
 70
    1
  9
$TEXTSIZE
 40
2.5
  9
$TRACEWID
 40
0.05
  9
$TEXTSTYLE
  7
Standard
  9
$CLAYER
  8
0
  9
$CELTYPE
  6
CONTINUOUS
  9
$CECOLOR
 62
  256
  9
$CELTSCALE
 40
1
  9
$DISPSILH
 70
    0
  9
$DIMSCALE
 40
1
  9
$DIMASZ
 40
0.1
  9
$DIMEXO
 40
0.025
  9
$DIMDLI
 40
0.38
  9
$DIMRND
 40
0
  9
$DIMDLE
 40
0
  9
$DIMEXE
 40
0.05
  9
$DIMTP
 40
0
  9
$DIMTM
 40
0
  9
$DIMTXT
 40
0.1
  9
$DIMCEN
 40
0.09
  9
$DIMTSZ
 40
0
  9
$DIMTOL
 70
    0
  9
$DIMLIM
 70
    0
  9
$DIMTIH
 70
    0
  9
$DIMTOH
 70
    1
  9
$DIMSE1
 70
    0
  9
$DIMSE2
 70
    0
  9
$DIMTAD
 70
    0
  9
$DIMZIN
 70
    0
  9
$DIMBLK
  1

  9
$DIMASO
 70
    1
  9
$DIMSHO
 70
    1
  9
$DIMPOST
  1

  9
$DIMAPOST
  1

  9
$DIMALT
 70
    0
  9
$DIMALTD
 70
    2
  9
$DIMALTF
 40
25.4
  9
$DIMLFAC
 40
1
  9
$DIMTOFL
 70
    0
  9
$DIMTVP
 40
0
  9
$DIMTIX
 70
    0
  9
$DIMSOXD
 70
    0
  9
$DIMSAH
 70
    0
  9
$DIMBLK1
  1

  9
$DIMBLK2
  1

  9
$DIMSTYLE
  2
Standard
  9
$DIMCLRD
 70
    7
  9
$DIMCLRE
 70
    7
  9
$DIMCLRT
 70
    7
  9
$DIMTFAC
 40
1
  9
$DIMGAP
 40
0.025
  9
$DIMJUST
 70
    0
  9
$DIMSD1
 70
    0
  9
$DIMSD2
 70
    0
  9
$DIMTOLJ
 70
    1
  9
$DIMTZIN
 70
    0
  9
$DIMALTZ
 70
    0
  9
$DIMALTTZ
 70
    0
  9
$DIMUPT
 70
    0
  9
$DIMDEC
 70
    2
  9
$DIMTDEC
 70
    4
  9
$DIMALTU
 70
    2
  9
$DIMALTTD
 70
    2
  9
$DIMTXSTY
  7
standard
  9
$DIMAUNIT
 70
    0
  9
$DIMADEC
 70
    0
  9
$DIMALTRND
 40
0
  9
$DIMAZIN
 70
    0
  9
$DIMDSEP
 70
    0
  9
$DIMATFIT
 70
    3
  9
$DIMFRAC
 70
    0
  9
$DIMLDRBLK
  1

  9
$DIMLUNIT
 70
    2
  9
$DIMLWD
 70
   18
  9
$DIMLWE
 70
   18
  9
$DIMTMOVE
 70
    0
  9
$DIMFXL
 40
1
  9
$DIMFXLON
 70
    0
  9
$DIMJOGANG
 40
0.7853981633974483
  9
$DIMTFILL
 70
    0
  9
$DIMTFILLCLR
 70
    0
  9
$DIMARCSYM
 70
    0
  9
$DIMLTYPE
  6

  9
$DIMLTEX1
  6

  9
$DIMLTEX2
  6

  9
$LUNITS
 70
    2
  9
$LUPREC
 70
    4
  9
$SKETCHINC
 40
0.1
  9
$FILLETRAD
 40
0.1
  9
$AUNITS
 70
    0
  9
$AUPREC
 70
    2
  9
$MENU
  1
.
  9
$ELEVATION
 40
0
  9
$PELEVATION
 40
0
  9
$THICKNESS
 40
0
  9
$LIMCHECK
 70
    0
  9
$CHAMFERA
 40
0
  9
$CHAMFERB
 40
0
  9
$CHAMFERC
 40
0
  9
$CHAMFERD
 40
0
  9
$SKPOLY
 70
    0
  9
$USRTIMER
 70
    1
  9
$ANGBASE
 50
0
  9
$ANGDIR
 70
    0
  9
$PDMODE
 70
    0
  9
$PDSIZE
 40
0
  9
$PLINEWID
 40
0
  9
$SPLFRAME
 70
    0
  9
$SPLINETYPE
 70
    6
  9
$SPLINESEGS
 70
    8
  9
$HANDSEED
  5
20000
  9
$SURFTAB1
 70
    6
  9
$SURFTAB2
 70
    6
  9
$SURFTYPE
 70
    6
  9
$SURFU
 70
    6
  9
$SURFV
 70
    6
  9
$UCSBASE
  2

  9
$UCSNAME
  2

  9
$UCSORG
 10
0
 20
0
 30
0
  9
$UCSXDIR
 10
1
 20
0
 30
0
  9
$UCSYDIR
 10
0
 20
1
 30
0
  9
$UCSORTHOREF
  2

  9
$UCSORTHOVIEW
 70
    0
  9
$UCSORGTOP
 10
0
 20
0
 30
0
  9
$UCSORGBOTTOM
 10
0
 20
0
 30
0
  9
$UCSORGLEFT
 10
0
 20
0
 30
0
  9
$UCSORGRIGHT
 10
0
 20
0
 30
0
  9
$UCSORGFRONT
 10
0
 20
0
 30
0
  9
$UCSORGBACK
 10
0
 20
0
 30
0
  9
$PUCSBASE
  2

  9
$PUCSNAME
  2

  9
$PUCSORG
 10
0
 20
0
 30
0
  9
$PUCSXDIR
 10
1
 20
0
 30
0
  9
$PUCSYDIR
 10
0
 20
1
 30
0
  9
$PUCSORTHOREF
  2

  9
$PUCSORTHOVIEW
 70
    0
  9
$PUCSORGTOP
 10
0
 20
0
 30
0
  9
$PUCSORGBOTTOM
 10
0
 20
0
 30
0
  9
$PUCSORGLEFT
 10
0
 20
0
 30
0
  9
$PUCSORGRIGHT
 10
0
 20
0
 30
0
  9
$PUCSORGFRONT
 10
0
 20
0
 30
0
  9
$PUCSORGBACK
 10
0
 20
0
 30
0
  9
$USERI1
 70
    0
  9
$USERI2
 70
    0
  9
$USERI3
 70
    0
  9
$USERI4
 70
    0
  9
$USERI5
 70
    0
  9
$USERR1
 40
0
  9
$USERR2
 40
0
  9
$USERR3
 40
0
  9
$USERR4
 40
0
  9
$USERR5
 40
0
  9
$WORLDVIEW
 70
    1
  9
$SHADEDGE
 70
    3
  9
$SHADEDIF
 70
   70
  9
$TILEMODE
 70
    1
  9
$MAXACTVP
 70
   64
  9
$PINSBASE
 10
1
 20
0.9999999999999982
 30
0
  9
$PLIMCHECK
 70
    0
  9
$PEXTMIN
 10
1e+020
 20
1e+020
 30
1e+020
  9
$PEXTMAX
 10
-1e+020
 20
-1e+020
 30
-1e+020
  9
$GRIDMODE
 70
    1
  9
$SNAPSTYLE
 70
    0
  9
$GRIDUNIT
 10
0
 20
0
  9
$PLIMMIN
 10
0
 20
0
  9
$PLIMMAX
 10
11
 20
8.5
  9
$UNITMODE
 70
    0
  9
$VISRETAIN
 70
    1
  9
$PLINEGEN
 70
    0
  9
$PSLTSCALE
 70
    1
  9
$TREEDEPTH
 70
 3020
  9
$CMLSTYLE
  2
Standard
  9
$CMLJUST
 70
    0
  9
$CMLSCALE
 40
1
  9
$PROXYGRAPHICS
 70
    1
  9
$MEASUREMENT
 70
    0
  9
$CELWEIGHT
370
   -1
  9
$ENDCAPS
280
    0
  9
$JOINSTYLE
280
    0
  9
$LWDISPLAY
290
    0
  9
$INSUNITS
 70
    1
  9
$HYPERLINKBASE
  1

  9
$STYLESHEET
  1

  9
$XEDIT
290
    1
  9
$CEPSNTYPE
380
    0
  9
$PSTYLEMODE
290
    1
  9
$EXTNAMES
290
    1
  9
$PSVPSCALE
 40
1
  9
$OLESTARTUP
290
    0
  9
$SORTENTS
280
  127
  9
$INDEXCTL
280
    0
  9
$HIDETEXT
280
    0
  9
$XCLIPFRAME
290
    0
  9
$HALOGAP
280
    0
  9
$OBSCOLOR
 70
  257
  9
$OBSLTYPE
280
    0
  9
$INTERSECTIONDISPLAY
280
    0
  9
$INTERSECTIONCOLOR
 70
  257
  9
$DIMASSOC
280
    1
  9
$PROJECTNAME
  1

  9
$CAMERADISPLAY
290
    0
  9
$LENSLENGTH
 40
50
  9
$CAMERAHEIGHT
 40
0
  9
$STEPSPERSEC
 40
2
  9
$STEPSIZE
 40
6
  9
$3DDWFPREC
 40
2
  9
$PSOLWIDTH
 40
0.25
  9
$PSOLHEIGHT
 40
4
  9
$LOFTANG1
 40
1.570796326794896
  9
$LOFTANG2
 40
1.570796326794896
  9
$LOFTMAG1
 40
0
  9
$LOFTMAG2
 40
0
  9
$LOFTPARAM
 70
    7
  9
$LOFTNORMALS
280
    1
  9
$LATITUDE
 40
37.795
  9
$LONGITUDE
 40
-122.394
  9
$NORTHDIRECTION
 40
0
  9
$TIMEZONE
 70
-8000
  9
$LIGHTGLYPHDISPLAY
280
    1
  9
$TILEMODELIGHTSYNCH
280
    1
  9
$SOLIDHIST
280
    0
  9
$SHOWHIST
280
    1
  9
$DWFFRAME
280
    2
  9
$DGNFRAME
280
    0
  9
$REALWORLDSCALE
290
    1
  9
$INTERFERECOLOR
 62
    1
  9
$CSHADOW
280
    0
  9
$SHADOWPLANELOCATION
 40
0
  0
ENDSEC
  0
SECTION
  2
CLASSES
  0
ENDSEC
  0
SECTION
  2
TABLES
  0
TABLE
  2
VPORT
  5
8
330
0
100
AcDbSymbolTable
 70
    1
  0
VPORT
  5
31
330
2
100
AcDbSymbolTableRecord
100
AcDbViewportTableRecord
  2
*ACTIVE
 70
    0
 10
0
 20
0
 11
1
 21
1
 12
6.078236493374111
 22
4.293323139653417
 13
0
 23
0
 14
10
 24
10
 15
10
 25
10
 16
0
 26
0
 36
1
 17
0
 27
0
 37
0
 40
8.673292558613664
 41
1.534465534465534
 42
50
 43
0
 44
0
 50
0
 51
0
 71
    0
 72
  100
 73
    1
 74
    3
 75
    0
 76
    1
 77
    0
 78
    0
281
    0
 65
    1
110
0
120
0
130
0
111
1
121
0
131
0
112
0
122
1
132
0
 79
    0
146
0
348
10020
 60
    7
 61
    5
292
1
282
    1
141
0
142
0
 63
  250
421
3358443
  0
ENDTAB
  0
TABLE
  2
LTYPE
  5
5
330
0
100
AcDbSymbolTable
 70
    4
  0
LTYPE
  5
14
330
5
100
AcDbSymbolTableRecord
100
AcDbLinetypeTableRecord
  2
ByBlock
 70
    0
  3

 72
   65
 73
    0
 40
0
  0
LTYPE
  5
15
330
5
100
AcDbSymbolTableRecord
100
AcDbLinetypeTableRecord
  2
ByLayer
 70
    0
  3

 72
   65
 73
    0
 40
0
  0
LTYPE
  5
16
330
5
100
AcDbSymbolTableRecord
100
AcDbLinetypeTableRecord
  2
Continuous
 70
    0
  3
Solid line
 72
   65
 73
    0
 40
0
  0
LTYPE
  5
32
330
5
100
AcDbSymbolTableRecord
100
AcDbLinetypeTableRecord
  2
DOT
 70
    0
  3
Dot . . . . . . . . . . . . . . . . . . . . . .
 72
   65
 73
    2
 40
6.35
 49
0
 74
    0
 49
-6.35
 74
    0
  0
LTYPE
  5
33
330
5
100
AcDbSymbolTableRecord
100
AcDbLinetypeTableRecord
  2
DOTTINY
 70
    0
  3
Dot (.15x) .....................................
 72
   65
 73
    2
 40
0.9525
 49
0
 74
    0
 49
-0.9525
 74
    0
  0
LTYPE
  5
34
330
5
100
AcDbSymbolTableRecord
100
AcDbLinetypeTableRecord
  2
DOT2
 70
    0
  3
Dot (.5x) .....................................
 72
   65
 73
    2
 40
3.175
 49
0
 74
    0
 49
-3.175
 74
    0
  0
LTYPE
  5
35
330
5
100
AcDbSymbolTableRecord
100
AcDbLinetypeTableRecord
  2
DOTX2
 70
    0
  3
Dot (2x) .  .  .  .  .  .  .  .  .  .  .  .  .
 72
   65
 73
    2
 40
12.7
 49
0
 74
    0
 49
-12.7
 74
    0
  0
LTYPE
  5
36
330
5
100
AcDbSymbolTableRecord
100
AcDbLinetypeTableRecord
  2
DASHED
 70
    0
  3
Dashed _ _ _ _ _ _ _ _ _ _ _ _ _ _ _ _ _
 72
   65
 73
    2
 40
19.05
 49
12.7
 74
    0
 49
-6.35
 74
    0
  0
LTYPE
  5
37
330
5
100
AcDbSymbolTableRecord
100
AcDbLinetypeTableRecord
  2
DASHEDTINY
 70
    0
  3
Dashed (.15x) _ _ _ _ _ _ _ _ _ _ _ _ _ _ _ _ _
 72
   65
 73
    2
 40
2.8575
 49
1.905
 74
    0
 49
-0.9525
 74
    0
  0
LTYPE
  5
38
330
5
100
AcDbSymbolTableRecord
100
AcDbLinetypeTableRecord
  2
DASHED2
 70
    0
  3
Dashed (.5x) _ _ _ _ _ _ _ _ _ _ _ _ _ _ _ _ _
 72
   65
 73
    2
 40
9.524999999999999
 49
6.35
 74
    0
 49
-3.175
 74
    0
  0
LTYPE
  5
39
330
5
100
AcDbSymbolTableRecord
100
AcDbLinetypeTableRecord
  2
DASHEDX2
 70
    0
  3
Dashed (2x) ____  ____  ____  ____  ____  ___
 72
   65
 73
    2
 40
38.09999999999999
 49
25.4
 74
    0
 49
-12.7
 74
    0
  0
LTYPE
  5
3A
330
5
100
AcDbSymbolTableRecord
100
AcDbLinetypeTableRecord
  2
DASHDOT
 70
    0
  3
Dash dot __ . __ . __ . __ . __ . __ . __ . __
 72
   65
 73
    4
 40
25.4
 49
12.7
 74
    0
 49
-6.35
 74
    0
 49
0
 74
    0
 49
-6.35
 74
    0
  0
LTYPE
  5
3B
330
5
100
AcDbSymbolTableRecord
100
AcDbLinetypeTableRecord
  2
DASHDOTTINY
 70
    0
  3
Dash dot (.15x) _._._._._._._._._._._._._._._.
 72
   65
 73
    4
 40
3.81
 49
1.905
 74
    0
 49
-0.9525
 74
    0
 49
0
 74
    0
 49
-0.9525
 74
    0
  0
LTYPE
  5
3C
330
5
100
AcDbSymbolTableRecord
100
AcDbLinetypeTableRecord
  2
DASHDOT2
 70
    0
  3
Dash dot (.5x) _._._._._._._._._._._._._._._.
 72
   65
 73
    4
 40
12.7
 49
6.35
 74
    0
 49
-3.175
 74
    0
 49
0
 74
    0
 49
-3.175
 74
    0
  0
LTYPE
  5
3D
330
5
100
AcDbSymbolTableRecord
100
AcDbLinetypeTableRecord
  2
DASHDOTX2
 70
    0
  3
Dash dot (2x) ____  .  ____  .  ____  .  ___
 72
   65
 73
    4
 40
50.8
 49
25.4
 74
    0
 49
-12.7
 74
    0
 49
0
 74
    0
 49
-12.7
 74
    0
  0
LTYPE
  5
3E
330
5
100
AcDbSymbolTableRecord
100
AcDbLinetypeTableRecord
  2
DIVIDE
 70
    0
  3
Divide ____ . . ____ . . ____ . . ____ . . ____
 72
   65
 73
    6
 40
31.75
 49
12.7
 74
    0
 49
-6.35
 74
    0
 49
0
 74
    0
 49
-6.35
 74
    0
 49
0
 74
    0
 49
-6.35
 74
    0
  0
LTYPE
  5
3F
330
5
100
AcDbSymbolTableRecord
100
AcDbLinetypeTableRecord
  2
DIVIDETINY
 70
    0
  3
Divide (.15x) __..__..__..__..__..__..__..__.._
 72
   65
 73
    6
 40
4.7625
 49
1.905
 74
    0
 49
-0.9525
 74
    0
 49
0
 74
    0
 49
-0.9525
 74
    0
 49
0
 74
    0
 49
-0.9525
 74
    0
  0
LTYPE
  5
40
330
5
100
AcDbSymbolTableRecord
100
AcDbLinetypeTableRecord
  2
DIVIDE2
 70
    0
  3
Divide (.5x) __..__..__..__..__..__..__..__.._
 72
   65
 73
    6
 40
15.875
 49
6.35
 74
    0
 49
-3.175
 74
    0
 49
0
 74
    0
 49
-3.175
 74
    0
 49
0
 74
    0
 49
-3.175
 74
    0
  0
LTYPE
  5
41
330
5
100
AcDbSymbolTableRecord
100
AcDbLinetypeTableRecord
  2
DIVIDEX2
 70
    0
  3
Divide (2x) ________  .  .  ________  .  .  _
 72
   65
 73
    6
 40
63.5
 49
25.4
 74
    0
 49
-12.7
 74
    0
 49
0
 74
    0
 49
-12.7
 74
    0
 49
0
 74
    0
 49
-12.7
 74
    0
  0
LTYPE
  5
42
330
5
100
AcDbSymbolTableRecord
100
AcDbLinetypeTableRecord
  2
BORDER
 70
    0
  3
Border __ __ . __ __ . __ __ . __ __ . __ __ .
 72
   65
 73
    6
 40
44.45
 49
12.7
 74
    0
 49
-6.35
 74
    0
 49
12.7
 74
    0
 49
-6.35
 74
    0
 49
0
 74
    0
 49
-6.35
 74
    0
  0
LTYPE
  5
43
330
5
100
AcDbSymbolTableRecord
100
AcDbLinetypeTableRecord
  2
BORDERTINY
 70
    0
  3
Border (.15x) __.__.__.__.__.__.__.__.__.__.__.
 72
   65
 73
    6
 40
6.6675
 49
1.905
 74
    0
 49
-0.9525
 74
    0
 49
1.905
 74
    0
 49
-0.9525
 74
    0
 49
0
 74
    0
 49
-0.9525
 74
    0
  0
LTYPE
  5
44
330
5
100
AcDbSymbolTableRecord
100
AcDbLinetypeTableRecord
  2
BORDER2
 70
    0
  3
Border (.5x) __.__.__.__.__.__.__.__.__.__.__.
 72
   65
 73
    6
 40
22.225
 49
6.35
 74
    0
 49
-3.175
 74
    0
 49
6.35
 74
    0
 49
-3.175
 74
    0
 49
0
 74
    0
 49
-3.175
 74
    0
  0
LTYPE
  5
45
330
5
100
AcDbSymbolTableRecord
100
AcDbLinetypeTableRecord
  2
BORDERX2
 70
    0
  3
Border (2x) ____  ____  .  ____  ____  .  ___
 72
   65
 73
    6
 40
88.89999999999999
 49
25.4
 74
    0
 49
-12.7
 74
    0
 49
25.4
 74
    0
 49
-12.7
 74
    0
 49
0
 74
    0
 49
-12.7
 74
    0
  0
LTYPE
  5
46
330
5
100
AcDbSymbolTableRecord
100
AcDbLinetypeTableRecord
  2
CENTER
 70
    0
  3
Center ____ _ ____ _ ____ _ ____ _ ____ _ ____
 72
   65
 73
    4
 40
50.8
 49
31.75
 74
    0
 49
-6.35
 74
    0
 49
6.35
 74
    0
 49
-6.35
 74
    0
  0
LTYPE
  5
47
330
5
100
AcDbSymbolTableRecord
100
AcDbLinetypeTableRecord
  2
CENTERTINY
 70
    0
  3
Center (.15x) ___ _ ___ _ ___ _ ___ _ ___ _ ___
 72
   65
 73
    4
 40
7.62
 49
4.7625
 74
    0
 49
-0.9525
 74
    0
 49
0.9525
 74
    0
 49
-0.9525
 74
    0
  0
LTYPE
  5
48
330
5
100
AcDbSymbolTableRecord
100
AcDbLinetypeTableRecord
  2
CENTER2
 70
    0
  3
Center (.5x) ___ _ ___ _ ___ _ ___ _ ___ _ ___
 72
   65
 73
    4
 40
28.575
 49
19.05
 74
    0
 49
-3.175
 74
    0
 49
3.175
 74
    0
 49
-3.175
 74
    0
  0
LTYPE
  5
49
330
5
100
AcDbSymbolTableRecord
100
AcDbLinetypeTableRecord
  2
CENTERX2
 70
    0
  3
Center (2x) ________  __  ________  __  _____
 72
   65
 73
    4
 40
101.6
 49
63.5
 74
    0
 49
-12.7
 74
    0
 49
12.7
 74
    0
 49
-12.7
 74
    0
  0
ENDTAB
  0
TABLE
  2
LAYER
  5
2
330
0
100
AcDbSymbolTable
 70
    1
  0
LAYER
  5
10
330
2
100
AcDbSymbolTableRecord
100
AcDbLayerTableRecord
  2
0
 70
    0
 62
    7
  6
CONTINUOUS
370
   25
390
F
  0
LAYER
  5
4A
330
2
100
AcDbSymbolTableRecord
100
AcDbLayerTableRecord
  2
horizontal
 70
    4
 62
    7
  6
CONTINUOUS
370
    0
390
F
  0
LAYER
  5
4B
330
2
100
AcDbSymbolTableRecord
100
AcDbLayerTableRecord
  2
vertical
 70
    4
 62
    7
  6
CONTINUOUS
370
    0
390
F
  0
ENDTAB
  0
TABLE
  2
STYLE
  5
3
330
0
100
AcDbSymbolTable
 70
    3
  0
STYLE
  5
4C
330
2
100
AcDbSymbolTableRecord
100
AcDbTextStyleTableRecord
  2
standard
 70
    0
 40
0
 41
1
 50
0
 71
    0
 42
1
  3
standard
  4

  0
ENDTAB
  0
TABLE
  2
VIEW
  5
6
330
0
100
AcDbSymbolTable
 70
    0
  0
ENDTAB
  0
TABLE
  2
UCS
  5
7
330
0
100
AcDbSymbolTable
 70
    0
  0
ENDTAB
  0
TABLE
  2
APPID
  5
9
330
0
100
AcDbSymbolTable
 70
    1
  0
APPID
  5
12
330
9
100
AcDbSymbolTableRecord
100
AcDbRegAppTableRecord
  2
ACAD
 70
    0
  0
APPID
  5
4D
330
9
100
AcDbSymbolTableRecord
100
AcDbRegAppTableRecord
  2
LibreCad
 70
    0
  0
ENDTAB
  0
TABLE
  2
DIMSTYLE
  5
A
330
0
100
AcDbSymbolTable
 70
    1
100
AcDbDimStyleTable
 71
    1
  0
DIMSTYLE
105
4E
330
A
100
AcDbSymbolTableRecord
100
AcDbDimStyleTableRecord
  2
Standard
 70
    0
 40
1
 41
0.1
 42
0.025
 43
0.38
 44
0.05
 45
0
 46
0
 47
0
 48
0
 49
1
140
0.1
141
0.09
142
0
143
25.4
144
1
145
0
146
1
147
0.025
148
0
 71
    0
 72
    0
 73
    0
 74
    1
 75
    0
 76
    0
 77
    0
 78
    0
 79
    0
170
    0
171
    2
172
    0
173
    0
174
    0
175
    0
176
    7
177
    7
178
    7
179
    0
271
    2
272
    4
273
    2
274
    2
275
    0
276
    0
277
    2
278
    0
279
    0
280
    0
281
    0
282
    0
283
    1
284
    0
285
    0
286
    0
288
    0
289
    3
340
standard
341

371
   18
372
   18
  0
ENDTAB
  0
TABLE
  2
BLOCK_RECORD
  5
1
330
0
100
AcDbSymbolTable
 70
    2
  0
BLOCK_RECORD
  5
1F
330
1
100
AcDbSymbolTableRecord
100
AcDbBlockTableRecord
  2
*Model_Space
 70
    0
280
    1
281
    0
  0
BLOCK_RECORD
  5
1E
330
1
100
AcDbSymbolTableRecord
100
AcDbBlockTableRecord
  2
*Paper_Space
 70
    0
280
    1
281
    0
  0
ENDTAB
  0
ENDSEC
  0
SECTION
  2
BLOCKS
  0
BLOCK
  5
20
330
1F
100
AcDbEntity
  8
0
100
AcDbBlockBegin
  2
*Model_Space
 70
    0
 10
0
 20
0
 30
0
  3
*Model_Space
  1

  0
ENDBLK
  5
21
330
1F
100
AcDbEntity
  8
0
100
AcDbBlockEnd
  0
BLOCK
  5
1C
330
1B
100
AcDbEntity
  8
0
100
AcDbBlockBegin
  2
*Paper_Space
 70
    0
 10
0
 20
0
 30
0
  3
*Paper_Space
  1

  0
ENDBLK
  5
1D
330
1F
100
AcDbEntity
  8
0
100
AcDbBlockEnd
  0
ENDSEC
  0
SECTION
  2
ENTITIES
  0
LINE
  5
4F
100
AcDbEntity
  8
0
  6
CONTINUOUS
 62
    7
370
   18
100
AcDbLine
 10
1.110223024625157e-016
 20
0
 11
0
 21
8.5
  0
LINE
  5
50
100
AcDbEntity
  8
0
  6
CONTINUOUS
 62
    7
370
   18
100
AcDbLine
 10
0
 20
8.5
 11
11
 21
8.500000000000004
  0
LINE
  5
51
100
AcDbEntity
  8
0
  6
CONTINUOUS
 62
    7
370
   18
100
AcDbLine
 10
11
 20
8.500000000000004
 11
11
 21
4.440892098500626e-016
  0
LINE
  5
52
100
AcDbEntity
  8
0
  6
CONTINUOUS
 62
    7
370
   18
100
AcDbLine
 10
11
 20
4.440892098500626e-016
 11
11
 21
4.440892098500626e-016
  0
LINE
  5
53
100
AcDbEntity
  8
0
  6
CONTINUOUS
 62
    7
370
   18
100
AcDbLine
 10
11
 20
4.440892098500626e-016
 11
1.110223024625157e-016
 21
0
  0
LINE
  5
54
100
AcDbEntity
  8
vertical
  6
CONTINUOUS
 62
    9
370
    5
100
AcDbLine
 10
10.9500219000438
 20
-3.624492921297464e-016
 11
10.9500219000438
 21
8.500000000000004
  0
LINE
  5
55
100
AcDbEntity
  8
vertical
  6
CONTINUOUS
 62
    9
370
    5
100
AcDbLine
 10
10.9000218000436
 20
-3.624492921297464e-016
 11
10.9000218000436
 21
8.500000000000004
  0
LINE
  5
56
100
AcDbEntity
  8
vertical
  6
CONTINUOUS
 62
    9
370
    5
100
AcDbLine
 10
10.8500217000434
 20
-3.624492921297464e-016
 11
10.8500217000434
 21
8.500000000000004
  0
LINE
  5
57
100
AcDbEntity
  8
vertical
  6
CONTINUOUS
 62
    9
370
    5
100
AcDbLine
 10
10.8000216000432
 20
-3.624492921297464e-016
 11
10.8000216000432
 21
8.500000000000004
  0
LINE
  5
58
100
AcDbEntity
  8
vertical
  6
CONTINUOUS
 62
    9
370
    5
100
AcDbLine
 10
10.750021500043
 20
-3.624492921297464e-016
 11
10.750021500043
 21
8.500000000000004
  0
LINE
  5
59
100
AcDbEntity
  8
vertical
  6
CONTINUOUS
 62
    9
370
    5
100
AcDbLine
 10
10.7000214000428
 20
-3.624492921297464e-016
 11
10.7000214000428
 21
8.500000000000004
  0
LINE
  5
5A
100
AcDbEntity
  8
vertical
  6
CONTINUOUS
 62
    9
370
    5
100
AcDbLine
 10
10.6500213000426
 20
-3.624492921297464e-016
 11
10.6500213000426
 21
8.500000000000004
  0
LINE
  5
5B
100
AcDbEntity
  8
vertical
  6
CONTINUOUS
 62
    9
370
    5
100
AcDbLine
 10
10.6000212000424
 20
-3.624492921297464e-016
 11
10.6000212000424
 21
8.500000000000004
  0
LINE
  5
5C
100
AcDbEntity
  8
vertical
  6
CONTINUOUS
 62
    9
370
    5
100
AcDbLine
 10
10.5500211000422
 20
-3.624492921297464e-016
 11
10.5500211000422
 21
8.500000000000004
  0
LINE
  5
5D
100
AcDbEntity
  8
vertical
  6
CONTINUOUS
 62
    8
370
    5
100
AcDbLine
 10
10.500021000042
 20
-3.624492921297464e-016
 11
10.500021000042
 21
8.500000000000004
  0
LINE
  5
5E
100
AcDbEntity
  8
vertical
  6
CONTINUOUS
 62
    9
370
    5
100
AcDbLine
 10
10.4500209000418
 20
-3.624492921297464e-016
 11
10.4500209000418
 21
8.500000000000004
  0
LINE
  5
5F
100
AcDbEntity
  8
vertical
  6
CONTINUOUS
 62
    9
370
    5
100
AcDbLine
 10
10.4000208000416
 20
-3.624492921297464e-016
 11
10.4000208000416
 21
8.500000000000004
  0
LINE
  5
60
100
AcDbEntity
  8
vertical
  6
CONTINUOUS
 62
    9
370
    5
100
AcDbLine
 10
10.3500207000414
 20
-3.624492921297464e-016
 11
10.3500207000414
 21
8.500000000000004
  0
LINE
  5
61
100
AcDbEntity
  8
vertical
  6
CONTINUOUS
 62
    9
370
    5
100
AcDbLine
 10
10.3000206000412
 20
-3.624492921297464e-016
 11
10.3000206000412
 21
8.500000000000004
  0
LINE
  5
62
100
AcDbEntity
  8
vertical
  6
CONTINUOUS
 62
    9
370
    5
100
AcDbLine
 10
10.250020500041
 20
-3.624492921297464e-016
 11
10.250020500041
 21
8.500000000000004
  0
LINE
  5
63
100
AcDbEntity
  8
vertical
  6
CONTINUOUS
 62
    9
370
    5
100
AcDbLine
 10
10.2000204000408
 20
-3.624492921297464e-016
 11
10.2000204000408
 21
8.500000000000004
  0
LINE
  5
64
100
AcDbEntity
  8
vertical
  6
CONTINUOUS
 62
    9
370
    5
100
AcDbLine
 10
10.1500203000406
 20
-3.624492921297464e-016
 11
10.1500203000406
 21
8.500000000000004
  0
LINE
  5
65
100
AcDbEntity
  8
vertical
  6
CONTINUOUS
 62
    9
370
    5
100
AcDbLine
 10
10.1000202000404
 20
-3.624492921297464e-016
 11
10.1000202000404
 21
8.500000000000004
  0
LINE
  5
66
100
AcDbEntity
  8
vertical
  6
CONTINUOUS
 62
    9
370
    5
100
AcDbLine
 10
10.0500201000402
 20
-3.624492921297464e-016
 11
10.0500201000402
 21
8.500000000000004
  0
LINE
  5
67
100
AcDbEntity
  8
vertical
  6
CONTINUOUS
 62
    8
370
    5
100
AcDbLine
 10
10.00002000004
 20
0
 11
10.00002000004
 21
8.500000000000002
  0
LINE
  5
68
100
AcDbEntity
  8
vertical
  6
CONTINUOUS
 62
    9
370
    5
100
AcDbLine
 10
9.9500199000398
 20
0
 11
9.9500199000398
 21
8.500000000000002
  0
LINE
  5
69
100
AcDbEntity
  8
vertical
  6
CONTINUOUS
 62
    9
370
    5
100
AcDbLine
 10
9.900019800039601
 20
0
 11
9.900019800039601
 21
8.500000000000002
  0
LINE
  5
6A
100
AcDbEntity
  8
vertical
  6
CONTINUOUS
 62
    9
370
    5
100
AcDbLine
 10
9.8500197000394
 20
0
 11
9.8500197000394
 21
8.500000000000002
  0
LINE
  5
6B
100
AcDbEntity
  8
vertical
  6
CONTINUOUS
 62
    9
370
    5
100
AcDbLine
 10
9.800019600039199
 20
0
 11
9.800019600039199
 21
8.500000000000002
  0
LINE
  5
6C
100
AcDbEntity
  8
vertical
  6
CONTINUOUS
 62
    9
370
    5
100
AcDbLine
 10
9.750019500039
 20
0
 11
9.750019500039
 21
8.500000000000002
  0
LINE
  5
6D
100
AcDbEntity
  8
vertical
  6
CONTINUOUS
 62
    9
370
    5
100
AcDbLine
 10
9.7000194000388
 20
0
 11
9.7000194000388
 21
8.500000000000002
  0
LINE
  5
6E
100
AcDbEntity
  8
vertical
  6
CONTINUOUS
 62
    9
370
    5
100
AcDbLine
 10
9.650019300038601
 20
0
 11
9.650019300038601
 21
8.500000000000002
  0
LINE
  5
6F
100
AcDbEntity
  8
vertical
  6
CONTINUOUS
 62
    9
370
    5
100
AcDbLine
 10
9.6000192000384
 20
0
 11
9.6000192000384
 21
8.500000000000002
  0
LINE
  5
70
100
AcDbEntity
  8
vertical
  6
CONTINUOUS
 62
    9
370
    5
100
AcDbLine
 10
9.550019100038201
 20
0
 11
9.550019100038201
 21
8.500000000000002
  0
LINE
  5
71
100
AcDbEntity
  8
vertical
  6
CONTINUOUS
 62
    8
370
    5
100
AcDbLine
 10
9.500019000038
 20
0
 11
9.500019000038
 21
8.500000000000002
  0
LINE
  5
72
100
AcDbEntity
  8
vertical
  6
CONTINUOUS
 62
    9
370
    5
100
AcDbLine
 10
9.450018900037801
 20
0
 11
9.450018900037801
 21
8.500000000000002
  0
LINE
  5
73
100
AcDbEntity
  8
vertical
  6
CONTINUOUS
 62
    9
370
    5
100
AcDbLine
 10
9.4000188000376
 20
0
 11
9.4000188000376
 21
8.500000000000002
  0
LINE
  5
74
100
AcDbEntity
  8
vertical
  6
CONTINUOUS
 62
    9
370
    5
100
AcDbLine
 10
9.350018700037401
 20
0
 11
9.350018700037401
 21
8.500000000000002
  0
LINE
  5
75
100
AcDbEntity
  8
vertical
  6
CONTINUOUS
 62
    9
370
    5
100
AcDbLine
 10
9.3000186000372
 20
0
 11
9.3000186000372
 21
8.500000000000002
  0
LINE
  5
76
100
AcDbEntity
  8
vertical
  6
CONTINUOUS
 62
    9
370
    5
100
AcDbLine
 10
9.250018500037001
 20
0
 11
9.250018500037001
 21
8.500000000000002
  0
LINE
  5
77
100
AcDbEntity
  8
vertical
  6
CONTINUOUS
 62
    9
370
    5
100
AcDbLine
 10
9.2000184000368
 20
0
 11
9.2000184000368
 21
8.500000000000002
  0
LINE
  5
78
100
AcDbEntity
  8
vertical
  6
CONTINUOUS
 62
    9
370
    5
100
AcDbLine
 10
9.150018300036599
 20
0
 11
9.150018300036599
 21
8.500000000000002
  0
LINE
  5
79
100
AcDbEntity
  8
vertical
  6
CONTINUOUS
 62
    9
370
    5
100
AcDbLine
 10
9.1000182000364
 20
0
 11
9.1000182000364
 21
8.500000000000002
  0
LINE
  5
7A
100
AcDbEntity
  8
vertical
  6
CONTINUOUS
 62
    9
370
    5
100
AcDbLine
 10
9.050018100036199
 20
0
 11
9.050018100036199
 21
8.500000000000002
  0
LINE
  5
7B
100
AcDbEntity
  8
vertical
  6
CONTINUOUS
 62
    8
370
    5
100
AcDbLine
 10
9.000018000036
 20
0
 11
9.000018000036
 21
8.500000000000002
  0
LINE
  5
7C
100
AcDbEntity
  8
vertical
  6
CONTINUOUS
 62
    9
370
    5
100
AcDbLine
 10
8.9500179000358
 20
0
 11
8.9500179000358
 21
8.500000000000002
  0
LINE
  5
7D
100
AcDbEntity
  8
vertical
  6
CONTINUOUS
 62
    9
370
    5
100
AcDbLine
 10
8.900017800035601
 20
0
 11
8.900017800035601
 21
8.500000000000002
  0
LINE
  5
7E
100
AcDbEntity
  8
vertical
  6
CONTINUOUS
 62
    9
370
    5
100
AcDbLine
 10
8.8500177000354
 20
0
 11
8.8500177000354
 21
8.500000000000002
  0
LINE
  5
7F
100
AcDbEntity
  8
vertical
  6
CONTINUOUS
 62
    9
370
    5
100
AcDbLine
 10
8.750017500035
 20
0
 11
8.750017500035
 21
8.500000000000002
  0
LINE
  5
80
100
AcDbEntity
  8
vertical
  6
CONTINUOUS
 62
    9
370
    5
100
AcDbLine
 10
8.700017400034801
 20
0
 11
8.700017400034801
 21
8.500000000000002
  0
LINE
  5
81
100
AcDbEntity
  8
vertical
  6
CONTINUOUS
 62
    9
370
    5
100
AcDbLine
 10
8.650017300034602
 20
0
 11
8.650017300034602
 21
8.500000000000002
  0
LINE
  5
82
100
AcDbEntity
  8
vertical
  6
CONTINUOUS
 62
    9
370
    5
100
AcDbLine
 10
8.600017200034401
 20
0
 11
8.600017200034401
 21
8.500000000000002
  0
LINE
  5
83
100
AcDbEntity
  8
vertical
  6
CONTINUOUS
 62
    9
370
    5
100
AcDbLine
 10
8.5500171000342
 20
0
 11
8.5500171000342
 21
8.500000000000002
  0
LINE
  5
84
100
AcDbEntity
  8
vertical
  6
CONTINUOUS
 62
    8
370
    5
100
AcDbLine
 10
8.500017000033999
 20
0
 11
8.500017000033999
 21
8.500000000000002
  0
LINE
  5
85
100
AcDbEntity
  8
vertical
  6
CONTINUOUS
 62
    9
370
    5
100
AcDbLine
 10
8.4500169000338
 20
0
 11
8.4500169000338
 21
8.500000000000002
  0
LINE
  5
86
100
AcDbEntity
  8
vertical
  6
CONTINUOUS
 62
    9
370
    5
100
AcDbLine
 10
8.400016800033599
 20
0
 11
8.400016800033599
 21
8.500000000000002
  0
LINE
  5
87
100
AcDbEntity
  8
vertical
  6
CONTINUOUS
 62
    9
370
    5
100
AcDbLine
 10
8.3500167000334
 20
0
 11
8.3500167000334
 21
8.500000000000002
  0
LINE
  5
88
100
AcDbEntity
  8
vertical
  6
CONTINUOUS
 62
    9
370
    5
100
AcDbLine
 10
8.250016500033
 20
0
 11
8.250016500033
 21
8.500000000000002
  0
LINE
  5
89
100
AcDbEntity
  8
vertical
  6
CONTINUOUS
 62
    9
370
    5
100
AcDbLine
 10
8.200016400032801
 20
0
 11
8.200016400032801
 21
8.500000000000002
  0
LINE
  5
8A
100
AcDbEntity
  8
vertical
  6
CONTINUOUS
 62
    9
370
    5
100
AcDbLine
 10
8.800017600035201
 20
0
 11
8.800017600035201
 21
8.500000000000002
  0
LINE
  5
8B
100
AcDbEntity
  8
vertical
  6
CONTINUOUS
 62
    9
370
    5
100
AcDbLine
 10
8.300016600033199
 20
0
 11
8.300016600033199
 21
8.500000000000002
  0
LINE
  5
8C
100
AcDbEntity
  8
vertical
  6
CONTINUOUS
 62
    9
370
    5
100
AcDbLine
 10
8.1500163000326
 20
0
 11
8.1500163000326
 21
8.500000000000002
  0
LINE
  5
8D
100
AcDbEntity
  8
vertical
  6
CONTINUOUS
 62
    9
370
    5
100
AcDbLine
 10
8.100016200032401
 20
0
 11
8.100016200032401
 21
8.500000000000002
  0
LINE
  5
8E
100
AcDbEntity
  8
vertical
  6
CONTINUOUS
 62
    9
370
    5
100
AcDbLine
 10
8.050016100032201
 20
0
 11
8.050016100032201
 21
8.500000000000002
  0
LINE
  5
8F
100
AcDbEntity
  8
vertical
  6
CONTINUOUS
 62
    8
370
    5
100
AcDbLine
 10
8.000016000032002
 20
0
 11
8.000016000032002
 21
8.500000000000002
  0
LINE
  5
90
100
AcDbEntity
  8
vertical
  6
CONTINUOUS
 62
    9
370
    5
100
AcDbLine
 10
7.950015900031801
 20
0
 11
7.950015900031802
 21
8.500000000000002
  0
LINE
  5
91
100
AcDbEntity
  8
vertical
  6
CONTINUOUS
 62
    9
370
    5
100
AcDbLine
 10
7.9000158000316
 20
0
 11
7.9000158000316
 21
8.500000000000002
  0
LINE
  5
92
100
AcDbEntity
  8
vertical
  6
CONTINUOUS
 62
    9
370
    5
100
AcDbLine
 10
7.8500157000314
 20
0
 11
7.850015700031401
 21
8.500000000000002
  0
LINE
  5
93
100
AcDbEntity
  8
vertical
  6
CONTINUOUS
 62
    9
370
    5
100
AcDbLine
 10
7.8000156000312
 20
0
 11
7.8000156000312
 21
8.500000000000002
  0
LINE
  5
94
100
AcDbEntity
  8
vertical
  6
CONTINUOUS
 62
    9
370
    5
100
AcDbLine
 10
7.750015500031
 20
0
 11
7.750015500031
 21
8.500000000000002
  0
LINE
  5
95
100
AcDbEntity
  8
vertical
  6
CONTINUOUS
 62
    9
370
    5
100
AcDbLine
 10
7.7000154000308
 20
0
 11
7.700015400030801
 21
8.500000000000002
  0
LINE
  5
96
100
AcDbEntity
  8
vertical
  6
CONTINUOUS
 62
    9
370
    5
100
AcDbLine
 10
7.6500153000306
 20
0
 11
7.6500153000306
 21
8.500000000000002
  0
LINE
  5
97
100
AcDbEntity
  8
vertical
  6
CONTINUOUS
 62
    9
370
    5
100
AcDbLine
 10
7.6000152000304
 20
0
 11
7.6000152000304
 21
8.500000000000002
  0
LINE
  5
98
100
AcDbEntity
  8
vertical
  6
CONTINUOUS
 62
    9
370
    5
100
AcDbLine
 10
7.5500151000302
 20
0
 11
7.550015100030201
 21
8.500000000000002
  0
LINE
  5
99
100
AcDbEntity
  8
vertical
  6
CONTINUOUS
 62
    8
370
    5
100
AcDbLine
 10
7.50001500003
 20
0
 11
7.50001500003
 21
8.500000000000002
  0
LINE
  5
9A
100
AcDbEntity
  8
vertical
  6
CONTINUOUS
 62
    9
370
    5
100
AcDbLine
 10
7.4500149000298
 20
0
 11
7.450014900029799
 21
8.500000000000002
  0
LINE
  5
9B
100
AcDbEntity
  8
vertical
  6
CONTINUOUS
 62
    9
370
    5
100
AcDbLine
 10
7.4000148000296
 20
0
 11
7.4000148000296
 21
8.500000000000002
  0
LINE
  5
9C
100
AcDbEntity
  8
vertical
  6
CONTINUOUS
 62
    9
370
    5
100
AcDbLine
 10
7.3500147000294
 20
0
 11
7.3500147000294
 21
8.500000000000002
  0
LINE
  5
9D
100
AcDbEntity
  8
vertical
  6
CONTINUOUS
 62
    9
370
    5
100
AcDbLine
 10
7.300014600029201
 20
0
 11
7.3000146000292
 21
8.500000000000002
  0
LINE
  5
9E
100
AcDbEntity
  8
vertical
  6
CONTINUOUS
 62
    9
370
    5
100
AcDbLine
 10
7.250014500029
 20
0
 11
7.250014500029
 21
8.500000000000002
  0
LINE
  5
9F
100
AcDbEntity
  8
vertical
  6
CONTINUOUS
 62
    9
370
    5
100
AcDbLine
 10
7.2000144000288
 20
0
 11
7.200014400028799
 21
8.500000000000002
  0
LINE
  5
A0
100
AcDbEntity
  8
vertical
  6
CONTINUOUS
 62
    9
370
    5
100
AcDbLine
 10
7.1500143000286
 20
0
 11
7.1500143000286
 21
8.500000000000002
  0
LINE
  5
A1
100
AcDbEntity
  8
vertical
  6
CONTINUOUS
 62
    9
370
    5
100
AcDbLine
 10
7.1000142000284
 20
0
 11
7.1000142000284
 21
8.500000000000002
  0
LINE
  5
A2
100
AcDbEntity
  8
vertical
  6
CONTINUOUS
 62
    9
370
    5
100
AcDbLine
 10
7.0500141000282
 20
0
 11
7.050014100028199
 21
8.500000000000002
  0
LINE
  5
A3
100
AcDbEntity
  8
vertical
  6
CONTINUOUS
 62
    8
370
    5
100
AcDbLine
 10
7.000014000028
 20
0
 11
7.000014000028
 21
8.500000000000002
  0
LINE
  5
A4
100
AcDbEntity
  8
vertical
  6
CONTINUOUS
 62
    9
370
    5
100
AcDbLine
 10
6.9500139000278
 20
0
 11
6.9500139000278
 21
8.500000000000002
  0
LINE
  5
A5
100
AcDbEntity
  8
vertical
  6
CONTINUOUS
 62
    9
370
    5
100
AcDbLine
 10
6.9000138000276
 20
0
 11
6.900013800027599
 21
8.500000000000002
  0
LINE
  5
A6
100
AcDbEntity
  8
vertical
  6
CONTINUOUS
 62
    9
370
    5
100
AcDbLine
 10
6.8500137000274
 20
0
 11
6.8500137000274
 21
8.500000000000002
  0
LINE
  5
A7
100
AcDbEntity
  8
vertical
  6
CONTINUOUS
 62
    9
370
    5
100
AcDbLine
 10
6.8000136000272
 20
0
 11
6.8000136000272
 21
8.500000000000002
  0
LINE
  5
A8
100
AcDbEntity
  8
vertical
  6
CONTINUOUS
 62
    9
370
    5
100
AcDbLine
 10
6.750013500027
 20
0
 11
6.750013500026999
 21
8.500000000000002
  0
LINE
  5
A9
100
AcDbEntity
  8
vertical
  6
CONTINUOUS
 62
    9
370
    5
100
AcDbLine
 10
6.700013400026801
 20
0
 11
6.7000134000268
 21
8.500000000000002
  0
LINE
  5
AA
100
AcDbEntity
  8
vertical
  6
CONTINUOUS
 62
    9
370
    5
100
AcDbLine
 10
6.650013300026601
 20
0
 11
6.650013300026601
 21
8.500000000000002
  0
LINE
  5
AB
100
AcDbEntity
  8
vertical
  6
CONTINUOUS
 62
    9
370
    5
100
AcDbLine
 10
6.6000132000264
 20
0
 11
6.6000132000264
 21
8.500000000000002
  0
LINE
  5
AC
100
AcDbEntity
  8
vertical
  6
CONTINUOUS
 62
    9
370
    5
100
AcDbLine
 10
6.5500131000262
 20
0
 11
6.5500131000262
 21
8.500000000000002
  0
LINE
  5
AD
100
AcDbEntity
  8
vertical
  6
CONTINUOUS
 62
    9
370
    5
100
AcDbLine
 10
6.4500129000258
 20
0
 11
6.4500129000258
 21
8.500000000000002
  0
LINE
  5
AE
100
AcDbEntity
  8
vertical
  6
CONTINUOUS
 62
    9
370
    5
100
AcDbLine
 10
6.4000128000256
 20
0
 11
6.4000128000256
 21
8.500000000000002
  0
LINE
  5
AF
100
AcDbEntity
  8
vertical
  6
CONTINUOUS
 62
    9
370
    5
100
AcDbLine
 10
6.3500127000254
 20
0
 11
6.350012700025401
 21
8.500000000000002
  0
LINE
  5
B0
100
AcDbEntity
  8
vertical
  6
CONTINUOUS
 62
    9
370
    5
100
AcDbLine
 10
6.3000126000252
 20
0
 11
6.3000126000252
 21
8.500000000000002
  0
LINE
  5
B1
100
AcDbEntity
  8
vertical
  6
CONTINUOUS
 62
    9
370
    5
100
AcDbLine
 10
6.250012500025001
 20
0
 11
6.250012500025001
 21
8.500000000000002
  0
LINE
  5
B2
100
AcDbEntity
  8
vertical
  6
CONTINUOUS
 62
    9
370
    5
100
AcDbLine
 10
6.200012400024801
 20
0
 11
6.200012400024801
 21
8.500000000000002
  0
LINE
  5
B3
100
AcDbEntity
  8
vertical
  6
CONTINUOUS
 62
    9
370
    5
100
AcDbLine
 10
6.150012300024601
 20
0
 11
6.150012300024602
 21
8.500000000000002
  0
LINE
  5
B4
100
AcDbEntity
  8
vertical
  6
CONTINUOUS
 62
    9
370
    5
100
AcDbLine
 10
6.100012200024401
 20
0
 11
6.100012200024401
 21
8.500000000000002
  0
LINE
  5
B5
100
AcDbEntity
  8
vertical
  6
CONTINUOUS
 62
    9
370
    5
100
AcDbLine
 10
6.050012100024201
 20
0
 11
6.050012100024201
 21
8.500000000000002
  0
LINE
  5
B6
100
AcDbEntity
  8
vertical
  6
CONTINUOUS
 62
    8
370
    5
100
AcDbLine
 10
6.000012000023999
 20
0
 11
6.000012000023999
 21
8.500000000000002
  0
LINE
  5
B7
100
AcDbEntity
  8
vertical
  6
CONTINUOUS
 62
    9
370
    5
100
AcDbLine
 10
5.950011900023799
 20
0
 11
5.950011900023799
 21
8.500000000000002
  0
LINE
  5
B8
100
AcDbEntity
  8
vertical
  6
CONTINUOUS
 62
    9
370
    5
100
AcDbLine
 10
5.900011800023599
 20
0
 11
5.900011800023599
 21
8.500000000000002
  0
LINE
  5
B9
100
AcDbEntity
  8
vertical
  6
CONTINUOUS
 62
    9
370
    5
100
AcDbLine
 10
5.8500117000234
 20
0
 11
5.8500117000234
 21
8.500000000000002
  0
LINE
  5
BA
100
AcDbEntity
  8
vertical
  6
CONTINUOUS
 62
    9
370
    5
100
AcDbLine
 10
5.8000116000232
 20
0
 11
5.8000116000232
 21
8.500000000000002
  0
LINE
  5
BB
100
AcDbEntity
  8
vertical
  6
CONTINUOUS
 62
    9
370
    5
100
AcDbLine
 10
5.750011500023001
 20
0
 11
5.750011500023001
 21
8.500000000000002
  0
LINE
  5
BC
100
AcDbEntity
  8
vertical
  6
CONTINUOUS
 62
    9
370
    5
100
AcDbLine
 10
5.700011400022801
 20
0
 11
5.700011400022801
 21
8.500000000000002
  0
LINE
  5
BD
100
AcDbEntity
  8
vertical
  6
CONTINUOUS
 62
    9
370
    5
100
AcDbLine
 10
5.650011300022601
 20
0
 11
5.650011300022601
 21
8.500000000000002
  0
LINE
  5
BE
100
AcDbEntity
  8
vertical
  6
CONTINUOUS
 62
    9
370
    5
100
AcDbLine
 10
5.600011200022401
 20
0
 11
5.600011200022401
 21
8.500000000000002
  0
LINE
  5
BF
100
AcDbEntity
  8
vertical
  6
CONTINUOUS
 62
    9
370
    5
100
AcDbLine
 10
5.550011100022201
 20
0
 11
5.550011100022201
 21
8.500000000000002
  0
LINE
  5
C0
100
AcDbEntity
  8
vertical
  6
CONTINUOUS
 62
    8
370
    5
100
AcDbLine
 10
5.500011000022001
 20
0
 11
5.500011000022001
 21
8.500000000000002
  0
LINE
  5
C1
100
AcDbEntity
  8
vertical
  6
CONTINUOUS
 62
    8
370
    5
100
AcDbLine
 10
6.500013000026
 20
0
 11
6.500013000026001
 21
8.500000000000002
  0
LINE
  5
C2
100
AcDbEntity
  8
vertical
  6
CONTINUOUS
 62
    9
370
    5
100
AcDbLine
 10
5.450010900021801
 20
0
 11
5.450010900021801
 21
8.500000000000002
  0
LINE
  5
C3
100
AcDbEntity
  8
vertical
  6
CONTINUOUS
 62
    9
370
    5
100
AcDbLine
 10
5.400010800021601
 20
0
 11
5.400010800021601
 21
8.500000000000002
  0
LINE
  5
C4
100
AcDbEntity
  8
vertical
  6
CONTINUOUS
 62
    9
370
    5
100
AcDbLine
 10
5.3500107000214
 20
0
 11
5.3500107000214
 21
8.500000000000002
  0
LINE
  5
C5
100
AcDbEntity
  8
vertical
  6
CONTINUOUS
 62
    9
370
    5
100
AcDbLine
 10
5.3000106000212
 20
0
 11
5.3000106000212
 21
8.500000000000002
  0
LINE
  5
C6
100
AcDbEntity
  8
vertical
  6
CONTINUOUS
 62
    9
370
    5
100
AcDbLine
 10
5.250010500021
 20
0
 11
5.250010500021
 21
8.500000000000002
  0
LINE
  5
C7
100
AcDbEntity
  8
vertical
  6
CONTINUOUS
 62
    9
370
    5
100
AcDbLine
 10
5.2000104000208
 20
0
 11
5.2000104000208
 21
8.500000000000002
  0
LINE
  5
C8
100
AcDbEntity
  8
vertical
  6
CONTINUOUS
 62
    9
370
    5
100
AcDbLine
 10
5.1500103000206
 20
0
 11
5.1500103000206
 21
8.500000000000002
  0
LINE
  5
C9
100
AcDbEntity
  8
vertical
  6
CONTINUOUS
 62
    9
370
    5
100
AcDbLine
 10
5.1000102000204
 20
0
 11
5.1000102000204
 21
8.500000000000002
  0
LINE
  5
CA
100
AcDbEntity
  8
vertical
  6
CONTINUOUS
 62
    9
370
    5
100
AcDbLine
 10
5.0500101000202
 20
0
 11
5.0500101000202
 21
8.500000000000002
  0
LINE
  5
CB
100
AcDbEntity
  8
vertical
  6
CONTINUOUS
 62
    8
370
    5
100
AcDbLine
 10
5.000010000020001
 20
0
 11
5.00001000002
 21
8.500000000000002
  0
LINE
  5
CC
100
AcDbEntity
  8
vertical
  6
CONTINUOUS
 62
    9
370
    5
100
AcDbLine
 10
4.950009900019801
 20
0
 11
4.9500099000198
 21
8.500000000000002
  0
LINE
  5
CD
100
AcDbEntity
  8
vertical
  6
CONTINUOUS
 62
    9
370
    5
100
AcDbLine
 10
4.900009800019601
 20
0
 11
4.9000098000196
 21
8.500000000000002
  0
LINE
  5
CE
100
AcDbEntity
  8
vertical
  6
CONTINUOUS
 62
    9
370
    5
100
AcDbLine
 10
4.8500097000194
 20
0
 11
4.8500097000194
 21
8.500000000000002
  0
LINE
  5
CF
100
AcDbEntity
  8
vertical
  6
CONTINUOUS
 62
    9
370
    5
100
AcDbLine
 10
4.8000096000192
 20
0
 11
4.8000096000192
 21
8.500000000000002
  0
LINE
  5
D0
100
AcDbEntity
  8
vertical
  6
CONTINUOUS
 62
    9
370
    5
100
AcDbLine
 10
4.750009500019
 20
0
 11
4.750009500019
 21
8.500000000000002
  0
LINE
  5
D1
100
AcDbEntity
  8
vertical
  6
CONTINUOUS
 62
    9
370
    5
100
AcDbLine
 10
4.7000094000188
 20
0
 11
4.7000094000188
 21
8.500000000000002
  0
LINE
  5
D2
100
AcDbEntity
  8
vertical
  6
CONTINUOUS
 62
    9
370
    5
100
AcDbLine
 10
4.6500093000186
 20
0
 11
4.6500093000186
 21
8.500000000000002
  0
LINE
  5
D3
100
AcDbEntity
  8
vertical
  6
CONTINUOUS
 62
    9
370
    5
100
AcDbLine
 10
4.6000092000184
 20
0
 11
4.600009200018399
 21
8.500000000000002
  0
LINE
  5
D4
100
AcDbEntity
  8
vertical
  6
CONTINUOUS
 62
    9
370
    5
100
AcDbLine
 10
4.5500091000182
 20
0
 11
4.550009100018199
 21
8.500000000000002
  0
LINE
  5
D5
100
AcDbEntity
  8
vertical
  6
CONTINUOUS
 62
    8
370
    5
100
AcDbLine
 10
4.500009000018
 20
0
 11
4.500009000017999
 21
8.500000000000002
  0
LINE
  5
D6
100
AcDbEntity
  8
vertical
  6
CONTINUOUS
 62
    9
370
    5
100
AcDbLine
 10
4.4500089000178
 20
0
 11
4.450008900017799
 21
8.500000000000002
  0
LINE
  5
D7
100
AcDbEntity
  8
vertical
  6
CONTINUOUS
 62
    9
370
    5
100
AcDbLine
 10
4.4000088000176
 20
0
 11
4.400008800017599
 21
8.500000000000002
  0
LINE
  5
D8
100
AcDbEntity
  8
vertical
  6
CONTINUOUS
 62
    9
370
    5
100
AcDbLine
 10
4.3500087000174
 20
0
 11
4.350008700017399
 21
8.500000000000002
  0
LINE
  5
D9
100
AcDbEntity
  8
vertical
  6
CONTINUOUS
 62
    9
370
    5
100
AcDbLine
 10
4.3000086000172
 20
0
 11
4.3000086000172
 21
8.500000000000002
  0
LINE
  5
DA
100
AcDbEntity
  8
vertical
  6
CONTINUOUS
 62
    9
370
    5
100
AcDbLine
 10
4.250008500017
 20
0
 11
4.250008500017
 21
8.500000000000002
  0
LINE
  5
DB
100
AcDbEntity
  8
vertical
  6
CONTINUOUS
 62
    9
370
    5
100
AcDbLine
 10
4.2000084000168
 20
0
 11
4.2000084000168
 21
8.500000000000002
  0
LINE
  5
DC
100
AcDbEntity
  8
vertical
  6
CONTINUOUS
 62
    9
370
    5
100
AcDbLine
 10
4.1500083000166
 20
0
 11
4.1500083000166
 21
8.500000000000002
  0
LINE
  5
DD
100
AcDbEntity
  8
vertical
  6
CONTINUOUS
 62
    9
370
    5
100
AcDbLine
 10
4.100008200016401
 20
0
 11
4.1000082000164
 21
8.500000000000002
  0
LINE
  5
DE
100
AcDbEntity
  8
vertical
  6
CONTINUOUS
 62
    9
370
    5
100
AcDbLine
 10
4.050008100016201
 20
0
 11
4.0500081000162
 21
8.500000000000002
  0
LINE
  5
DF
100
AcDbEntity
  8
vertical
  6
CONTINUOUS
 62
    8
370
    5
100
AcDbLine
 10
4.000008000016001
 20
0
 11
4.000008000015999
 21
8.500000000000002
  0
LINE
  5
E0
100
AcDbEntity
  8
vertical
  6
CONTINUOUS
 62
    9
370
    5
100
AcDbLine
 10
3.9500079000158
 20
0
 11
3.950007900015799
 21
8.500000000000002
  0
LINE
  5
E1
100
AcDbEntity
  8
vertical
  6
CONTINUOUS
 62
    9
370
    5
100
AcDbLine
 10
3.9000078000156
 20
0
 11
3.9000078000156
 21
8.500000000000002
  0
LINE
  5
E2
100
AcDbEntity
  8
vertical
  6
CONTINUOUS
 62
    9
370
    5
100
AcDbLine
 10
3.8500077000154
 20
0
 11
3.8500077000154
 21
8.500000000000002
  0
LINE
  5
E3
100
AcDbEntity
  8
vertical
  6
CONTINUOUS
 62
    9
370
    5
100
AcDbLine
 10
3.8000076000152
 20
0
 11
3.8000076000152
 21
8.500000000000002
  0
LINE
  5
E4
100
AcDbEntity
  8
vertical
  6
CONTINUOUS
 62
    9
370
    5
100
AcDbLine
 10
3.750007500015
 20
0
 11
3.750007500015
 21
8.500000000000002
  0
LINE
  5
E5
100
AcDbEntity
  8
vertical
  6
CONTINUOUS
 62
    9
370
    5
100
AcDbLine
 10
3.7000074000148
 20
0
 11
3.7000074000148
 21
8.500000000000002
  0
LINE
  5
E6
100
AcDbEntity
  8
vertical
  6
CONTINUOUS
 62
    9
370
    5
100
AcDbLine
 10
3.6500073000146
 20
0
 11
3.650007300014599
 21
8.500000000000002
  0
LINE
  5
E7
100
AcDbEntity
  8
vertical
  6
CONTINUOUS
 62
    9
370
    5
100
AcDbLine
 10
3.6000072000144
 20
0
 11
3.600007200014399
 21
8.500000000000002
  0
LINE
  5
E8
100
AcDbEntity
  8
vertical
  6
CONTINUOUS
 62
    9
370
    5
100
AcDbLine
 10
3.5500071000142
 20
0
 11
3.5500071000142
 21
8.500000000000002
  0
LINE
  5
E9
100
AcDbEntity
  8
vertical
  6
CONTINUOUS
 62
    8
370
    5
100
AcDbLine
 10
3.500007000014
 20
0
 11
3.500007000014
 21
8.500000000000002
  0
LINE
  5
EA
100
AcDbEntity
  8
vertical
  6
CONTINUOUS
 62
    9
370
    5
100
AcDbLine
 10
3.4500069000138
 20
0
 11
3.450006900013799
 21
8.500000000000002
  0
LINE
  5
EB
100
AcDbEntity
  8
vertical
  6
CONTINUOUS
 62
    9
370
    5
100
AcDbLine
 10
3.4000068000136
 20
0
 11
3.4000068000136
 21
8.500000000000002
  0
LINE
  5
EC
100
AcDbEntity
  8
vertical
  6
CONTINUOUS
 62
    9
370
    5
100
AcDbLine
 10
3.3500067000134
 20
0
 11
3.350006700013399
 21
8.500000000000002
  0
LINE
  5
ED
100
AcDbEntity
  8
vertical
  6
CONTINUOUS
 62
    9
370
    5
100
AcDbLine
 10
3.300006600013201
 20
0
 11
3.3000066000132
 21
8.500000000000002
  0
LINE
  5
EE
100
AcDbEntity
  8
vertical
  6
CONTINUOUS
 62
    9
370
    5
100
AcDbLine
 10
3.250006500013
 20
0
 11
3.250006500013
 21
8.500000000000002
  0
LINE
  5
EF
100
AcDbEntity
  8
vertical
  6
CONTINUOUS
 62
    9
370
    5
100
AcDbLine
 10
3.2000064000128
 20
0
 11
3.2000064000128
 21
8.500000000000002
  0
LINE
  5
F0
100
AcDbEntity
  8
vertical
  6
CONTINUOUS
 62
    9
370
    5
100
AcDbLine
 10
3.1500063000126
 20
0
 11
3.1500063000126
 21
8.500000000000002
  0
LINE
  5
F1
100
AcDbEntity
  8
vertical
  6
CONTINUOUS
 62
    9
370
    5
100
AcDbLine
 10
3.1000062000124
 20
0
 11
3.1000062000124
 21
8.500000000000002
  0
LINE
  5
F2
100
AcDbEntity
  8
vertical
  6
CONTINUOUS
 62
    9
370
    5
100
AcDbLine
 10
3.050006100012201
 20
0
 11
3.0500061000122
 21
8.500000000000002
  0
LINE
  5
F3
100
AcDbEntity
  8
vertical
  6
CONTINUOUS
 62
    8
370
    5
100
AcDbLine
 10
3.000006000012001
 20
0
 11
3.000006000012
 21
8.500000000000002
  0
LINE
  5
F4
100
AcDbEntity
  8
vertical
  6
CONTINUOUS
 62
    9
370
    5
100
AcDbLine
 10
2.9500059000118
 20
0
 11
2.9500059000118
 21
8.500000000000002
  0
LINE
  5
F5
100
AcDbEntity
  8
vertical
  6
CONTINUOUS
 62
    9
370
    5
100
AcDbLine
 10
2.9000058000116
 20
0
 11
2.9000058000116
 21
8.500000000000002
  0
LINE
  5
F6
100
AcDbEntity
  8
vertical
  6
CONTINUOUS
 62
    9
370
    5
100
AcDbLine
 10
2.8500057000114
 20
0
 11
2.8500057000114
 21
8.500000000000002
  0
LINE
  5
F7
100
AcDbEntity
  8
vertical
  6
CONTINUOUS
 62
    9
370
    5
100
AcDbLine
 10
2.8000056000112
 20
0
 11
2.800005600011199
 21
8.500000000000002
  0
LINE
  5
F8
100
AcDbEntity
  8
vertical
  6
CONTINUOUS
 62
    9
370
    5
100
AcDbLine
 10
2.750005500011
 20
0
 11
2.750005500011
 21
8.500000000000002
  0
LINE
  5
F9
100
AcDbEntity
  8
vertical
  6
CONTINUOUS
 62
    9
370
    5
100
AcDbLine
 10
2.7000054000108
 20
0
 11
2.7000054000108
 21
8.500000000000002
  0
LINE
  5
FA
100
AcDbEntity
  8
vertical
  6
CONTINUOUS
 62
    9
370
    5
100
AcDbLine
 10
2.650005300010601
 20
0
 11
2.6500053000106
 21
8.500000000000002
  0
LINE
  5
FB
100
AcDbEntity
  8
vertical
  6
CONTINUOUS
 62
    9
370
    5
100
AcDbLine
 10
2.6000052000104
 20
0
 11
2.6000052000104
 21
8.500000000000002
  0
LINE
  5
FC
100
AcDbEntity
  8
vertical
  6
CONTINUOUS
 62
    9
370
    5
100
AcDbLine
 10
2.5500051000102
 20
0
 11
2.5500051000102
 21
8.500000000000002
  0
LINE
  5
FD
100
AcDbEntity
  8
vertical
  6
CONTINUOUS
 62
    8
370
    5
100
AcDbLine
 10
2.50000500001
 20
0
 11
2.50000500001
 21
8.500000000000002
  0
LINE
  5
FE
100
AcDbEntity
  8
vertical
  6
CONTINUOUS
 62
    9
370
    5
100
AcDbLine
 10
2.4500049000098
 20
0
 11
2.4500049000098
 21
8.500000000000002
  0
LINE
  5
FF
100
AcDbEntity
  8
vertical
  6
CONTINUOUS
 62
    9
370
    5
100
AcDbLine
 10
2.4000048000096
 20
0
 11
2.4000048000096
 21
8.500000000000002
  0
LINE
  5
100
100
AcDbEntity
  8
vertical
  6
CONTINUOUS
 62
    9
370
    5
100
AcDbLine
 10
2.3500047000094
 20
0
 11
2.3500047000094
 21
8.500000000000002
  0
LINE
  5
101
100
AcDbEntity
  8
vertical
  6
CONTINUOUS
 62
    9
370
    5
100
AcDbLine
 10
2.3000046000092
 20
0
 11
2.3000046000092
 21
8.500000000000002
  0
LINE
  5
102
100
AcDbEntity
  8
vertical
  6
CONTINUOUS
 62
    9
370
    5
100
AcDbLine
 10
2.250004500009
 20
0
 11
2.250004500009
 21
8.500000000000002
  0
LINE
  5
103
100
AcDbEntity
  8
vertical
  6
CONTINUOUS
 62
    9
370
    5
100
AcDbLine
 10
2.2000044000088
 20
0
 11
2.2000044000088
 21
8.500000000000002
  0
LINE
  5
104
100
AcDbEntity
  8
vertical
  6
CONTINUOUS
 62
    9
370
    5
100
AcDbLine
 10
2.1500043000086
 20
0
 11
2.1500043000086
 21
8.500000000000002
  0
LINE
  5
105
100
AcDbEntity
  8
vertical
  6
CONTINUOUS
 62
    9
370
    5
100
AcDbLine
 10
2.1000042000084
 20
0
 11
2.1000042000084
 21
8.500000000000002
  0
LINE
  5
106
100
AcDbEntity
  8
vertical
  6
CONTINUOUS
 62
    9
370
    5
100
AcDbLine
 10
2.0500041000082
 20
0
 11
2.0500041000082
 21
8.500000000000002
  0
LINE
  5
107
100
AcDbEntity
  8
vertical
  6
CONTINUOUS
 62
    8
370
    5
100
AcDbLine
 10
2.000004000008
 20
0
 11
2.000004000008
 21
8.5
  0
LINE
  5
108
100
AcDbEntity
  8
vertical
  6
CONTINUOUS
 62
    9
370
    5
100
AcDbLine
 10
1.9500039000078
 20
0
 11
1.9500039000078
 21
8.5
  0
LINE
  5
109
100
AcDbEntity
  8
vertical
  6
CONTINUOUS
 62
    9
370
    5
100
AcDbLine
 10
1.9000038000076
 20
0
 11
1.9000038000076
 21
8.5
  0
LINE
  5
10A
100
AcDbEntity
  8
vertical
  6
CONTINUOUS
 62
    9
370
    5
100
AcDbLine
 10
1.8500037000074
 20
0
 11
1.8500037000074
 21
8.5
  0
LINE
  5
10B
100
AcDbEntity
  8
vertical
  6
CONTINUOUS
 62
    9
370
    5
100
AcDbLine
 10
1.8000036000072
 20
0
 11
1.8000036000072
 21
8.5
  0
LINE
  5
10C
100
AcDbEntity
  8
vertical
  6
CONTINUOUS
 62
    9
370
    5
100
AcDbLine
 10
1.750003500007
 20
0
 11
1.750003500007
 21
8.5
  0
LINE
  5
10D
100
AcDbEntity
  8
vertical
  6
CONTINUOUS
 62
    9
370
    5
100
AcDbLine
 10
1.7000034000068
 20
0
 11
1.7000034000068
 21
8.5
  0
LINE
  5
10E
100
AcDbEntity
  8
vertical
  6
CONTINUOUS
 62
    9
370
    5
100
AcDbLine
 10
1.6500033000066
 20
0
 11
1.6500033000066
 21
8.5
  0
LINE
  5
10F
100
AcDbEntity
  8
vertical
  6
CONTINUOUS
 62
    9
370
    5
100
AcDbLine
 10
1.6000032000064
 20
0
 11
1.6000032000064
 21
8.5
  0
LINE
  5
110
100
AcDbEntity
  8
vertical
  6
CONTINUOUS
 62
    9
370
    5
100
AcDbLine
 10
1.5500031000062
 20
0
 11
1.5500031000062
 21
8.5
  0
LINE
  5
111
100
AcDbEntity
  8
vertical
  6
CONTINUOUS
 62
    8
370
    5
100
AcDbLine
 10
1.500003000006
 20
0
 11
1.500003000006
 21
8.5
  0
LINE
  5
112
100
AcDbEntity
  8
vertical
  6
CONTINUOUS
 62
    9
370
    5
100
AcDbLine
 10
1.4500029000058
 20
0
 11
1.4500029000058
 21
8.5
  0
LINE
  5
113
100
AcDbEntity
  8
vertical
  6
CONTINUOUS
 62
    9
370
    5
100
AcDbLine
 10
1.4000028000056
 20
0
 11
1.4000028000056
 21
8.5
  0
LINE
  5
114
100
AcDbEntity
  8
vertical
  6
CONTINUOUS
 62
    9
370
    5
100
AcDbLine
 10
1.3500027000054
 20
0
 11
1.3500027000054
 21
8.5
  0
LINE
  5
115
100
AcDbEntity
  8
vertical
  6
CONTINUOUS
 62
    9
370
    5
100
AcDbLine
 10
1.3000026000052
 20
0
 11
1.3000026000052
 21
8.5
  0
LINE
  5
116
100
AcDbEntity
  8
vertical
  6
CONTINUOUS
 62
    9
370
    5
100
AcDbLine
 10
1.250002500005
 20
0
 11
1.250002500005
 21
8.5
  0
LINE
  5
117
100
AcDbEntity
  8
vertical
  6
CONTINUOUS
 62
    9
370
    5
100
AcDbLine
 10
1.2000024000048
 20
0
 11
1.2000024000048
 21
8.5
  0
LINE
  5
118
100
AcDbEntity
  8
vertical
  6
CONTINUOUS
 62
    9
370
    5
100
AcDbLine
 10
1.1500023000046
 20
0
 11
1.1500023000046
 21
8.5
  0
LINE
  5
119
100
AcDbEntity
  8
vertical
  6
CONTINUOUS
 62
    9
370
    5
100
AcDbLine
 10
1.1000022000044
 20
0
 11
1.1000022000044
 21
8.5
  0
LINE
  5
11A
100
AcDbEntity
  8
vertical
  6
CONTINUOUS
 62
    8
370
    5
100
AcDbLine
 10
1.000002000004
 20
0
 11
1.000002000004
 21
8.5
  0
LINE
  5
11B
100
AcDbEntity
  8
vertical
  6
CONTINUOUS
 62
    9
370
    5
100
AcDbLine
 10
1.0500021000042
 20
0
 11
1.0500021000042
 21
8.5
  0
LINE
  5
11C
100
AcDbEntity
  8
vertical
  6
CONTINUOUS
 62
    9
370
    5
100
AcDbLine
 10
0.9500019000038001
 20
0
 11
0.9500019000037997
 21
8.5
  0
LINE
  5
11D
100
AcDbEntity
  8
vertical
  6
CONTINUOUS
 62
    9
370
    5
100
AcDbLine
 10
0.9000018000036001
 20
0
 11
0.9000018000035996
 21
8.5
  0
LINE
  5
11E
100
AcDbEntity
  8
vertical
  6
CONTINUOUS
 62
    9
370
    5
100
AcDbLine
 10
0.8500017000034001
 20
0
 11
0.8500017000033997
 21
8.5
  0
LINE
  5
11F
100
AcDbEntity
  8
vertical
  6
CONTINUOUS
 62
    9
370
    5
100
AcDbLine
 10
0.8000016000032001
 20
0
 11
0.8000016000031996
 21
8.5
  0
LINE
  5
120
100
AcDbEntity
  8
vertical
  6
CONTINUOUS
 62
    9
370
    5
100
AcDbLine
 10
0.750001500003
 20
0
 11
0.7500015000029998
 21
8.5
  0
LINE
  5
121
100
AcDbEntity
  8
vertical
  6
CONTINUOUS
 62
    9
370
    5
100
AcDbLine
 10
0.7000014000028002
 20
0
 11
0.7000014000027998
 21
8.5
  0
LINE
  5
122
100
AcDbEntity
  8
vertical
  6
CONTINUOUS
 62
    9
370
    5
100
AcDbLine
 10
0.6500013000026001
 20
0
 11
0.6500013000026001
 21
8.5
  0
LINE
  5
123
100
AcDbEntity
  8
vertical
  6
CONTINUOUS
 62
    9
370
    5
100
AcDbLine
 10
0.6000012000024001
 20
0
 11
0.6000012000023996
 21
8.5
  0
LINE
  5
124
100
AcDbEntity
  8
vertical
  6
CONTINUOUS
 62
    9
370
    5
100
AcDbLine
 10
0.5500011000022001
 20
0
 11
0.5500011000021997
 21
8.5
  0
LINE
  5
125
100
AcDbEntity
  8
vertical
  6
CONTINUOUS
 62
    8
370
    5
100
AcDbLine
 10
0.50000127000254
 20
0
 11
0.50000127000254
 21
8.5
  0
LINE
  5
126
100
AcDbEntity
  8
vertical
  6
CONTINUOUS
 62
    9
370
    5
100
AcDbLine
 10
0.4500009000018001
 20
0
 11
0.4500009000017997
 21
8.5
  0
LINE
  5
127
100
AcDbEntity
  8
vertical
  6
CONTINUOUS
 62
    9
370
    5
100
AcDbLine
 10
0.4000008000016001
 20
0
 11
0.4000008000015997
 21
8.5
  0
LINE
  5
128
100
AcDbEntity
  8
vertical
  6
CONTINUOUS
 62
    9
370
    5
100
AcDbLine
 10
0.3500007000014002
 20
0
 11
0.3500007000013997
 21
8.5
  0
LINE
  5
129
100
AcDbEntity
  8
vertical
  6
CONTINUOUS
 62
    9
370
    5
100
AcDbLine
 10
0.3000006000012001
 20
0
 11
0.3000006000011997
 21
8.5
  0
LINE
  5
12A
100
AcDbEntity
  8
vertical
  6
CONTINUOUS
 62
    9
370
    5
100
AcDbLine
 10
0.2500005000010001
 20
0
 11
0.2500005000009997
 21
8.5
  0
LINE
  5
12B
100
AcDbEntity
  8
vertical
  6
CONTINUOUS
 62
    9
370
    5
100
AcDbLine
 10
0.2000004000008001
 20
0
 11
0.2000004000007997
 21
8.5
  0
LINE
  5
12C
100
AcDbEntity
  8
vertical
  6
CONTINUOUS
 62
    9
370
    5
100
AcDbLine
 10
0.1500003000006001
 20
0
 11
0.1500003000005997
 21
8.5
  0
LINE
  5
12D
100
AcDbEntity
  8
vertical
  6
CONTINUOUS
 62
    9
370
    5
100
AcDbLine
 10
0.1000002000004001
 20
0
 11
0.1000002000003996
 21
8.5
  0
LINE
  5
12E
100
AcDbEntity
  8
vertical
  6
CONTINUOUS
 62
    9
370
    5
100
AcDbLine
 10
0.0500001000002001
 20
0
 11
0.05000010000019968
 21
8.5
  0
LINE
  5
12F
100
AcDbEntity
  8
horizontal
  6
CONTINUOUS
 62
    9
370
    5
100
AcDbLine
 10
1.110223024625157e-016
 20
8.200016400032801
 11
11
 21
8.200016400032801
  0
LINE
  5
130
100
AcDbEntity
  8
horizontal
  6
CONTINUOUS
 62
    9
370
    5
100
AcDbLine
 10
1.110223024625157e-016
 20
8.1500163000326
 11
11
 21
8.1500163000326
  0
LINE
  5
131
100
AcDbEntity
  8
horizontal
  6
CONTINUOUS
 62
    9
370
    5
100
AcDbLine
 10
1.110223024625157e-016
 20
8.100016200032401
 11
11
 21
8.100016200032401
  0
LINE
  5
132
100
AcDbEntity
  8
horizontal
  6
CONTINUOUS
 62
    9
370
    5
100
AcDbLine
 10
1.110223024625157e-016
 20
8.050016100032201
 11
11
 21
8.050016100032201
  0
LINE
  5
133
100
AcDbEntity
  8
horizontal
  6
CONTINUOUS
 62
    8
370
    5
100
AcDbLine
 10
1.110223024625157e-016
 20
8.000016000032
 11
11
 21
8.000016000032
  0
LINE
  5
134
100
AcDbEntity
  8
horizontal
  6
CONTINUOUS
 62
    9
370
    5
100
AcDbLine
 10
1.110223024625157e-016
 20
7.9500159000318
 11
11
 21
7.9500159000318
  0
LINE
  5
135
100
AcDbEntity
  8
horizontal
  6
CONTINUOUS
 62
    9
370
    5
100
AcDbLine
 10
1.110223024625157e-016
 20
7.9000158000316
 11
11
 21
7.9000158000316
  0
LINE
  5
136
100
AcDbEntity
  8
horizontal
  6
CONTINUOUS
 62
    9
370
    5
100
AcDbLine
 10
1.110223024625157e-016
 20
7.8500157000314
 11
11
 21
7.8500157000314
  0
LINE
  5
137
100
AcDbEntity
  8
horizontal
  6
CONTINUOUS
 62
    9
370
    5
100
AcDbLine
 10
1.110223024625157e-016
 20
7.8000156000312
 11
11
 21
7.8000156000312
  0
LINE
  5
138
100
AcDbEntity
  8
horizontal
  6
CONTINUOUS
 62
    9
370
    5
100
AcDbLine
 10
1.110223024625157e-016
 20
7.750015500031
 11
11
 21
7.750015500031
  0
LINE
  5
139
100
AcDbEntity
  8
horizontal
  6
CONTINUOUS
 62
    9
370
    5
100
AcDbLine
 10
1.110223024625157e-016
 20
7.7000154000308
 11
11
 21
7.7000154000308
  0
LINE
  5
13A
100
AcDbEntity
  8
horizontal
  6
CONTINUOUS
 62
    9
370
    5
100
AcDbLine
 10
1.110223024625157e-016
 20
7.6500153000306
 11
11
 21
7.6500153000306
  0
LINE
  5
13B
100
AcDbEntity
  8
horizontal
  6
CONTINUOUS
 62
    9
370
    5
100
AcDbLine
 10
1.110223024625157e-016
 20
7.6000152000304
 11
11
 21
7.6000152000304
  0
LINE
  5
13C
100
AcDbEntity
  8
horizontal
  6
CONTINUOUS
 62
    9
370
    5
100
AcDbLine
 10
1.110223024625157e-016
 20
7.5500151000302
 11
11
 21
7.5500151000302
  0
LINE
  5
13D
100
AcDbEntity
  8
horizontal
  6
CONTINUOUS
 62
    8
370
    5
100
AcDbLine
 10
1.110223024625157e-016
 20
7.50001500003
 11
11
 21
7.50001500003
  0
LINE
  5
13E
100
AcDbEntity
  8
horizontal
  6
CONTINUOUS
 62
    9
370
    5
100
AcDbLine
 10
1.110223024625157e-016
 20
7.4500149000298
 11
11
 21
7.4500149000298
  0
LINE
  5
13F
100
AcDbEntity
  8
horizontal
  6
CONTINUOUS
 62
    9
370
    5
100
AcDbLine
 10
1.110223024625157e-016
 20
7.4000148000296
 11
11
 21
7.4000148000296
  0
LINE
  5
140
100
AcDbEntity
  8
horizontal
  6
CONTINUOUS
 62
    9
370
    5
100
AcDbLine
 10
1.110223024625157e-016
 20
7.3500147000294
 11
11
 21
7.3500147000294
  0
LINE
  5
141
100
AcDbEntity
  8
horizontal
  6
CONTINUOUS
 62
    9
370
    5
100
AcDbLine
 10
1.110223024625157e-016
 20
7.3000146000292
 11
11
 21
7.3000146000292
  0
LINE
  5
142
100
AcDbEntity
  8
horizontal
  6
CONTINUOUS
 62
    9
370
    5
100
AcDbLine
 10
1.110223024625157e-016
 20
7.250014500029
 11
11
 21
7.250014500029
  0
LINE
  5
143
100
AcDbEntity
  8
horizontal
  6
CONTINUOUS
 62
    9
370
    5
100
AcDbLine
 10
1.110223024625157e-016
 20
7.2000144000288
 11
11
 21
7.2000144000288
  0
LINE
  5
144
100
AcDbEntity
  8
horizontal
  6
CONTINUOUS
 62
    9
370
    5
100
AcDbLine
 10
1.110223024625157e-016
 20
7.1500143000286
 11
11
 21
7.1500143000286
  0
LINE
  5
145
100
AcDbEntity
  8
horizontal
  6
CONTINUOUS
 62
    9
370
    5
100
AcDbLine
 10
1.110223024625157e-016
 20
7.1000142000284
 11
11
 21
7.1000142000284
  0
LINE
  5
146
100
AcDbEntity
  8
horizontal
  6
CONTINUOUS
 62
    9
370
    5
100
AcDbLine
 10
1.110223024625157e-016
 20
7.0500141000282
 11
11
 21
7.0500141000282
  0
LINE
  5
147
100
AcDbEntity
  8
horizontal
  6
CONTINUOUS
 62
    8
370
    5
100
AcDbLine
 10
1.110223024625157e-016
 20
7.000014000028
 11
11
 21
7.000014000028
  0
LINE
  5
148
100
AcDbEntity
  8
horizontal
  6
CONTINUOUS
 62
    9
370
    5
100
AcDbLine
 10
1.110223024625157e-016
 20
6.9500139000278
 11
11
 21
6.9500139000278
  0
LINE
  5
149
100
AcDbEntity
  8
horizontal
  6
CONTINUOUS
 62
    9
370
    5
100
AcDbLine
 10
1.110223024625157e-016
 20
6.9000138000276
 11
11
 21
6.9000138000276
  0
LINE
  5
14A
100
AcDbEntity
  8
horizontal
  6
CONTINUOUS
 62
    9
370
    5
100
AcDbLine
 10
1.110223024625157e-016
 20
6.8500137000274
 11
11
 21
6.8500137000274
  0
LINE
  5
14B
100
AcDbEntity
  8
horizontal
  6
CONTINUOUS
 62
    9
370
    5
100
AcDbLine
 10
1.110223024625157e-016
 20
6.8000136000272
 11
11
 21
6.8000136000272
  0
LINE
  5
14C
100
AcDbEntity
  8
horizontal
  6
CONTINUOUS
 62
    9
370
    5
100
AcDbLine
 10
1.110223024625157e-016
 20
6.750013500027001
 11
11
 21
6.750013500027001
  0
LINE
  5
14D
100
AcDbEntity
  8
horizontal
  6
CONTINUOUS
 62
    9
370
    5
100
AcDbLine
 10
1.110223024625157e-016
 20
6.700013400026799
 11
11
 21
6.700013400026799
  0
LINE
  5
14E
100
AcDbEntity
  8
horizontal
  6
CONTINUOUS
 62
    9
370
    5
100
AcDbLine
 10
1.110223024625157e-016
 20
6.6500133000266
 11
11
 21
6.6500133000266
  0
LINE
  5
14F
100
AcDbEntity
  8
horizontal
  6
CONTINUOUS
 62
    9
370
    5
100
AcDbLine
 10
1.110223024625157e-016
 20
6.6000132000264
 11
11
 21
6.6000132000264
  0
LINE
  5
150
100
AcDbEntity
  8
horizontal
  6
CONTINUOUS
 62
    9
370
    5
100
AcDbLine
 10
1.110223024625157e-016
 20
6.5500131000262
 11
11
 21
6.5500131000262
  0
LINE
  5
151
100
AcDbEntity
  8
horizontal
  6
CONTINUOUS
 62
    8
370
    5
100
AcDbLine
 10
1.110223024625157e-016
 20
6.500013000026
 11
11
 21
6.500013000026
  0
LINE
  5
152
100
AcDbEntity
  8
horizontal
  6
CONTINUOUS
 62
    9
370
    5
100
AcDbLine
 10
1.110223024625157e-016
 20
6.4500129000258
 11
11
 21
6.4500129000258
  0
LINE
  5
153
100
AcDbEntity
  8
horizontal
  6
CONTINUOUS
 62
    9
370
    5
100
AcDbLine
 10
1.110223024625157e-016
 20
6.4000128000256
 11
11
 21
6.4000128000256
  0
LINE
  5
154
100
AcDbEntity
  8
horizontal
  6
CONTINUOUS
 62
    9
370
    5
100
AcDbLine
 10
1.110223024625157e-016
 20
6.350012700025401
 11
11
 21
6.350012700025401
  0
LINE
  5
155
100
AcDbEntity
  8
horizontal
  6
CONTINUOUS
 62
    9
370
    5
100
AcDbLine
 10
1.110223024625157e-016
 20
6.300012600025201
 11
11
 21
6.300012600025201
  0
LINE
  5
156
100
AcDbEntity
  8
horizontal
  6
CONTINUOUS
 62
    9
370
    5
100
AcDbLine
 10
1.110223024625157e-016
 20
6.250012500025001
 11
11
 21
6.250012500025001
  0
LINE
  5
157
100
AcDbEntity
  8
horizontal
  6
CONTINUOUS
 62
    9
370
    5
100
AcDbLine
 10
1.110223024625157e-016
 20
6.200012400024801
 11
11
 21
6.2000124000248
  0
LINE
  5
158
100
AcDbEntity
  8
horizontal
  6
CONTINUOUS
 62
    9
370
    5
100
AcDbLine
 10
1.110223024625157e-016
 20
6.150012300024601
 11
11
 21
6.150012300024601
  0
LINE
  5
159
100
AcDbEntity
  8
horizontal
  6
CONTINUOUS
 62
    9
370
    5
100
AcDbLine
 10
1.110223024625157e-016
 20
6.100012200024401
 11
11
 21
6.100012200024401
  0
LINE
  5
15A
100
AcDbEntity
  8
horizontal
  6
CONTINUOUS
 62
    9
370
    5
100
AcDbLine
 10
1.110223024625157e-016
 20
6.050012100024199
 11
11
 21
6.050012100024199
  0
LINE
  5
15B
100
AcDbEntity
  8
horizontal
  6
CONTINUOUS
 62
    8
370
    5
100
AcDbLine
 10
1.110223024625157e-016
 20
6.000012000023999
 11
11
 21
6.000012000023999
  0
LINE
  5
15C
100
AcDbEntity
  8
horizontal
  6
CONTINUOUS
 62
    9
370
    5
100
AcDbLine
 10
1.110223024625157e-016
 20
5.950011900023799
 11
11
 21
5.950011900023799
  0
LINE
  5
15D
100
AcDbEntity
  8
horizontal
  6
CONTINUOUS
 62
    9
370
    5
100
AcDbLine
 10
1.110223024625157e-016
 20
5.9000118000236
 11
11
 21
5.9000118000236
  0
LINE
  5
15E
100
AcDbEntity
  8
horizontal
  6
CONTINUOUS
 62
    9
370
    5
100
AcDbLine
 10
1.110223024625157e-016
 20
5.8500117000234
 11
11
 21
5.8500117000234
  0
LINE
  5
15F
100
AcDbEntity
  8
horizontal
  6
CONTINUOUS
 62
    9
370
    5
100
AcDbLine
 10
1.110223024625157e-016
 20
5.8000116000232
 11
11
 21
5.8000116000232
  0
LINE
  5
160
100
AcDbEntity
  8
horizontal
  6
CONTINUOUS
 62
    9
370
    5
100
AcDbLine
 10
1.110223024625157e-016
 20
5.750011500023001
 11
11
 21
5.750011500023001
  0
LINE
  5
161
100
AcDbEntity
  8
horizontal
  6
CONTINUOUS
 62
    9
370
    5
100
AcDbLine
 10
1.110223024625157e-016
 20
5.650011300022601
 11
11
 21
5.650011300022601
  0
LINE
  5
162
100
AcDbEntity
  8
horizontal
  6
CONTINUOUS
 62
    9
370
    5
100
AcDbLine
 10
1.110223024625157e-016
 20
5.700011400022801
 11
11
 21
5.700011400022801
  0
LINE
  5
163
100
AcDbEntity
  8
horizontal
  6
CONTINUOUS
 62
    9
370
    5
100
AcDbLine
 10
1.110223024625157e-016
 20
5.600011200022401
 11
11
 21
5.600011200022401
  0
LINE
  5
164
100
AcDbEntity
  8
horizontal
  6
CONTINUOUS
 62
    9
370
    5
100
AcDbLine
 10
1.110223024625157e-016
 20
5.550011100022201
 11
11
 21
5.550011100022201
  0
LINE
  5
165
100
AcDbEntity
  8
horizontal
  6
CONTINUOUS
 62
    8
370
    5
100
AcDbLine
 10
1.110223024625157e-016
 20
5.500011000022001
 11
11
 21
5.500011000022001
  0
LINE
  5
166
100
AcDbEntity
  8
horizontal
  6
CONTINUOUS
 62
    9
370
    5
100
AcDbLine
 10
1.110223024625157e-016
 20
5.450010900021801
 11
11
 21
5.450010900021801
  0
LINE
  5
167
100
AcDbEntity
  8
horizontal
  6
CONTINUOUS
 62
    9
370
    5
100
AcDbLine
 10
1.110223024625157e-016
 20
5.4000108000216
 11
11
 21
5.4000108000216
  0
LINE
  5
168
100
AcDbEntity
  8
horizontal
  6
CONTINUOUS
 62
    9
370
    5
100
AcDbLine
 10
1.110223024625157e-016
 20
5.3500107000214
 11
11
 21
5.350010700021399
  0
LINE
  5
169
100
AcDbEntity
  8
horizontal
  6
CONTINUOUS
 62
    9
370
    5
100
AcDbLine
 10
1.110223024625157e-016
 20
5.3000106000212
 11
11
 21
5.3000106000212
  0
LINE
  5
16A
100
AcDbEntity
  8
horizontal
  6
CONTINUOUS
 62
    9
370
    5
100
AcDbLine
 10
1.110223024625157e-016
 20
5.250010500021
 11
11
 21
5.250010500021
  0
LINE
  5
16B
100
AcDbEntity
  8
horizontal
  6
CONTINUOUS
 62
    9
370
    5
100
AcDbLine
 10
1.110223024625157e-016
 20
5.2000104000208
 11
11
 21
5.200010400020801
  0
LINE
  5
16C
100
AcDbEntity
  8
horizontal
  6
CONTINUOUS
 62
    9
370
    5
100
AcDbLine
 10
1.110223024625157e-016
 20
5.1500103000206
 11
11
 21
5.1500103000206
  0
LINE
  5
16D
100
AcDbEntity
  8
horizontal
  6
CONTINUOUS
 62
    9
370
    5
100
AcDbLine
 10
1.110223024625157e-016
 20
5.1000102000204
 11
11
 21
5.1000102000204
  0
LINE
  5
16E
100
AcDbEntity
  8
horizontal
  6
CONTINUOUS
 62
    9
370
    5
100
AcDbLine
 10
1.110223024625157e-016
 20
5.0500101000202
 11
11
 21
5.0500101000202
  0
LINE
  5
16F
100
AcDbEntity
  8
horizontal
  6
CONTINUOUS
 62
    8
370
    5
100
AcDbLine
 10
1.110223024625157e-016
 20
5.000010000020001
 11
11
 21
5.000010000020001
  0
LINE
  5
170
100
AcDbEntity
  8
horizontal
  6
CONTINUOUS
 62
    9
370
    5
100
AcDbLine
 10
1.110223024625157e-016
 20
4.9500099000198
 11
11
 21
4.950009900019801
  0
LINE
  5
171
100
AcDbEntity
  8
horizontal
  6
CONTINUOUS
 62
    9
370
    5
100
AcDbLine
 10
1.110223024625157e-016
 20
4.9000098000196
 11
11
 21
4.900009800019602
  0
LINE
  5
172
100
AcDbEntity
  8
horizontal
  6
CONTINUOUS
 62
    9
370
    5
100
AcDbLine
 10
1.110223024625157e-016
 20
4.8500097000194
 11
11
 21
4.850009700019401
  0
LINE
  5
173
100
AcDbEntity
  8
horizontal
  6
CONTINUOUS
 62
    9
370
    5
100
AcDbLine
 10
1.110223024625157e-016
 20
4.8000096000192
 11
11
 21
4.800009600019201
  0
LINE
  5
174
100
AcDbEntity
  8
horizontal
  6
CONTINUOUS
 62
    9
370
    5
100
AcDbLine
 10
1.110223024625157e-016
 20
4.750009500019
 11
11
 21
4.750009500019001
  0
LINE
  5
175
100
AcDbEntity
  8
horizontal
  6
CONTINUOUS
 62
    9
370
    5
100
AcDbLine
 10
1.110223024625157e-016
 20
4.7000094000188
 11
11
 21
4.700009400018801
  0
LINE
  5
176
100
AcDbEntity
  8
horizontal
  6
CONTINUOUS
 62
    9
370
    5
100
AcDbLine
 10
1.110223024625157e-016
 20
4.6500093000186
 11
11
 21
4.650009300018601
  0
LINE
  5
177
100
AcDbEntity
  8
horizontal
  6
CONTINUOUS
 62
    9
370
    5
100
AcDbLine
 10
1.110223024625157e-016
 20
4.6000092000184
 11
11
 21
4.600009200018401
  0
LINE
  5
178
100
AcDbEntity
  8
horizontal
  6
CONTINUOUS
 62
    9
370
    5
100
AcDbLine
 10
1.110223024625157e-016
 20
4.5500091000182
 11
11
 21
4.550009100018201
  0
LINE
  5
179
100
AcDbEntity
  8
horizontal
  6
CONTINUOUS
 62
    8
370
    5
100
AcDbLine
 10
1.110223024625157e-016
 20
4.500009000018
 11
11
 21
4.500009000018001
  0
LINE
  5
17A
100
AcDbEntity
  8
horizontal
  6
CONTINUOUS
 62
    9
370
    5
100
AcDbLine
 10
1.110223024625157e-016
 20
4.4500089000178
 11
11
 21
4.450008900017801
  0
LINE
  5
17B
100
AcDbEntity
  8
horizontal
  6
CONTINUOUS
 62
    9
370
    5
100
AcDbLine
 10
1.110223024625157e-016
 20
4.4000088000176
 11
11
 21
4.400008800017601
  0
LINE
  5
17C
100
AcDbEntity
  8
horizontal
  6
CONTINUOUS
 62
    9
370
    5
100
AcDbLine
 10
1.110223024625157e-016
 20
4.3500087000174
 11
11
 21
4.350008700017401
  0
LINE
  5
17D
100
AcDbEntity
  8
horizontal
  6
CONTINUOUS
 62
    9
370
    5
100
AcDbLine
 10
1.110223024625157e-016
 20
4.3000086000172
 11
11
 21
4.300008600017201
  0
LINE
  5
17E
100
AcDbEntity
  8
horizontal
  6
CONTINUOUS
 62
    9
370
    5
100
AcDbLine
 10
1.110223024625157e-016
 20
4.250008500017
 11
11
 21
4.250008500017
  0
LINE
  5
17F
100
AcDbEntity
  8
horizontal
  6
CONTINUOUS
 62
    9
370
    5
100
AcDbLine
 10
1.110223024625157e-016
 20
4.2000084000168
 11
11
 21
4.200008400016801
  0
LINE
  5
180
100
AcDbEntity
  8
horizontal
  6
CONTINUOUS
 62
    9
370
    5
100
AcDbLine
 10
1.110223024625157e-016
 20
4.150008300016601
 11
11
 21
4.150008300016601
  0
LINE
  5
181
100
AcDbEntity
  8
horizontal
  6
CONTINUOUS
 62
    9
370
    5
100
AcDbLine
 10
1.110223024625157e-016
 20
4.100008200016401
 11
11
 21
4.100008200016402
  0
LINE
  5
182
100
AcDbEntity
  8
horizontal
  6
CONTINUOUS
 62
    9
370
    5
100
AcDbLine
 10
1.110223024625157e-016
 20
4.050008100016201
 11
11
 21
4.050008100016201
  0
LINE
  5
183
100
AcDbEntity
  8
horizontal
  6
CONTINUOUS
 62
    8
370
    5
100
AcDbLine
 10
1.110223024625157e-016
 20
4.000008000016
 11
11
 21
4.000008000016002
  0
LINE
  5
184
100
AcDbEntity
  8
horizontal
  6
CONTINUOUS
 62
    9
370
    5
100
AcDbLine
 10
1.110223024625157e-016
 20
3.9500079000158
 11
11
 21
3.950007900015802
  0
LINE
  5
185
100
AcDbEntity
  8
horizontal
  6
CONTINUOUS
 62
    9
370
    5
100
AcDbLine
 10
1.110223024625157e-016
 20
3.9000078000156
 11
11
 21
3.900007800015601
  0
LINE
  5
186
100
AcDbEntity
  8
horizontal
  6
CONTINUOUS
 62
    9
370
    5
100
AcDbLine
 10
1.110223024625157e-016
 20
3.8500077000154
 11
11
 21
3.850007700015401
  0
LINE
  5
187
100
AcDbEntity
  8
horizontal
  6
CONTINUOUS
 62
    9
370
    5
100
AcDbLine
 10
1.110223024625157e-016
 20
3.8000076000152
 11
11
 21
3.800007600015201
  0
LINE
  5
188
100
AcDbEntity
  8
horizontal
  6
CONTINUOUS
 62
    9
370
    5
100
AcDbLine
 10
1.110223024625157e-016
 20
3.750007500015
 11
11
 21
3.750007500015001
  0
LINE
  5
189
100
AcDbEntity
  8
horizontal
  6
CONTINUOUS
 62
    9
370
    5
100
AcDbLine
 10
1.110223024625157e-016
 20
3.7000074000148
 11
11
 21
3.700007400014802
  0
LINE
  5
18A
100
AcDbEntity
  8
horizontal
  6
CONTINUOUS
 62
    9
370
    5
100
AcDbLine
 10
1.110223024625157e-016
 20
3.6500073000146
 11
11
 21
3.650007300014601
  0
LINE
  5
18B
100
AcDbEntity
  8
horizontal
  6
CONTINUOUS
 62
    9
370
    5
100
AcDbLine
 10
1.110223024625157e-016
 20
3.6000072000144
 11
11
 21
3.600007200014402
  0
LINE
  5
18C
100
AcDbEntity
  8
horizontal
  6
CONTINUOUS
 62
    9
370
    5
100
AcDbLine
 10
1.110223024625157e-016
 20
3.5500071000142
 11
11
 21
3.550007100014201
  0
LINE
  5
18D
100
AcDbEntity
  8
horizontal
  6
CONTINUOUS
 62
    8
370
    5
100
AcDbLine
 10
1.110223024625157e-016
 20
3.500007000014
 11
11
 21
3.500007000014
  0
LINE
  5
18E
100
AcDbEntity
  8
horizontal
  6
CONTINUOUS
 62
    9
370
    5
100
AcDbLine
 10
1.110223024625157e-016
 20
3.4500069000138
 11
11
 21
3.450006900013801
  0
LINE
  5
18F
100
AcDbEntity
  8
horizontal
  6
CONTINUOUS
 62
    9
370
    5
100
AcDbLine
 10
1.110223024625157e-016
 20
3.4000068000136
 11
11
 21
3.400006800013601
  0
LINE
  5
190
100
AcDbEntity
  8
horizontal
  6
CONTINUOUS
 62
    9
370
    5
100
AcDbLine
 10
1.110223024625157e-016
 20
3.3500067000134
 11
11
 21
3.350006700013402
  0
LINE
  5
191
100
AcDbEntity
  8
horizontal
  6
CONTINUOUS
 62
    9
370
    5
100
AcDbLine
 10
1.110223024625157e-016
 20
3.3000066000132
 11
11
 21
3.300006600013201
  0
LINE
  5
192
100
AcDbEntity
  8
horizontal
  6
CONTINUOUS
 62
    9
370
    5
100
AcDbLine
 10
1.110223024625157e-016
 20
3.250006500013
 11
11
 21
3.250006500013001
  0
LINE
  5
193
100
AcDbEntity
  8
horizontal
  6
CONTINUOUS
 62
    9
370
    5
100
AcDbLine
 10
1.110223024625157e-016
 20
3.2000064000128
 11
11
 21
3.200006400012801
  0
LINE
  5
194
100
AcDbEntity
  8
horizontal
  6
CONTINUOUS
 62
    9
370
    5
100
AcDbLine
 10
1.110223024625157e-016
 20
3.1500063000126
 11
11
 21
3.1500063000126
  0
LINE
  5
195
100
AcDbEntity
  8
horizontal
  6
CONTINUOUS
 62
    9
370
    5
100
AcDbLine
 10
1.110223024625157e-016
 20
3.1000062000124
 11
11
 21
3.100006200012401
  0
LINE
  5
196
100
AcDbEntity
  8
horizontal
  6
CONTINUOUS
 62
    9
370
    5
100
AcDbLine
 10
1.110223024625157e-016
 20
3.050006100012201
 11
11
 21
3.050006100012201
  0
LINE
  5
197
100
AcDbEntity
  8
horizontal
  6
CONTINUOUS
 62
    8
370
    5
100
AcDbLine
 10
1.110223024625157e-016
 20
3.000006000012
 11
11
 21
3.000006000012001
  0
LINE
  5
198
100
AcDbEntity
  8
horizontal
  6
CONTINUOUS
 62
    9
370
    5
100
AcDbLine
 10
1.110223024625157e-016
 20
2.9500059000118
 11
11
 21
2.950005900011801
  0
LINE
  5
199
100
AcDbEntity
  8
horizontal
  6
CONTINUOUS
 62
    9
370
    5
100
AcDbLine
 10
1.110223024625157e-016
 20
2.9000058000116
 11
11
 21
2.900005800011601
  0
LINE
  5
19A
100
AcDbEntity
  8
horizontal
  6
CONTINUOUS
 62
    9
370
    5
100
AcDbLine
 10
1.110223024625157e-016
 20
2.8500057000114
 11
11
 21
2.850005700011401
  0
LINE
  5
19B
100
AcDbEntity
  8
horizontal
  6
CONTINUOUS
 62
    9
370
    5
100
AcDbLine
 10
1.110223024625157e-016
 20
2.8000056000112
 11
11
 21
2.8000056000112
  0
LINE
  5
19C
100
AcDbEntity
  8
horizontal
  6
CONTINUOUS
 62
    9
370
    5
100
AcDbLine
 10
1.110223024625157e-016
 20
2.750005500011
 11
11
 21
2.750005500011
  0
LINE
  5
19D
100
AcDbEntity
  8
horizontal
  6
CONTINUOUS
 62
    9
370
    5
100
AcDbLine
 10
1.110223024625157e-016
 20
2.7000054000108
 11
11
 21
2.7000054000108
  0
LINE
  5
19E
100
AcDbEntity
  8
horizontal
  6
CONTINUOUS
 62
    9
370
    5
100
AcDbLine
 10
1.110223024625157e-016
 20
2.6500053000106
 11
11
 21
2.650005300010601
  0
LINE
  5
19F
100
AcDbEntity
  8
horizontal
  6
CONTINUOUS
 62
    9
370
    5
100
AcDbLine
 10
1.110223024625157e-016
 20
2.6000052000104
 11
11
 21
2.600005200010401
  0
LINE
  5
1A0
100
AcDbEntity
  8
horizontal
  6
CONTINUOUS
 62
    9
370
    5
100
AcDbLine
 10
1.110223024625157e-016
 20
2.5500051000102
 11
11
 21
2.550005100010201
  0
LINE
  5
1A1
100
AcDbEntity
  8
horizontal
  6
CONTINUOUS
 62
    8
370
    5
100
AcDbLine
 10
1.110223024625157e-016
 20
2.50000500001
 11
11
 21
2.500005000010001
  0
LINE
  5
1A2
100
AcDbEntity
  8
horizontal
  6
CONTINUOUS
 62
    9
370
    5
100
AcDbLine
 10
1.110223024625157e-016
 20
2.4500049000098
 11
11
 21
2.450004900009801
  0
LINE
  5
1A3
100
AcDbEntity
  8
horizontal
  6
CONTINUOUS
 62
    9
370
    5
100
AcDbLine
 10
1.110223024625157e-016
 20
2.4000048000096
 11
11
 21
2.4000048000096
  0
LINE
  5
1A4
100
AcDbEntity
  8
horizontal
  6
CONTINUOUS
 62
    9
370
    5
100
AcDbLine
 10
1.110223024625157e-016
 20
2.3500047000094
 11
11
 21
2.3500047000094
  0
LINE
  5
1A5
100
AcDbEntity
  8
horizontal
  6
CONTINUOUS
 62
    9
370
    5
100
AcDbLine
 10
1.110223024625157e-016
 20
2.3000046000092
 11
11
 21
2.3000046000092
  0
LINE
  5
1A6
100
AcDbEntity
  8
horizontal
  6
CONTINUOUS
 62
    9
370
    5
100
AcDbLine
 10
1.110223024625157e-016
 20
2.250004500009
 11
11
 21
2.250004500009001
  0
LINE
  5
1A7
100
AcDbEntity
  8
horizontal
  6
CONTINUOUS
 62
    9
370
    5
100
AcDbLine
 10
1.110223024625157e-016
 20
2.2000044000088
 11
11
 21
2.200004400008801
  0
LINE
  5
1A8
100
AcDbEntity
  8
horizontal
  6
CONTINUOUS
 62
    9
370
    5
100
AcDbLine
 10
1.110223024625157e-016
 20
2.1500043000086
 11
11
 21
2.150004300008601
  0
LINE
  5
1A9
100
AcDbEntity
  8
horizontal
  6
CONTINUOUS
 62
    9
370
    5
100
AcDbLine
 10
1.110223024625157e-016
 20
2.1000042000084
 11
11
 21
2.100004200008401
  0
LINE
  5
1AA
100
AcDbEntity
  8
horizontal
  6
CONTINUOUS
 62
    9
370
    5
100
AcDbLine
 10
1.110223024625157e-016
 20
2.0500041000082
 11
11
 21
2.050004100008201
  0
LINE
  5
1AB
100
AcDbEntity
  8
horizontal
  6
CONTINUOUS
 62
    8
370
    5
100
AcDbLine
 10
1.110223024625157e-016
 20
2.000004000008
 11
11
 21
2.000004000008001
  0
LINE
  5
1AC
100
AcDbEntity
  8
horizontal
  6
CONTINUOUS
 62
    9
370
    5
100
AcDbLine
 10
1.110223024625157e-016
 20
1.9500039000078
 11
11
 21
1.950003900007801
  0
LINE
  5
1AD
100
AcDbEntity
  8
horizontal
  6
CONTINUOUS
 62
    9
370
    5
100
AcDbLine
 10
1.110223024625157e-016
 20
1.9000038000076
 11
11
 21
1.900003800007601
  0
LINE
  5
1AE
100
AcDbEntity
  8
horizontal
  6
CONTINUOUS
 62
    9
370
    5
100
AcDbLine
 10
1.110223024625157e-016
 20
1.8500037000074
 11
11
 21
1.850003700007401
  0
LINE
  5
1AF
100
AcDbEntity
  8
horizontal
  6
CONTINUOUS
 62
    9
370
    5
100
AcDbLine
 10
1.110223024625157e-016
 20
1.8000036000072
 11
11
 21
1.800003600007201
  0
LINE
  5
1B0
100
AcDbEntity
  8
horizontal
  6
CONTINUOUS
 62
    9
370
    5
100
AcDbLine
 10
1.110223024625157e-016
 20
1.750003500007
 11
11
 21
1.750003500007001
  0
LINE
  5
1B1
100
AcDbEntity
  8
horizontal
  6
CONTINUOUS
 62
    9
370
    5
100
AcDbLine
 10
1.110223024625157e-016
 20
1.7000034000068
 11
11
 21
1.700003400006801
  0
LINE
  5
1B2
100
AcDbEntity
  8
horizontal
  6
CONTINUOUS
 62
    9
370
    5
100
AcDbLine
 10
1.110223024625157e-016
 20
1.6500033000066
 11
11
 21
1.650003300006601
  0
LINE
  5
1B3
100
AcDbEntity
  8
horizontal
  6
CONTINUOUS
 62
    9
370
    5
100
AcDbLine
 10
1.110223024625157e-016
 20
1.6000032000064
 11
11
 21
1.600003200006401
  0
LINE
  5
1B4
100
AcDbEntity
  8
horizontal
  6
CONTINUOUS
 62
    9
370
    5
100
AcDbLine
 10
1.110223024625157e-016
 20
1.5500031000062
 11
11
 21
1.550003100006201
  0
LINE
  5
1B5
100
AcDbEntity
  8
horizontal
  6
CONTINUOUS
 62
    8
370
    5
100
AcDbLine
 10
1.110223024625157e-016
 20
1.500003000006
 11
11
 21
1.500003000006001
  0
LINE
  5
1B6
100
AcDbEntity
  8
horizontal
  6
CONTINUOUS
 62
    9
370
    5
100
AcDbLine
 10
1.110223024625157e-016
 20
1.4500029000058
 11
11
 21
1.450002900005801
  0
LINE
  5
1B7
100
AcDbEntity
  8
horizontal
  6
CONTINUOUS
 62
    9
370
    5
100
AcDbLine
 10
1.110223024625157e-016
 20
1.4000028000056
 11
11
 21
1.400002800005601
  0
LINE
  5
1B8
100
AcDbEntity
  8
horizontal
  6
CONTINUOUS
 62
    9
370
    5
100
AcDbLine
 10
1.110223024625157e-016
 20
1.3500027000054
 11
11
 21
1.350002700005401
  0
LINE
  5
1B9
100
AcDbEntity
  8
horizontal
  6
CONTINUOUS
 62
    9
370
    5
100
AcDbLine
 10
1.110223024625157e-016
 20
1.3000026000052
 11
11
 21
1.300002600005201
  0
LINE
  5
1BA
100
AcDbEntity
  8
horizontal
  6
CONTINUOUS
 62
    9
370
    5
100
AcDbLine
 10
1.110223024625157e-016
 20
1.250002500005
 11
11
 21
1.250002500005001
  0
LINE
  5
1BB
100
AcDbEntity
  8
horizontal
  6
CONTINUOUS
 62
    9
370
    5
100
AcDbLine
 10
1.110223024625157e-016
 20
1.2000024000048
 11
11
 21
1.200002400004801
  0
LINE
  5
1BC
100
AcDbEntity
  8
horizontal
  6
CONTINUOUS
 62
    9
370
    5
100
AcDbLine
 10
1.110223024625157e-016
 20
1.1500023000046
 11
11
 21
1.150002300004601
  0
LINE
  5
1BD
100
AcDbEntity
  8
horizontal
  6
CONTINUOUS
 62
    9
370
    5
100
AcDbLine
 10
1.110223024625157e-016
 20
1.1000022000044
 11
11
 21
1.100002200004401
  0
LINE
  5
1BE
100
AcDbEntity
  8
horizontal
  6
CONTINUOUS
 62
    9
370
    5
100
AcDbLine
 10
1.110223024625157e-016
 20
1.0500021000042
 11
11
 21
1.050002100004201
  0
LINE
  5
1BF
100
AcDbEntity
  8
horizontal
  6
CONTINUOUS
 62
    8
370
    5
100
AcDbLine
 10
1.110223024625157e-016
 20
1.000002000004
 11
11
 21
1.000002000004001
  0
LINE
  5
1C0
100
AcDbEntity
  8
horizontal
  6
CONTINUOUS
 62
    9
370
    5
100
AcDbLine
 10
1.110223024625157e-016
 20
0.9500019000038
 11
11
 21
0.9500019000038008
  0
LINE
  5
1C1
100
AcDbEntity
  8
horizontal
  6
CONTINUOUS
 62
    9
370
    5
100
AcDbLine
 10
1.110223024625157e-016
 20
0.9000018000036
 11
11
 21
0.9000018000036009
  0
LINE
  5
1C2
100
AcDbEntity
  8
horizontal
  6
CONTINUOUS
 62
    9
370
    5
100
AcDbLine
 10
1.110223024625157e-016
 20
0.8500017000034
 11
11
 21
0.8500017000034007
  0
LINE
  5
1C3
100
AcDbEntity
  8
horizontal
  6
CONTINUOUS
 62
    9
370
    5
100
AcDbLine
 10
1.110223024625157e-016
 20
0.8000016000032
 11
11
 21
0.8000016000032009
  0
LINE
  5
1C4
100
AcDbEntity
  8
horizontal
  6
CONTINUOUS
 62
    9
370
    5
100
AcDbLine
 10
1.110223024625157e-016
 20
0.7500015000029999
 11
11
 21
0.7500015000030006
  0
LINE
  5
1C5
100
AcDbEntity
  8
horizontal
  6
CONTINUOUS
 62
    9
370
    5
100
AcDbLine
 10
1.110223024625157e-016
 20
0.7000014000028001
 11
11
 21
0.7000014000028009
  0
LINE
  5
1C6
100
AcDbEntity
  8
horizontal
  6
CONTINUOUS
 62
    9
370
    5
100
AcDbLine
 10
1.110223024625157e-016
 20
0.6500013000026
 11
11
 21
0.6500013000026008
  0
LINE
  5
1C7
100
AcDbEntity
  8
horizontal
  6
CONTINUOUS
 62
    9
370
    5
100
AcDbLine
 10
1.110223024625157e-016
 20
0.6000012000024
 11
11
 21
0.6000012000024006
  0
LINE
  5
1C8
100
AcDbEntity
  8
horizontal
  6
CONTINUOUS
 62
    9
370
    5
100
AcDbLine
 10
1.110223024625157e-016
 20
0.5500011000022
 11
11
 21
0.5500011000022007
  0
LINE
  5
1C9
100
AcDbEntity
  8
horizontal
  6
CONTINUOUS
 62
    8
370
    5
100
AcDbLine
 10
1.110223024625157e-016
 20
0.500001000002
 11
11
 21
0.5000010000020007
  0
LINE
  5
1CA
100
AcDbEntity
  8
horizontal
  6
CONTINUOUS
 62
    9
370
    5
100
AcDbLine
 10
1.110223024625157e-016
 20
0.4500009000018
 11
11
 21
0.4500009000018007
  0
LINE
  5
1CB
100
AcDbEntity
  8
horizontal
  6
CONTINUOUS
 62
    9
370
    5
100
AcDbLine
 10
1.110223024625157e-016
 20
0.4000008000016
 11
11
 21
0.4000008000016008
  0
LINE
  5
1CC
100
AcDbEntity
  8
horizontal
  6
CONTINUOUS
 62
    9
370
    5
100
AcDbLine
 10
1.110223024625157e-016
 20
0.3500007000014
 11
11
 21
0.3500007000014008
  0
LINE
  5
1CD
100
AcDbEntity
  8
horizontal
  6
CONTINUOUS
 62
    9
370
    5
100
AcDbLine
 10
1.110223024625157e-016
 20
0.3000006000012
 11
11
 21
0.3000006000012007
  0
LINE
  5
1CE
100
AcDbEntity
  8
horizontal
  6
CONTINUOUS
 62
    9
370
    5
100
AcDbLine
 10
1.110223024625157e-016
 20
0.250000500001
 11
11
 21
0.2500005000010008
  0
LINE
  5
1CF
100
AcDbEntity
  8
horizontal
  6
CONTINUOUS
 62
    9
370
    5
100
AcDbLine
 10
1.110223024625157e-016
 20
0.2000004000008
 11
11
 21
0.2000004000008008
  0
LINE
  5
1D0
100
AcDbEntity
  8
horizontal
  6
CONTINUOUS
 62
    9
370
    5
100
AcDbLine
 10
1.110223024625157e-016
 20
0.1500003000006
 11
11
 21
0.1500003000006008
  0
LINE
  5
1D1
100
AcDbEntity
  8
horizontal
  6
CONTINUOUS
 62
    9
370
    5
100
AcDbLine
 10
1.110223024625157e-016
 20
0.1000002000004
 11
11
 21
0.1000002000004007
  0
LINE
  5
1D2
100
AcDbEntity
  8
horizontal
  6
CONTINUOUS
 62
    9
370
    5
100
AcDbLine
 10
1.110223024625157e-016
 20
0.0500001000002
 11
11
 21
0.05000010000020078
  0
LINE
  5
1D3
100
AcDbEntity
  8
horizontal
  6
CONTINUOUS
 62
    9
370
    5
100
AcDbLine
 10
5.942937122765231e-017
 20
8.400032800065603
 11
11
 21
8.400032800065603
  0
LINE
  5
1D4
100
AcDbEntity
  8
horizontal
  6
CONTINUOUS
 62
    9
370
    5
100
AcDbLine
 10
5.942937122765231e-017
 20
8.350032700065402
 11
11
 21
8.350032700065402
  0
LINE
  5
1D5
100
AcDbEntity
  8
horizontal
  6
CONTINUOUS
 62
    9
370
    5
100
AcDbLine
 10
5.942937122765231e-017
 20
8.300032600065203
 11
11
 21
8.300032600065203
  0
LINE
  5
1D6
100
AcDbEntity
  8
horizontal
  6
CONTINUOUS
 62
    9
370
    5
100
AcDbLine
 10
5.942937122765231e-017
 20
8.250032500065002
 11
11
 21
8.250032500065002
  0
LINE
  5
1D7
100
AcDbEntity
  8
horizontal
  6
CONTINUOUS
 62
    9
370
    5
100
AcDbLine
 10
1.12981732466813e-016
 20
8.450000100000201
 11
11
 21
8.450000100000201
  0
LINE
  5
1D8
100
AcDbEntity
  8
0
  6
ByLayer
 62
  256
370
   18
100
AcDbLine
 10
0.166535
 20
8.333465
 11
0.3165357000013997
 21
8.333497600065202
  0
LINE
  5
1D9
100
AcDbEntity
  8
0
  6
ByLayer
 62
  256
370
   18
100
AcDbLine
 10
0.1665354000007997
 20
8.333465000086932
 11
0.1665354000007997
 21
8.1834813000326
  0
MTEXT
  5
1DA
100
AcDbEntity
  8
0
  6
CONTINUOUS
 62
    7
370
   25
100
AcDbMText
 10
8.571278924139211
 20
0.6513592145351005
 30
0
 40
0.1
 41
1.772222222222247
 71
    1
 72
    1
  1
grid inch 1:1 8.5x11" letter
  7
standard
210
0
220
0
230
1
 50
0
 73
    2
 44
1
  0
ENDSEC
  0
SECTION
  2
OBJECTS
  0
DICTIONARY
  5
C
330
0
100
AcDbDictionary
281
    1
  3
ACAD_GROUP
350
D
  0
DICTIONARY
  5
D
330
C
100
AcDbDictionary
281
    1
  0
PLOTSETTINGS
  5
1DB
100
AcDbPlotSettings
  6
1x1
 40
0
 41
0
 42
0
 43
0
  0
ENDSEC
  0
EOF
