999
dxfrw 0.6.3
  0
SECTION
  2
HEADER
  9
$ACADVER
  1
AC1021
  9
$DWGCODEPAGE
  3
ANSI_1252
  9
$INSBASE
 10
0
 20
0
 30
0
  9
$EXTMIN
 10
5.814444933016059
 20
11.77733338162406
 30
0
  9
$EXTMAX
 10
31.69263105546793
 20
48.69093967393798
 30
0
  9
$LIMMIN
 10
0
 20
0
  9
$LIMMAX
 10
420
 20
297
  9
$ORTHOMODE
 70
    0
  9
$REGENMODE
 70
    1
  9
$FILLMODE
 70
    1
  9
$QTEXTMODE
 70
    0
  9
$MIRRTEXT
 70
    0
  9
$LTSCALE
 40
1
  9
$ATTMODE
 70
    0
  9
$TEXTSIZE
 40
2.5
  9
$TRACEWID
 40
15.68
  9
$TEXTSTYLE
  7
STANDARD
  9
$CLAYER
  8
0
  9
$CELTYPE
  6
BYLAYER
  9
$CECOLOR
 62
  256
  9
$CELTSCALE
 40
1
  9
$DISPSILH
 70
    0
  9
$DIMSCALE
 40
1
  9
$DIMASZ
 40
2.5
  9
$DIMEXO
 40
0.025
  9
$DIMDLI
 40
3.75
  9
$DIMRND
 40
0
  9
$DIMDLE
 40
0
  9
$DIMEXE
 40
0.05
  9
$DIMTP
 40
0
  9
$DIMTM
 40
0
  9
$DIMTXT
 40
0.1
  9
$DIMCEN
 40
2.5
  9
$DIMTSZ
 40
0
  9
$DIMTOL
 70
    0
  9
$DIMLIM
 70
    0
  9
$DIMTIH
 70
    0
  9
$DIMTOH
 70
    0
  9
$DIMSE1
 70
    0
  9
$DIMSE2
 70
    0
  9
$DIMTAD
 70
    1
  9
$DIMZIN
 70
    1
  9
$DIMBLK
  1

  9
$DIMASO
 70
    1
  9
$DIMSHO
 70
    1
  9
$DIMPOST
  1

  9
$DIMAPOST
  1

  9
$DIMALT
 70
    0
  9
$DIMALTD
 70
    3
  9
$DIMALTF
 40
0.03937
  9
$DIMLFAC
 40
1
  9
$DIMTOFL
 70
    1
  9
$DIMTVP
 40
0
  9
$DIMTIX
 70
    0
  9
$DIMSOXD
 70
    0
  9
$DIMSAH
 70
    0
  9
$DIMBLK1
  1

  9
$DIMBLK2
  1

  9
$DIMSTYLE
  2
STANDARD
  9
$DIMCLRD
 70
    0
  9
$DIMCLRE
 70
    0
  9
$DIMCLRT
 70
    0
  9
$DIMTFAC
 40
1
  9
$DIMGAP
 40
0.025
  9
$DIMJUST
 70
    0
  9
$DIMSD1
 70
    0
  9
$DIMSD2
 70
    0
  9
$DIMTOLJ
 70
    0
  9
$DIMTZIN
 70
    8
  9
$DIMALTZ
 70
    0
  9
$DIMALTTZ
 70
    0
  9
$DIMUPT
 70
    0
  9
$DIMDEC
 70
    4
  9
$DIMTDEC
 70
    2
  9
$DIMALTU
 70
    2
  9
$DIMALTTD
 70
    3
  9
$DIMTXSTY
  7
standard
  9
$DIMAUNIT
 70
    0
  9
$DIMADEC
 70
    2
  9
$DIMALTRND
 40
0
  9
$DIMAZIN
 70
    0
  9
$DIMDSEP
 70
    0
  9
$DIMATFIT
 70
    3
  9
$DIMFRAC
 70
    0
  9
$DIMLDRBLK
  1
STANDARD
  9
$DIMLUNIT
 70
    2
  9
$DIMLWD
 70
   -2
  9
$DIMLWE
 70
   -2
  9
$DIMTMOVE
 70
    0
  9
$DIMFXL
 40
0.04
  9
$DIMFXLON
 70
    0
  9
$DIMJOGANG
 40
0.7854
  9
$DIMTFILL
 70
    0
  9
$DIMTFILLCLR
 70
    0
  9
$DIMARCSYM
 70
    0
  9
$DIMLTYPE
  6

  9
$DIMLTEX1
  6

  9
$DIMLTEX2
  6

  9
$LUNITS
 70
    2
  9
$LUPREC
 70
    4
  9
$SKETCHINC
 40
1
  9
$FILLETRAD
 40
0
  9
$AUNITS
 70
    0
  9
$AUPREC
 70
    2
  9
$MENU
  1
.
  9
$ELEVATION
 40
0
  9
$PELEVATION
 40
0
  9
$THICKNESS
 40
0
  9
$LIMCHECK
 70
    0
  9
$CHAMFERA
 40
0
  9
$CHAMFERB
 40
0
  9
$CHAMFERC
 40
0
  9
$CHAMFERD
 40
0
  9
$SKPOLY
 70
    0
  9
$USRTIMER
 70
    1
  9
$ANGBASE
 50
0
  9
$ANGDIR
 70
    0
  9
$PDMODE
 70
   34
  9
$PDSIZE
 40
0
  9
$PLINEWID
 40
0
  9
$SPLFRAME
 70
    0
  9
$SPLINETYPE
 70
    2
  9
$SPLINESEGS
 70
    8
  9
$HANDSEED
  5
20000
  9
$SURFTAB1
 70
    6
  9
$SURFTAB2
 70
    6
  9
$SURFTYPE
 70
    6
  9
$SURFU
 70
    6
  9
$SURFV
 70
    6
  9
$UCSBASE
  2

  9
$UCSNAME
  2

  9
$UCSORG
 10
0
 20
0
 30
0
  9
$UCSXDIR
 10
1
 20
0
 30
0
  9
$UCSYDIR
 10
0
 20
1
 30
0
  9
$UCSORTHOREF
  2

  9
$UCSORTHOVIEW
 70
    0
  9
$UCSORGTOP
 10
0
 20
0
 30
0
  9
$UCSORGBOTTOM
 10
0
 20
0
 30
0
  9
$UCSORGLEFT
 10
0
 20
0
 30
0
  9
$UCSORGRIGHT
 10
0
 20
0
 30
0
  9
$UCSORGFRONT
 10
0
 20
0
 30
0
  9
$UCSORGBACK
 10
0
 20
0
 30
0
  9
$PUCSBASE
  2

  9
$PUCSNAME
  2

  9
$PUCSORG
 10
0
 20
0
 30
0
  9
$PUCSXDIR
 10
1
 20
0
 30
0
  9
$PUCSYDIR
 10
0
 20
1
 30
0
  9
$PUCSORTHOREF
  2

  9
$PUCSORTHOVIEW
 70
    0
  9
$PUCSORGTOP
 10
0
 20
0
 30
0
  9
$PUCSORGBOTTOM
 10
0
 20
0
 30
0
  9
$PUCSORGLEFT
 10
0
 20
0
 30
0
  9
$PUCSORGRIGHT
 10
0
 20
0
 30
0
  9
$PUCSORGFRONT
 10
0
 20
0
 30
0
  9
$PUCSORGBACK
 10
0
 20
0
 30
0
  9
$USERI1
 70
    0
  9
$USERI2
 70
    0
  9
$USERI3
 70
    0
  9
$USERI4
 70
    0
  9
$USERI5
 70
    0
  9
$USERR1
 40
0
  9
$USERR2
 40
0
  9
$USERR3
 40
0
  9
$USERR4
 40
0
  9
$USERR5
 40
0
  9
$WORLDVIEW
 70
    1
  9
$SHADEDGE
 70
    3
  9
$SHADEDIF
 70
   70
  9
$TILEMODE
 70
    1
  9
$MAXACTVP
 70
   64
  9
$PINSBASE
 10
0
 20
0
 30
0
  9
$PLIMCHECK
 70
    0
  9
$PEXTMIN
 10
0
 20
0
 30
0
  9
$PEXTMAX
 10
0
 20
0
 30
0
  9
$GRIDMODE
 70
    1
  9
$SNAPSTYLE
 70
    0
  9
$GRIDUNIT
 10
0
 20
0
  9
$PLIMMIN
 10
0
 20
0
  9
$PLIMMAX
 10
0.00050453
 20
0.00071355
  9
$UNITMODE
 70
    0
  9
$VISRETAIN
 70
    1
  9
$PLINEGEN
 70
    0
  9
$PSLTSCALE
 70
    1
  9
$TREEDEPTH
 70
 3020
  9
$CMLSTYLE
  2
Standard
  9
$CMLJUST
 70
    0
  9
$CMLSCALE
 40
20
  9
$PROXYGRAPHICS
 70
    1
  9
$MEASUREMENT
 70
    1
  9
$CELWEIGHT
370
   -1
  9
$ENDCAPS
280
    0
  9
$JOINSTYLE
280
    0
  9
$LWDISPLAY
290
    0
  9
$INSUNITS
 70
    1
  9
$HYPERLINKBASE
  1

  9
$STYLESHEET
  1

  9
$XEDIT
290
    1
  9
$CEPSNTYPE
380
    0
  9
$PSTYLEMODE
290
    1
  9
$EXTNAMES
290
    1
  9
$PSVPSCALE
 40
1
  9
$OLESTARTUP
290
    0
  9
$SORTENTS
280
  127
  9
$INDEXCTL
280
    0
  9
$HIDETEXT
280
    1
  9
$XCLIPFRAME
290
    0
  9
$HALOGAP
280
    0
  9
$OBSCOLOR
 70
  257
  9
$OBSLTYPE
280
    0
  9
$INTERSECTIONDISPLAY
280
    0
  9
$INTERSECTIONCOLOR
 70
  257
  9
$DIMASSOC
280
    1
  9
$PROJECTNAME
  1

  9
$CAMERADISPLAY
290
    0
  9
$LENSLENGTH
 40
50
  9
$CAMERAHEIGHT
 40
0
  9
$STEPSPERSEC
 40
2
  9
$STEPSIZE
 40
50
  9
$3DDWFPREC
 40
2
  9
$PSOLWIDTH
 40
5
  9
$PSOLHEIGHT
 40
80
  9
$LOFTANG1
 40
1.570796326794897
  9
$LOFTANG2
 40
1.570796326794897
  9
$LOFTMAG1
 40
0
  9
$LOFTMAG2
 40
0
  9
$LOFTPARAM
 70
    7
  9
$LOFTNORMALS
280
    1
  9
$LATITUDE
 40
1
  9
$LONGITUDE
 40
1
  9
$NORTHDIRECTION
 40
0
  9
$TIMEZONE
 70
-8000
  9
$LIGHTGLYPHDISPLAY
280
    1
  9
$TILEMODELIGHTSYNCH
280
    1
  9
$SOLIDHIST
280
    1
  9
$SHOWHIST
280
    1
  9
$DWFFRAME
280
    2
  9
$DGNFRAME
280
    0
  9
$REALWORLDSCALE
290
    1
  9
$INTERFERECOLOR
 62
    1
  9
$CSHADOW
280
    0
  9
$SHADOWPLANELOCATION
 40
0
  0
ENDSEC
  0
SECTION
  2
CLASSES
  0
ENDSEC
  0
SECTION
  2
TABLES
  0
TABLE
  2
VPORT
  5
8
330
0
100
AcDbSymbolTable
 70
    1
  0
VPORT
  5
31
330
2
100
AcDbSymbolTableRecord
100
AcDbViewportTableRecord
  2
*ACTIVE
 70
    0
 10
0
 20
0
 11
1
 21
1
 12
53.57241025993604
 22
33.71732487546257
 13
0
 23
0
 14
10
 24
10
 15
10
 25
10
 16
0
 26
0
 36
1
 17
0
 27
0
 37
0
 40
91.89030370009367
 41
2.071146245059289
 42
50
 43
0
 44
0
 50
0
 51
0
 71
    0
 72
  100
 73
    1
 74
    3
 75
    0
 76
    1
 77
    0
 78
    0
281
    0
 65
    1
110
0
120
0
130
0
111
1
121
0
131
0
112
0
122
1
132
0
 79
    0
146
0
348
10020
 60
    7
 61
    5
292
1
282
    1
141
0
142
0
 63
  250
421
3358443
  0
ENDTAB
  0
TABLE
  2
LTYPE
  5
5
330
0
100
AcDbSymbolTable
 70
    4
  0
LTYPE
  5
14
330
5
100
AcDbSymbolTableRecord
100
AcDbLinetypeTableRecord
  2
ByBlock
 70
    0
  3

 72
   65
 73
    0
 40
0
  0
LTYPE
  5
15
330
5
100
AcDbSymbolTableRecord
100
AcDbLinetypeTableRecord
  2
ByLayer
 70
    0
  3

 72
   65
 73
    0
 40
0
  0
LTYPE
  5
16
330
5
100
AcDbSymbolTableRecord
100
AcDbLinetypeTableRecord
  2
Continuous
 70
    0
  3
Solid line
 72
   65
 73
    0
 40
0
  0
LTYPE
  5
32
330
5
100
AcDbSymbolTableRecord
100
AcDbLinetypeTableRecord
  2
DOT
 70
    0
  3
Dot . . . . . . . . . . . . . . . . . . . . . .
 72
   65
 73
    2
 40
6.35
 49
0
 74
    0
 49
-6.35
 74
    0
  0
LTYPE
  5
33
330
5
100
AcDbSymbolTableRecord
100
AcDbLinetypeTableRecord
  2
DOTTINY
 70
    0
  3
Dot (.15x) .....................................
 72
   65
 73
    2
 40
0.9525
 49
0
 74
    0
 49
-0.9525
 74
    0
  0
LTYPE
  5
34
330
5
100
AcDbSymbolTableRecord
100
AcDbLinetypeTableRecord
  2
DOT2
 70
    0
  3
Dot (.5x) .....................................
 72
   65
 73
    2
 40
3.175
 49
0
 74
    0
 49
-3.175
 74
    0
  0
LTYPE
  5
35
330
5
100
AcDbSymbolTableRecord
100
AcDbLinetypeTableRecord
  2
DOTX2
 70
    0
  3
Dot (2x) .  .  .  .  .  .  .  .  .  .  .  .  .
 72
   65
 73
    2
 40
12.7
 49
0
 74
    0
 49
-12.7
 74
    0
  0
LTYPE
  5
36
330
5
100
AcDbSymbolTableRecord
100
AcDbLinetypeTableRecord
  2
DASHED
 70
    0
  3
Dashed _ _ _ _ _ _ _ _ _ _ _ _ _ _ _ _ _
 72
   65
 73
    2
 40
19.05
 49
12.7
 74
    0
 49
-6.35
 74
    0
  0
LTYPE
  5
37
330
5
100
AcDbSymbolTableRecord
100
AcDbLinetypeTableRecord
  2
DASHEDTINY
 70
    0
  3
Dashed (.15x) _ _ _ _ _ _ _ _ _ _ _ _ _ _ _ _ _
 72
   65
 73
    2
 40
2.8575
 49
1.905
 74
    0
 49
-0.9525
 74
    0
  0
LTYPE
  5
38
330
5
100
AcDbSymbolTableRecord
100
AcDbLinetypeTableRecord
  2
DASHED2
 70
    0
  3
Dashed (.5x) _ _ _ _ _ _ _ _ _ _ _ _ _ _ _ _ _
 72
   65
 73
    2
 40
9.524999999999999
 49
6.35
 74
    0
 49
-3.175
 74
    0
  0
LTYPE
  5
39
330
5
100
AcDbSymbolTableRecord
100
AcDbLinetypeTableRecord
  2
DASHEDX2
 70
    0
  3
Dashed (2x) ____  ____  ____  ____  ____  ___
 72
   65
 73
    2
 40
38.09999999999999
 49
25.4
 74
    0
 49
-12.7
 74
    0
  0
LTYPE
  5
3A
330
5
100
AcDbSymbolTableRecord
100
AcDbLinetypeTableRecord
  2
DASHDOT
 70
    0
  3
Dash dot __ . __ . __ . __ . __ . __ . __ . __
 72
   65
 73
    4
 40
25.4
 49
12.7
 74
    0
 49
-6.35
 74
    0
 49
0
 74
    0
 49
-6.35
 74
    0
  0
LTYPE
  5
3B
330
5
100
AcDbSymbolTableRecord
100
AcDbLinetypeTableRecord
  2
DASHDOTTINY
 70
    0
  3
Dash dot (.15x) _._._._._._._._._._._._._._._.
 72
   65
 73
    4
 40
3.81
 49
1.905
 74
    0
 49
-0.9525
 74
    0
 49
0
 74
    0
 49
-0.9525
 74
    0
  0
LTYPE
  5
3C
330
5
100
AcDbSymbolTableRecord
100
AcDbLinetypeTableRecord
  2
DASHDOT2
 70
    0
  3
Dash dot (.5x) _._._._._._._._._._._._._._._.
 72
   65
 73
    4
 40
12.7
 49
6.35
 74
    0
 49
-3.175
 74
    0
 49
0
 74
    0
 49
-3.175
 74
    0
  0
LTYPE
  5
3D
330
5
100
AcDbSymbolTableRecord
100
AcDbLinetypeTableRecord
  2
DASHDOTX2
 70
    0
  3
Dash dot (2x) ____  .  ____  .  ____  .  ___
 72
   65
 73
    4
 40
50.8
 49
25.4
 74
    0
 49
-12.7
 74
    0
 49
0
 74
    0
 49
-12.7
 74
    0
  0
LTYPE
  5
3E
330
5
100
AcDbSymbolTableRecord
100
AcDbLinetypeTableRecord
  2
DIVIDE
 70
    0
  3
Divide ____ . . ____ . . ____ . . ____ . . ____
 72
   65
 73
    6
 40
31.75
 49
12.7
 74
    0
 49
-6.35
 74
    0
 49
0
 74
    0
 49
-6.35
 74
    0
 49
0
 74
    0
 49
-6.35
 74
    0
  0
LTYPE
  5
3F
330
5
100
AcDbSymbolTableRecord
100
AcDbLinetypeTableRecord
  2
DIVIDETINY
 70
    0
  3
Divide (.15x) __..__..__..__..__..__..__..__.._
 72
   65
 73
    6
 40
4.7625
 49
1.905
 74
    0
 49
-0.9525
 74
    0
 49
0
 74
    0
 49
-0.9525
 74
    0
 49
0
 74
    0
 49
-0.9525
 74
    0
  0
LTYPE
  5
40
330
5
100
AcDbSymbolTableRecord
100
AcDbLinetypeTableRecord
  2
DIVIDE2
 70
    0
  3
Divide (.5x) __..__..__..__..__..__..__..__.._
 72
   65
 73
    6
 40
15.875
 49
6.35
 74
    0
 49
-3.175
 74
    0
 49
0
 74
    0
 49
-3.175
 74
    0
 49
0
 74
    0
 49
-3.175
 74
    0
  0
LTYPE
  5
41
330
5
100
AcDbSymbolTableRecord
100
AcDbLinetypeTableRecord
  2
DIVIDEX2
 70
    0
  3
Divide (2x) ________  .  .  ________  .  .  _
 72
   65
 73
    6
 40
63.5
 49
25.4
 74
    0
 49
-12.7
 74
    0
 49
0
 74
    0
 49
-12.7
 74
    0
 49
0
 74
    0
 49
-12.7
 74
    0
  0
LTYPE
  5
42
330
5
100
AcDbSymbolTableRecord
100
AcDbLinetypeTableRecord
  2
BORDER
 70
    0
  3
Border __ __ . __ __ . __ __ . __ __ . __ __ .
 72
   65
 73
    6
 40
44.45
 49
12.7
 74
    0
 49
-6.35
 74
    0
 49
12.7
 74
    0
 49
-6.35
 74
    0
 49
0
 74
    0
 49
-6.35
 74
    0
  0
LTYPE
  5
43
330
5
100
AcDbSymbolTableRecord
100
AcDbLinetypeTableRecord
  2
BORDERTINY
 70
    0
  3
Border (.15x) __.__.__.__.__.__.__.__.__.__.__.
 72
   65
 73
    6
 40
6.6675
 49
1.905
 74
    0
 49
-0.9525
 74
    0
 49
1.905
 74
    0
 49
-0.9525
 74
    0
 49
0
 74
    0
 49
-0.9525
 74
    0
  0
LTYPE
  5
44
330
5
100
AcDbSymbolTableRecord
100
AcDbLinetypeTableRecord
  2
BORDER2
 70
    0
  3
Border (.5x) __.__.__.__.__.__.__.__.__.__.__.
 72
   65
 73
    6
 40
22.225
 49
6.35
 74
    0
 49
-3.175
 74
    0
 49
6.35
 74
    0
 49
-3.175
 74
    0
 49
0
 74
    0
 49
-3.175
 74
    0
  0
LTYPE
  5
45
330
5
100
AcDbSymbolTableRecord
100
AcDbLinetypeTableRecord
  2
BORDERX2
 70
    0
  3
Border (2x) ____  ____  .  ____  ____  .  ___
 72
   65
 73
    6
 40
88.89999999999999
 49
25.4
 74
    0
 49
-12.7
 74
    0
 49
25.4
 74
    0
 49
-12.7
 74
    0
 49
0
 74
    0
 49
-12.7
 74
    0
  0
LTYPE
  5
46
330
5
100
AcDbSymbolTableRecord
100
AcDbLinetypeTableRecord
  2
CENTER
 70
    0
  3
Center ____ _ ____ _ ____ _ ____ _ ____ _ ____
 72
   65
 73
    4
 40
50.8
 49
31.75
 74
    0
 49
-6.35
 74
    0
 49
6.35
 74
    0
 49
-6.35
 74
    0
  0
LTYPE
  5
47
330
5
100
AcDbSymbolTableRecord
100
AcDbLinetypeTableRecord
  2
CENTERTINY
 70
    0
  3
Center (.15x) ___ _ ___ _ ___ _ ___ _ ___ _ ___
 72
   65
 73
    4
 40
7.619999999999999
 49
4.7625
 74
    0
 49
-0.9525
 74
    0
 49
0.9525
 74
    0
 49
-0.9525
 74
    0
  0
LTYPE
  5
48
330
5
100
AcDbSymbolTableRecord
100
AcDbLinetypeTableRecord
  2
CENTER2
 70
    0
  3
Center (.5x) ___ _ ___ _ ___ _ ___ _ ___ _ ___
 72
   65
 73
    4
 40
28.575
 49
19.05
 74
    0
 49
-3.175
 74
    0
 49
3.175
 74
    0
 49
-3.175
 74
    0
  0
LTYPE
  5
49
330
5
100
AcDbSymbolTableRecord
100
AcDbLinetypeTableRecord
  2
CENTERX2
 70
    0
  3
Center (2x) ________  __  ________  __  _____
 72
   65
 73
    4
 40
101.6
 49
63.5
 74
    0
 49
-12.7
 74
    0
 49
12.7
 74
    0
 49
-12.7
 74
    0
  0
ENDTAB
  0
TABLE
  2
LAYER
  5
2
330
0
100
AcDbSymbolTable
 70
    1
  0
LAYER
  5
10
330
2
100
AcDbSymbolTableRecord
100
AcDbLayerTableRecord
  2
0
 70
    0
 62
    7
  6
CONTINUOUS
370
    0
390
F
  0
LAYER
  5
4A
330
2
100
AcDbSymbolTableRecord
100
AcDbLayerTableRecord
  2
Layer 1
 70
    0
 62
    7
  6
CONTINUOUS
370
    0
390
F
  0
LAYER
  5
4B
330
2
100
AcDbSymbolTableRecord
100
AcDbLayerTableRecord
  2
R2V
 70
    0
 62
    7
  6
CONTINUOUS
370
   -3
390
F
  0
ENDTAB
  0
TABLE
  2
STYLE
  5
3
330
0
100
AcDbSymbolTable
 70
    3
  0
STYLE
  5
4C
330
2
100
AcDbSymbolTableRecord
100
AcDbTextStyleTableRecord
  2
standard
 70
    0
 40
0
 41
1
 50
0
 71
    0
 42
1
  3
standard
  4

  0
ENDTAB
  0
TABLE
  2
VIEW
  5
6
330
0
100
AcDbSymbolTable
 70
    0
  0
ENDTAB
  0
TABLE
  2
UCS
  5
7
330
0
100
AcDbSymbolTable
 70
    0
  0
ENDTAB
  0
TABLE
  2
APPID
  5
9
330
0
100
AcDbSymbolTable
 70
    1
  0
APPID
  5
12
330
9
100
AcDbSymbolTableRecord
100
AcDbRegAppTableRecord
  2
ACAD
 70
    0
  0
APPID
  5
4D
330
9
100
AcDbSymbolTableRecord
100
AcDbRegAppTableRecord
  2
LibreCad
 70
    0
  0
ENDTAB
  0
TABLE
  2
DIMSTYLE
  5
A
330
0
100
AcDbSymbolTable
 70
    1
100
AcDbDimStyleTable
 71
    1
  0
DIMSTYLE
105
4E
330
A
100
AcDbSymbolTableRecord
100
AcDbDimStyleTableRecord
  2
Standard
 70
    0
 40
1
 41
2.5
 42
0.025
 43
0.38
 44
0.05
 45
0
 46
0
 47
0
 48
0
 49
0.04
140
0.1
141
0.09
142
0
143
25.4
144
1
145
0
146
1
147
0.025
148
0
 71
    0
 72
    0
 73
    0
 74
    1
 75
    0
 76
    0
 77
    0
 78
    1
 79
    0
170
    0
171
    2
172
    0
173
    0
174
    0
175
    0
176
    0
177
    0
178
    0
179
    2
271
    4
272
    4
273
    2
274
    2
275
    0
276
    0
277
    2
278
    0
279
    0
280
    0
281
    0
282
    0
283
    1
284
    0
285
    0
286
    0
288
    0
289
    3
340
standard
341

371
   -2
372
   -2
  0
ENDTAB
  0
TABLE
  2
BLOCK_RECORD
  5
1
330
0
100
AcDbSymbolTable
 70
    2
  0
BLOCK_RECORD
  5
1F
330
1
100
AcDbSymbolTableRecord
100
AcDbBlockTableRecord
  2
*Model_Space
 70
    0
280
    1
281
    0
  0
BLOCK_RECORD
  5
1E
330
1
100
AcDbSymbolTableRecord
100
AcDbBlockTableRecord
  2
*Paper_Space
 70
    0
280
    1
281
    0
  0
BLOCK_RECORD
  5
4F
330
1
100
AcDbSymbolTableRecord
100
AcDbBlockTableRecord
  2
Cannonball Text (for ball)
 70
    0
280
    1
281
    0
  0
BLOCK_RECORD
  5
52
330
1
100
AcDbSymbolTableRecord
100
AcDbBlockTableRecord
  2
Block_0
 70
    0
280
    1
281
    0
  0
BLOCK_RECORD
  5
55
330
1
100
AcDbSymbolTableRecord
100
AcDbBlockTableRecord
  2
Block_1
 70
    0
280
    1
281
    0
  0
BLOCK_RECORD
  5
58
330
1
100
AcDbSymbolTableRecord
100
AcDbBlockTableRecord
  2
Block_2
 70
    0
280
    1
281
    0
  0
BLOCK_RECORD
  5
5B
330
1
100
AcDbSymbolTableRecord
100
AcDbBlockTableRecord
  2
Block_3
 70
    0
280
    1
281
    0
  0
BLOCK_RECORD
  5
5E
330
1
100
AcDbSymbolTableRecord
100
AcDbBlockTableRecord
  2
Cannonball Text (for ball)-0
 70
    0
280
    1
281
    0
  0
BLOCK_RECORD
  5
61
330
1
100
AcDbSymbolTableRecord
100
AcDbBlockTableRecord
  2
Block_0-0
 70
    0
280
    1
281
    0
  0
BLOCK_RECORD
  5
64
330
1
100
AcDbSymbolTableRecord
100
AcDbBlockTableRecord
  2
Block_1-0
 70
    0
280
    1
281
    0
  0
BLOCK_RECORD
  5
67
330
1
100
AcDbSymbolTableRecord
100
AcDbBlockTableRecord
  2
Block_2-0
 70
    0
280
    1
281
    0
  0
BLOCK_RECORD
  5
6A
330
1
100
AcDbSymbolTableRecord
100
AcDbBlockTableRecord
  2
Block_3-0
 70
    0
280
    1
281
    0
  0
BLOCK_RECORD
  5
6D
330
1
100
AcDbSymbolTableRecord
100
AcDbBlockTableRecord
  2
Cannonball Text (for ball)-1
 70
    0
280
    1
281
    0
  0
BLOCK_RECORD
  5
70
330
1
100
AcDbSymbolTableRecord
100
AcDbBlockTableRecord
  2
Block_0-1
 70
    0
280
    1
281
    0
  0
BLOCK_RECORD
  5
73
330
1
100
AcDbSymbolTableRecord
100
AcDbBlockTableRecord
  2
Block_1-1
 70
    0
280
    1
281
    0
  0
BLOCK_RECORD
  5
76
330
1
100
AcDbSymbolTableRecord
100
AcDbBlockTableRecord
  2
Block_2-1
 70
    0
280
    1
281
    0
  0
BLOCK_RECORD
  5
79
330
1
100
AcDbSymbolTableRecord
100
AcDbBlockTableRecord
  2
Block_3-1
 70
    0
280
    1
281
    0
  0
BLOCK_RECORD
  5
7C
330
1
100
AcDbSymbolTableRecord
100
AcDbBlockTableRecord
  2
Cannonball Text (for ball)-2
 70
    0
280
    1
281
    0
  0
BLOCK_RECORD
  5
7F
330
1
100
AcDbSymbolTableRecord
100
AcDbBlockTableRecord
  2
Block_0-2
 70
    0
280
    1
281
    0
  0
BLOCK_RECORD
  5
82
330
1
100
AcDbSymbolTableRecord
100
AcDbBlockTableRecord
  2
Block_1-2
 70
    0
280
    1
281
    0
  0
BLOCK_RECORD
  5
85
330
1
100
AcDbSymbolTableRecord
100
AcDbBlockTableRecord
  2
Block_2-2
 70
    0
280
    1
281
    0
  0
BLOCK_RECORD
  5
88
330
1
100
AcDbSymbolTableRecord
100
AcDbBlockTableRecord
  2
Block_3-2
 70
    0
280
    1
281
    0
  0
BLOCK_RECORD
  5
8B
330
1
100
AcDbSymbolTableRecord
100
AcDbBlockTableRecord
  2
Cannonball Text (for ball)_2
 70
    0
280
    1
281
    0
  0
ENDTAB
  0
ENDSEC
  0
SECTION
  2
BLOCKS
  0
BLOCK
  5
20
330
1F
100
AcDbEntity
  8
0
100
AcDbBlockBegin
  2
*Model_Space
 70
    0
 10
0
 20
0
 30
0
  3
*Model_Space
  1

  0
ENDBLK
  5
21
330
1F
100
AcDbEntity
  8
0
100
AcDbBlockEnd
  0
BLOCK
  5
1C
330
1B
100
AcDbEntity
  8
0
100
AcDbBlockBegin
  2
*Paper_Space
 70
    0
 10
0
 20
0
 30
0
  3
*Paper_Space
  1

  0
ENDBLK
  5
1D
330
1F
100
AcDbEntity
  8
0
100
AcDbBlockEnd
  0
BLOCK
  5
50
330
4F
100
AcDbEntity
  8
0
100
AcDbBlockBegin
  2
Cannonball Text (for ball)
 70
    0
 10
0
 20
0
  3
Cannonball Text (for ball)
  1

  0
INSERT
  5
8E
100
AcDbEntity
  8
Layer 1
  6
ByLayer
 62
  256
370
   -1
100
AcDbBlockReference
  2
Block_0
 10
0
 20
0
 30
0
 41
1
 42
1
 43
0
 50
0
 70
    1
 71
    1
 44
0
 45
0
  0
INSERT
  5
8F
100
AcDbEntity
  8
Layer 1
  6
ByLayer
 62
  256
370
   -1
100
AcDbBlockReference
  2
Block_2
 10
0
 20
0
 30
0
 41
1
 42
1
 43
0
 50
0
 70
    1
 71
    1
 44
0
 45
0
  0
ENDBLK
  5
51
330
4F
100
AcDbEntity
  8
0
100
AcDbBlockEnd
  0
BLOCK
  5
53
330
52
100
AcDbEntity
  8
0
100
AcDbBlockBegin
  2
Block_0
 70
    0
 10
0
 20
0
  3
Block_0
  1

  0
INSERT
  5
90
100
AcDbEntity
  8
Layer 1
  6
ByLayer
 62
  256
370
   -1
100
AcDbBlockReference
  2
Block_1
 10
0
 20
0
 30
0
 41
1
 42
1
 43
0
 50
0
 70
    1
 71
    1
 44
0
 45
0
  0
ENDBLK
  5
54
330
52
100
AcDbEntity
  8
0
100
AcDbBlockEnd
  0
BLOCK
  5
56
330
55
100
AcDbEntity
  8
0
100
AcDbBlockBegin
  2
Block_1
 70
    0
 10
0
 20
0
  3
Block_1
  1

  0
SPLINE
  5
91
100
AcDbEntity
  8
Layer 1
  6
ByLayer
 62
  256
370
   -1
100
AcDbSpline
210
0
220
0
230
0
 70
   11
 71
    3
 72
   47
 73
   43
 74
    0
 42
1e-07
 43
1e-07
 40
0
 40
0
 40
0
 40
0
 40
1
 40
1
 40
1
 40
2
 40
2
 40
2
 40
3
 40
3
 40
3
 40
4
 40
4
 40
4
 40
5
 40
5
 40
5
 40
6
 40
6
 40
6
 40
7
 40
7
 40
7
 40
8
 40
8
 40
8
 40
9
 40
9
 40
9
 40
10
 40
10
 40
10
 40
11
 40
11
 40
11
 40
12
 40
12
 40
12
 40
13
 40
13
 40
13
 40
14
 40
14
 40
14
 40
14
 10
4.370405542568897
 20
-3.408856729822835
 30
0
 10
4.370405542568897
 20
-3.408856729822835
 30
0
 10
4.30783249261811
 20
-3.713148222194882
 30
0
 10
4.30783249261811
 20
-3.713148222194882
 30
0
 10
4.30783249261811
 20
-3.713148222194882
 30
0
 10
3.535944420521654
 20
-3.713148222194882
 30
0
 10
3.535944420521654
 20
-3.713148222194882
 30
0
 10
3.404800535187008
 20
-3.713148222194882
 30
0
 10
3.285594549704725
 20
-3.88185516117126
 30
0
 10
3.243879183070866
 20
-4.077686700295276
 30
0
 10
3.243879183070866
 20
-4.077686700295276
 30
0
 10
3.01140732652559
 20
-5.183355376476378
 30
0
 10
3.01140732652559
 20
-5.183355376476378
 30
0
 10
3.002468319389764
 20
-5.225532111220472
 30
0
 10
2.996508981299213
 20
-5.267708845964567
 30
0
 10
2.996508981299213
 20
-5.306867464320866
 30
0
 10
2.996508981299213
 20
-5.43943390132874
 30
0
 10
3.047182578740157
 20
-5.544875738188976
 30
0
 10
3.151490218996063
 20
-5.544875738188976
 30
0
 10
3.151490218996063
 20
-5.544875738188976
 30
0
 10
3.92337829109252
 20
-5.544875738188976
 30
0
 10
3.92337829109252
 20
-5.544875738188976
 30
0
 10
3.92337829109252
 20
-5.544875738188976
 30
0
 10
3.860786017470472
 20
-5.843130997785433
 30
0
 10
3.860786017470472
 20
-5.843130997785433
 30
0
 10
3.860786017470472
 20
-5.843130997785433
 30
0
 10
2.889221671998031
 20
-5.843130997785433
 30
0
 10
2.889221671998031
 20
-5.843130997785433
 30
0
 10
2.668687715305118
 20
-5.843130997785433
 30
0
 10
2.546482837106299
 20
-5.656334584153544
 30
0
 10
2.546482837106299
 20
-5.391220933809055
 30
0
 10
2.546482837106299
 20
-5.327955831692913
 30
0
 10
2.555421844242126
 20
-5.255655604084645
 30
0
 10
2.570339413139764
 20
-5.183355376476378
 30
0
 10
2.570339413139764
 20
-5.183355376476378
 30
0
 10
2.80279204601378
 20
-4.077686700295276
 30
0
 10
2.80279204601378
 20
-4.077686700295276
 30
0
 10
2.88326233390748
 20
-3.698076863927166
 30
0
 10
3.127633642962599
 20
-3.408856729822835
 30
0
 10
3.398841197096456
 20
-3.408856729822835
 30
0
 10
3.398841197096456
 20
-3.408856729822835
 30
0
 10
4.370405542568897
 20
-3.408856729822835
 30
0
 10
4.370405542568897
 20
-3.408856729822835
 30
0
  0
SPLINE
  5
92
100
AcDbEntity
  8
Layer 1
  6
ByLayer
 62
  256
370
   -1
100
AcDbSpline
210
0
220
0
230
0
 70
   11
 71
    3
 72
   17
 73
   13
 74
    0
 42
1e-07
 43
1e-07
 40
0
 40
0
 40
0
 40
0
 40
1
 40
1
 40
1
 40
2
 40
2
 40
2
 40
3
 40
3
 40
3
 40
4
 40
4
 40
4
 40
4
 10
4.979661355807086
 20
-5.029700572096456
 30
0
 10
4.979661355807086
 20
-5.029700572096456
 30
0
 10
5.420748492864173
 20
-5.029700572096456
 30
0
 10
5.420748492864173
 20
-5.029700572096456
 30
0
 10
5.420748492864173
 20
-5.029700572096456
 30
0
 10
5.501218780757874
 20
-3.713148222194882
 30
0
 10
5.501218780757874
 20
-3.713148222194882
 30
0
 10
5.501218780757874
 20
-3.713148222194882
 30
0
 10
5.453524852362205
 20
-3.713148222194882
 30
0
 10
5.453524852362205
 20
-3.713148222194882
 30
0
 10
5.453524852362205
 20
-3.713148222194882
 30
0
 10
4.979661355807086
 20
-5.029700572096456
 30
0
 10
4.979661355807086
 20
-5.029700572096456
 30
0
  0
SPLINE
  5
93
100
AcDbEntity
  8
Layer 1
  6
ByLayer
 62
  256
370
   -1
100
AcDbSpline
210
0
220
0
230
0
 70
   11
 71
    3
 72
   29
 73
   25
 74
    0
 42
1e-07
 43
1e-07
 40
0
 40
0
 40
0
 40
0
 40
1
 40
1
 40
1
 40
2
 40
2
 40
2
 40
3
 40
3
 40
3
 40
4
 40
4
 40
4
 40
5
 40
5
 40
5
 40
6
 40
6
 40
6
 40
7
 40
7
 40
7
 40
8
 40
8
 40
8
 40
8
 10
5.399871585875984
 20
-5.333992064468504
 30
0
 10
5.399871585875984
 20
-5.333992064468504
 30
0
 10
4.86939437746063
 20
-5.333992064468504
 30
0
 10
4.86939437746063
 20
-5.333992064468504
 30
0
 10
4.86939437746063
 20
-5.333992064468504
 30
0
 10
4.69355545644685
 20
-5.843130997785433
 30
0
 10
4.69355545644685
 20
-5.843130997785433
 30
0
 10
4.69355545644685
 20
-5.843130997785433
 30
0
 10
4.228630967027559
 20
-5.843130997785433
 30
0
 10
4.228630967027559
 20
-5.843130997785433
 30
0
 10
4.228630967027559
 20
-5.843130997785433
 30
0
 10
5.235970564714567
 20
-3.408856729822835
 30
0
 10
5.235970564714567
 20
-3.408856729822835
 30
0
 10
5.235970564714567
 20
-3.408856729822835
 30
0
 10
5.834999384842519
 20
-3.408856729822835
 30
0
 10
5.834999384842519
 20
-3.408856729822835
 30
0
 10
5.834999384842519
 20
-3.408856729822835
 30
0
 10
5.834999384842519
 20
-5.843130997785433
 30
0
 10
5.834999384842519
 20
-5.843130997785433
 30
0
 10
5.834999384842519
 20
-5.843130997785433
 30
0
 10
5.373054564468504
 20
-5.843130997785433
 30
0
 10
5.373054564468504
 20
-5.843130997785433
 30
0
 10
5.373054564468504
 20
-5.843130997785433
 30
0
 10
5.399871585875984
 20
-5.333992064468504
 30
0
 10
5.399871585875984
 20
-5.333992064468504
 30
0
  0
SPLINE
  5
94
100
AcDbEntity
  8
Layer 1
  6
ByLayer
 62
  256
370
   -1
100
AcDbSpline
210
0
220
0
230
0
 70
   11
 71
    3
 72
   35
 73
   31
 74
    0
 42
1e-07
 43
1e-07
 40
0
 40
0
 40
0
 40
0
 40
1
 40
1
 40
1
 40
2
 40
2
 40
2
 40
3
 40
3
 40
3
 40
4
 40
4
 40
4
 40
5
 40
5
 40
5
 40
6
 40
6
 40
6
 40
7
 40
7
 40
7
 40
8
 40
8
 40
8
 40
9
 40
9
 40
9
 40
10
 40
10
 40
10
 40
10
 10
7.108875184547244
 20
-3.408856729822835
 30
0
 10
7.108875184547244
 20
-3.408856729822835
 30
0
 10
7.451594795767717
 20
-5.240584245816929
 30
0
 10
7.451594795767717
 20
-5.240584245816929
 30
0
 10
7.451594795767717
 20
-5.240584245816929
 30
0
 10
7.836048997293307
 20
-3.408856729822835
 30
0
 10
7.836048997293307
 20
-3.408856729822835
 30
0
 10
7.836048997293307
 20
-3.408856729822835
 30
0
 10
8.199645515501969
 20
-3.408856729822835
 30
0
 10
8.199645515501969
 20
-3.408856729822835
 30
0
 10
8.199645515501969
 20
-3.408856729822835
 30
0
 10
7.690025990403544
 20
-5.843130997785433
 30
0
 10
7.690025990403544
 20
-5.843130997785433
 30
0
 10
7.690025990403544
 20
-5.843130997785433
 30
0
 10
7.168468565452756
 20
-5.843130997785433
 30
0
 10
7.168468565452756
 20
-5.843130997785433
 30
0
 10
7.168468565452756
 20
-5.843130997785433
 30
0
 10
6.843626968503937
 20
-4.21023391363189
 30
0
 10
6.843626968503937
 20
-4.21023391363189
 30
0
 10
6.843626968503937
 20
-4.21023391363189
 30
0
 10
6.500888133612205
 20
-5.843130997785433
 30
0
 10
6.500888133612205
 20
-5.843130997785433
 30
0
 10
6.500888133612205
 20
-5.843130997785433
 30
0
 10
6.140271284448819
 20
-5.843130997785433
 30
0
 10
6.140271284448819
 20
-5.843130997785433
 30
0
 10
6.140271284448819
 20
-5.843130997785433
 30
0
 10
6.649910033218504
 20
-3.408856729822835
 30
0
 10
6.649910033218504
 20
-3.408856729822835
 30
0
 10
6.649910033218504
 20
-3.408856729822835
 30
0
 10
7.108875184547244
 20
-3.408856729822835
 30
0
 10
7.108875184547244
 20
-3.408856729822835
 30
0
  0
SPLINE
  5
95
100
AcDbEntity
  8
Layer 1
  6
ByLayer
 62
  256
370
   -1
100
AcDbSpline
210
0
220
0
230
0
 70
   11
 71
    3
 72
   35
 73
   31
 74
    0
 42
1e-07
 43
1e-07
 40
0
 40
0
 40
0
 40
0
 40
1
 40
1
 40
1
 40
2
 40
2
 40
2
 40
3
 40
3
 40
3
 40
4
 40
4
 40
4
 40
5
 40
5
 40
5
 40
6
 40
6
 40
6
 40
7
 40
7
 40
7
 40
8
 40
8
 40
8
 40
9
 40
9
 40
9
 40
10
 40
10
 40
10
 40
10
 10
8.993679256889763
 20
-3.408856729822835
 30
0
 10
8.993679256889763
 20
-3.408856729822835
 30
0
 10
9.336398868110235
 20
-5.240584245816929
 30
0
 10
9.336398868110235
 20
-5.240584245816929
 30
0
 10
9.336398868110235
 20
-5.240584245816929
 30
0
 10
9.720853069635826
 20
-3.408856729822835
 30
0
 10
9.720853069635826
 20
-3.408856729822835
 30
0
 10
9.720853069635826
 20
-3.408856729822835
 30
0
 10
10.08446881151575
 20
-3.408856729822835
 30
0
 10
10.08446881151575
 20
-3.408856729822835
 30
0
 10
10.08446881151575
 20
-3.408856729822835
 30
0
 10
9.574830062746063
 20
-5.843130997785433
 30
0
 10
9.574830062746063
 20
-5.843130997785433
 30
0
 10
9.574830062746063
 20
-5.843130997785433
 30
0
 10
9.053272637795276
 20
-5.843130997785433
 30
0
 10
9.053272637795276
 20
-5.843130997785433
 30
0
 10
9.053272637795276
 20
-5.843130997785433
 30
0
 10
8.728431040846457
 20
-4.21023391363189
 30
0
 10
8.728431040846457
 20
-4.21023391363189
 30
0
 10
8.728431040846457
 20
-4.21023391363189
 30
0
 10
8.385692205954724
 20
-5.843130997785433
 30
0
 10
8.385692205954724
 20
-5.843130997785433
 30
0
 10
8.385692205954724
 20
-5.843130997785433
 30
0
 10
8.025075356791339
 20
-5.843130997785433
 30
0
 10
8.025075356791339
 20
-5.843130997785433
 30
0
 10
8.025075356791339
 20
-5.843130997785433
 30
0
 10
8.534714105561024
 20
-3.408856729822835
 30
0
 10
8.534714105561024
 20
-3.408856729822835
 30
0
 10
8.534714105561024
 20
-3.408856729822835
 30
0
 10
8.993679256889763
 20
-3.408856729822835
 30
0
 10
8.993679256889763
 20
-3.408856729822835
 30
0
  0
SPLINE
  5
96
100
AcDbEntity
  8
Layer 1
  6
ByLayer
 62
  256
370
   -1
100
AcDbSpline
210
0
220
0
230
0
 70
   11
 71
    3
 72
   35
 73
   31
 74
    0
 42
1e-07
 43
1e-07
 40
0
 40
0
 40
0
 40
0
 40
1
 40
1
 40
1
 40
2
 40
2
 40
2
 40
3
 40
3
 40
3
 40
4
 40
4
 40
4
 40
5
 40
5
 40
5
 40
6
 40
6
 40
6
 40
7
 40
7
 40
7
 40
8
 40
8
 40
8
 40
9
 40
9
 40
9
 40
10
 40
10
 40
10
 40
10
 10
10.4761703371063
 20
-5.183355376476378
 30
0
 10
10.46721210629921
 20
-5.225532111220472
 30
0
 10
10.46125276820866
 20
-5.267708845964567
 30
0
 10
10.46125276820866
 20
-5.306867464320866
 30
0
 10
10.46125276820866
 20
-5.43943390132874
 30
0
 10
10.51192636564961
 20
-5.544875738188976
 30
0
 10
10.61623400590551
 20
-5.544875738188976
 30
0
 10
10.61623400590551
 20
-5.544875738188976
 30
0
 10
10.88444266732284
 20
-5.544875738188976
 30
0
 10
10.88444266732284
 20
-5.544875738188976
 30
0
 10
11.01858544537401
 20
-5.544875738188976
 30
0
 10
11.13481176181102
 20
-5.373150682824803
 30
0
 10
11.17352823572835
 20
-5.183355376476378
 30
0
 10
11.17352823572835
 20
-5.183355376476378
 30
0
 10
11.40601931594488
 20
-4.077686700295276
 30
0
 10
11.40601931594488
 20
-4.077686700295276
 30
0
 10
11.41493909940945
 20
-4.032491849163386
 30
0
 10
11.4208984375
 20
-3.987296998031496
 30
0
 10
11.4208984375
 20
-3.945120263287401
 30
0
 10
11.4208984375
 20
-3.809554933562992
 30
0
 10
11.37022484005906
 20
-3.713148222194882
 30
0
 10
11.26891609251969
 20
-3.713148222194882
 30
0
 10
11.26891609251969
 20
-3.713148222194882
 30
0
 10
11.00066898375984
 20
-3.713148222194882
 30
0
 10
11.00066898375984
 20
-3.713148222194882
 30
0
 10
10.86956354576772
 20
-3.713148222194882
 30
0
 10
10.75033833661417
 20
-3.88185516117126
 30
0
 10
10.70862296998031
 20
-4.077686700295276
 30
0
 10
10.70862296998031
 20
-4.077686700295276
 30
0
 10
10.4761703371063
 20
-5.183355376476378
 30
0
 10
10.4761703371063
 20
-5.183355376476378
 30
0
  0
SPLINE
  5
97
100
AcDbEntity
  8
Layer 1
  6
ByLayer
 62
  256
370
   -1
100
AcDbSpline
210
0
220
0
230
0
 70
   11
 71
    3
 72
   35
 73
   31
 74
    0
 42
1e-07
 43
1e-07
 40
0
 40
0
 40
0
 40
0
 40
1
 40
1
 40
1
 40
2
 40
2
 40
2
 40
3
 40
3
 40
3
 40
4
 40
4
 40
4
 40
5
 40
5
 40
5
 40
6
 40
6
 40
6
 40
7
 40
7
 40
7
 40
8
 40
8
 40
8
 40
9
 40
9
 40
9
 40
10
 40
10
 40
10
 40
10
 10
11.52820497047244
 20
-3.408856729822835
 30
0
 10
11.74873892716535
 20
-3.408856729822835
 30
0
 10
11.87392347440945
 20
-3.595653143454724
 30
0
 10
11.87392347440945
 20
-3.863784910187008
 30
0
 10
11.87392347440945
 20
-3.930068128690945
 30
0
 10
11.86496524360236
 20
-4.002368356299213
 30
0
 10
11.85004767470472
 20
-4.077686700295276
 30
0
 10
11.85004767470472
 20
-4.077686700295276
 30
0
 10
11.61759504183071
 20
-5.183355376476378
 30
0
 10
11.61759504183071
 20
-5.183355376476378
 30
0
 10
11.54012364665354
 20
-5.544875738188976
 30
0
 10
11.30171167568898
 20
-5.843130997785433
 30
0
 10
11.01858544537401
 20
-5.843130997785433
 30
0
 10
11.01858544537401
 20
-5.843130997785433
 30
0
 10
10.35694512795276
 20
-5.843130997785433
 30
0
 10
10.35694512795276
 20
-5.843130997785433
 30
0
 10
10.13341227854331
 20
-5.843130997785433
 30
0
 10
10.00826617864173
 20
-5.653335691437007
 30
0
 10
10.00826617864173
 20
-5.38820281742126
 30
0
 10
10.00826617864173
 20
-5.324937715305118
 30
0
 10
10.0171859621063
 20
-5.255655604084645
 30
0
 10
10.03210353100394
 20
-5.183355376476378
 30
0
 10
10.03210353100394
 20
-5.183355376476378
 30
0
 10
10.26455616387795
 20
-4.077686700295276
 30
0
 10
10.26455616387795
 20
-4.077686700295276
 30
0
 10
10.34206600639764
 20
-3.70109498031496
 30
0
 10
10.58939776082677
 20
-3.408856729822835
 30
0
 10
10.86656465305118
 20
-3.408856729822835
 30
0
 10
10.86656465305118
 20
-3.408856729822835
 30
0
 10
11.52820497047244
 20
-3.408856729822835
 30
0
 10
11.52820497047244
 20
-3.408856729822835
 30
0
  0
SPLINE
  5
98
100
AcDbEntity
  8
Layer 1
  6
ByLayer
 62
  256
370
   -1
100
AcDbSpline
210
0
220
0
230
0
 70
   11
 71
    3
 72
   35
 73
   31
 74
    0
 42
1e-07
 43
1e-07
 40
0
 40
0
 40
0
 40
0
 40
1
 40
1
 40
1
 40
2
 40
2
 40
2
 40
3
 40
3
 40
3
 40
4
 40
4
 40
4
 40
5
 40
5
 40
5
 40
6
 40
6
 40
6
 40
7
 40
7
 40
7
 40
8
 40
8
 40
8
 40
9
 40
9
 40
9
 40
10
 40
10
 40
10
 40
10
 10
12.7632874015748
 20
-3.408856729822835
 30
0
 10
12.7632874015748
 20
-3.408856729822835
 30
0
 10
13.10604546013779
 20
-5.240584245816929
 30
0
 10
13.10604546013779
 20
-5.240584245816929
 30
0
 10
13.10604546013779
 20
-5.240584245816929
 30
0
 10
13.49048043799213
 20
-3.408856729822835
 30
0
 10
13.49048043799213
 20
-3.408856729822835
 30
0
 10
13.49048043799213
 20
-3.408856729822835
 30
0
 10
13.85407695620079
 20
-3.408856729822835
 30
0
 10
13.85407695620079
 20
-3.408856729822835
 30
0
 10
13.85407695620079
 20
-3.408856729822835
 30
0
 10
13.34445743110236
 20
-5.843130997785433
 30
0
 10
13.34445743110236
 20
-5.843130997785433
 30
0
 10
13.34445743110236
 20
-5.843130997785433
 30
0
 10
12.82291922982284
 20
-5.843130997785433
 30
0
 10
12.82291922982284
 20
-5.843130997785433
 30
0
 10
12.82291922982284
 20
-5.843130997785433
 30
0
 10
12.4980391855315
 20
-4.21023391363189
 30
0
 10
12.4980391855315
 20
-4.21023391363189
 30
0
 10
12.4980391855315
 20
-4.21023391363189
 30
0
 10
12.15531957431102
 20
-5.843130997785433
 30
0
 10
12.15531957431102
 20
-5.843130997785433
 30
0
 10
12.15531957431102
 20
-5.843130997785433
 30
0
 10
11.7947219488189
 20
-5.843130997785433
 30
0
 10
11.7947219488189
 20
-5.843130997785433
 30
0
 10
11.7947219488189
 20
-5.843130997785433
 30
0
 10
12.30434147391732
 20
-3.408856729822835
 30
0
 10
12.30434147391732
 20
-3.408856729822835
 30
0
 10
12.30434147391732
 20
-3.408856729822835
 30
0
 10
12.7632874015748
 20
-3.408856729822835
 30
0
 10
12.7632874015748
 20
-3.408856729822835
 30
0
  0
SPLINE
  5
99
100
AcDbEntity
  8
Layer 1
  6
ByLayer
 62
  256
370
   -1
100
AcDbSpline
210
0
220
0
230
0
 70
   11
 71
    3
 72
   20
 73
   16
 74
    0
 42
1e-07
 43
1e-07
 40
0
 40
0
 40
0
 40
0
 40
1
 40
1
 40
1
 40
2
 40
2
 40
2
 40
3
 40
3
 40
3
 40
4
 40
4
 40
4
 40
5
 40
5
 40
5
 40
5
 10
14.41863773375984
 20
-4.454278420275591
 30
0
 10
14.41863773375984
 20
-4.454278420275591
 30
0
 10
14.83882874015748
 20
-4.454278420275591
 30
0
 10
14.83882874015748
 20
-4.454278420275591
 30
0
 10
14.98189130167323
 20
-4.454278420275591
 30
0
 10
15.14579232283465
 20
-4.26146499753937
 30
0
 10
15.14579232283465
 20
-3.92101377952756
 30
0
 10
15.14579232283465
 20
-3.788466566190945
 30
0
 10
15.09515717273622
 20
-3.713148222194882
 30
0
 10
14.99680887057087
 20
-3.713148222194882
 30
0
 10
14.99680887057087
 20
-3.713148222194882
 30
0
 10
14.57657941683071
 20
-3.713148222194882
 30
0
 10
14.57657941683071
 20
-3.713148222194882
 30
0
 10
14.57657941683071
 20
-3.713148222194882
 30
0
 10
14.41863773375984
 20
-4.454278420275591
 30
0
 10
14.41863773375984
 20
-4.454278420275591
 30
0
  0
SPLINE
  5
9A
100
AcDbEntity
  8
Layer 1
  6
ByLayer
 62
  256
370
   -1
100
AcDbSpline
210
0
220
0
230
0
 70
   11
 71
    3
 72
   20
 73
   16
 74
    0
 42
1e-07
 43
1e-07
 40
0
 40
0
 40
0
 40
0
 40
1
 40
1
 40
1
 40
2
 40
2
 40
2
 40
3
 40
3
 40
3
 40
4
 40
4
 40
4
 40
5
 40
5
 40
5
 40
5
 10
14.19210599163386
 20
-5.544875738188976
 30
0
 10
14.19210599163386
 20
-5.544875738188976
 30
0
 10
14.65109036663386
 20
-5.544875738188976
 30
0
 10
14.65109036663386
 20
-5.544875738188976
 30
0
 10
14.78819359005906
 20
-5.544875738188976
 30
0
 10
14.96101439468504
 20
-5.309885580708661
 30
0
 10
14.96101439468504
 20
-4.999577079232283
 30
0
 10
14.96101439468504
 20
-4.857975516732283
 30
0
 10
14.91037924458661
 20
-4.758550688976378
 30
0
 10
14.81499138779528
 20
-4.758550688976378
 30
0
 10
14.81499138779528
 20
-4.758550688976378
 30
0
 10
14.35604546013779
 20
-4.758550688976378
 30
0
 10
14.35604546013779
 20
-4.758550688976378
 30
0
 10
14.35604546013779
 20
-4.758550688976378
 30
0
 10
14.19210599163386
 20
-5.544875738188976
 30
0
 10
14.19210599163386
 20
-5.544875738188976
 30
0
  0
SPLINE
  5
9B
100
AcDbEntity
  8
Layer 1
  6
ByLayer
 62
  256
370
   -1
100
AcDbSpline
210
0
220
0
230
0
 70
   11
 71
    3
 72
   26
 73
   22
 74
    0
 42
1e-07
 43
1e-07
 40
0
 40
0
 40
0
 40
0
 40
1
 40
1
 40
1
 40
2
 40
2
 40
2
 40
3
 40
3
 40
3
 40
4
 40
4
 40
4
 40
5
 40
5
 40
5
 40
6
 40
6
 40
6
 40
7
 40
7
 40
7
 40
7
 10
15.25009996309055
 20
-3.408856729822835
 30
0
 10
15.47067236712598
 20
-3.408856729822835
 30
0
 10
15.59581846702756
 20
-3.59263502706693
 30
0
 10
15.59581846702756
 20
-3.860766793799213
 30
0
 10
15.59581846702756
 20
-4.183128537155512
 30
0
 10
15.46767347440945
 20
-4.454278420275591
 30
0
 10
15.26205708661417
 20
-4.583826740895669
 30
0
 10
15.35444605068898
 20
-4.653108852116142
 30
0
 10
15.4050812007874
 20
-4.818816898375984
 30
0
 10
15.4050812007874
 20
-4.990541953740157
 30
0
 10
15.4050812007874
 20
-5.451487143208661
 30
0
 10
15.08023960383858
 20
-5.843130997785433
 30
0
 10
14.7822342519685
 20
-5.843130997785433
 30
0
 10
14.7822342519685
 20
-5.843130997785433
 30
0
 10
13.66760734498031
 20
-5.843130997785433
 30
0
 10
13.66760734498031
 20
-5.843130997785433
 30
0
 10
13.66760734498031
 20
-5.843130997785433
 30
0
 10
14.17722687007874
 20
-3.408856729822835
 30
0
 10
14.17722687007874
 20
-3.408856729822835
 30
0
 10
14.17722687007874
 20
-3.408856729822835
 30
0
 10
15.25009996309055
 20
-3.408856729822835
 30
0
 10
15.25009996309055
 20
-3.408856729822835
 30
0
  0
SPLINE
  5
9C
100
AcDbEntity
  8
Layer 1
  6
ByLayer
 62
  256
370
   -1
100
AcDbSpline
210
0
220
0
230
0
 70
   11
 71
    3
 72
   17
 73
   13
 74
    0
 42
1e-07
 43
1e-07
 40
0
 40
0
 40
0
 40
0
 40
1
 40
1
 40
1
 40
2
 40
2
 40
2
 40
3
 40
3
 40
3
 40
4
 40
4
 40
4
 40
4
 10
16.28852423720472
 20
-5.029700572096456
 30
0
 10
16.28852423720472
 20
-5.029700572096456
 30
0
 10
16.72959215059055
 20
-5.029700572096456
 30
0
 10
16.72959215059055
 20
-5.029700572096456
 30
0
 10
16.72959215059055
 20
-5.029700572096456
 30
0
 10
16.81006243848425
 20
-3.713148222194882
 30
0
 10
16.81006243848425
 20
-3.713148222194882
 30
0
 10
16.81006243848425
 20
-3.713148222194882
 30
0
 10
16.76238773375984
 20
-3.713148222194882
 30
0
 10
16.76238773375984
 20
-3.713148222194882
 30
0
 10
16.76238773375984
 20
-3.713148222194882
 30
0
 10
16.28852423720472
 20
-5.029700572096456
 30
0
 10
16.28852423720472
 20
-5.029700572096456
 30
0
  0
SPLINE
  5
9D
100
AcDbEntity
  8
Layer 1
  6
ByLayer
 62
  256
370
   -1
100
AcDbSpline
210
0
220
0
230
0
 70
   11
 71
    3
 72
   29
 73
   25
 74
    0
 42
1e-07
 43
1e-07
 40
0
 40
0
 40
0
 40
0
 40
1
 40
1
 40
1
 40
2
 40
2
 40
2
 40
3
 40
3
 40
3
 40
4
 40
4
 40
4
 40
5
 40
5
 40
5
 40
6
 40
6
 40
6
 40
7
 40
7
 40
7
 40
8
 40
8
 40
8
 40
8
 10
16.70875369094488
 20
-5.333992064468504
 30
0
 10
16.70875369094488
 20
-5.333992064468504
 30
0
 10
16.17825725885826
 20
-5.333992064468504
 30
0
 10
16.17825725885826
 20
-5.333992064468504
 30
0
 10
16.17825725885826
 20
-5.333992064468504
 30
0
 10
16.00243756151575
 20
-5.843130997785433
 30
0
 10
16.00243756151575
 20
-5.843130997785433
 30
0
 10
16.00243756151575
 20
-5.843130997785433
 30
0
 10
15.5374938484252
 20
-5.843130997785433
 30
0
 10
15.5374938484252
 20
-5.843130997785433
 30
0
 10
15.5374938484252
 20
-5.843130997785433
 30
0
 10
16.54481422244094
 20
-3.408856729822835
 30
0
 10
16.54481422244094
 20
-3.408856729822835
 30
0
 10
16.54481422244094
 20
-3.408856729822835
 30
0
 10
17.14386226624016
 20
-3.408856729822835
 30
0
 10
17.14386226624016
 20
-3.408856729822835
 30
0
 10
17.14386226624016
 20
-3.408856729822835
 30
0
 10
17.14386226624016
 20
-5.843130997785433
 30
0
 10
17.14386226624016
 20
-5.843130997785433
 30
0
 10
17.14386226624016
 20
-5.843130997785433
 30
0
 10
16.68191744586614
 20
-5.843130997785433
 30
0
 10
16.68191744586614
 20
-5.843130997785433
 30
0
 10
16.68191744586614
 20
-5.843130997785433
 30
0
 10
16.70875369094488
 20
-5.333992064468504
 30
0
 10
16.70875369094488
 20
-5.333992064468504
 30
0
  0
SPLINE
  5
9E
100
AcDbEntity
  8
Layer 1
  6
ByLayer
 62
  256
370
   -1
100
AcDbSpline
210
0
220
0
230
0
 70
   11
 71
    3
 72
   23
 73
   19
 74
    0
 42
1e-07
 43
1e-07
 40
0
 40
0
 40
0
 40
0
 40
1
 40
1
 40
1
 40
2
 40
2
 40
2
 40
3
 40
3
 40
3
 40
4
 40
4
 40
4
 40
5
 40
5
 40
5
 40
6
 40
6
 40
6
 40
6
 10
18.42961829478346
 20
-3.408856729822835
 30
0
 10
18.42961829478346
 20
-3.408856729822835
 30
0
 10
17.98259104330708
 20
-5.544875738188976
 30
0
 10
17.98259104330708
 20
-5.544875738188976
 30
0
 10
17.98259104330708
 20
-5.544875738188976
 30
0
 10
19.04954324557087
 20
-5.544875738188976
 30
0
 10
19.04954324557087
 20
-5.544875738188976
 30
0
 10
19.04954324557087
 20
-5.544875738188976
 30
0
 10
18.98695097194882
 20
-5.843130997785433
 30
0
 10
18.98695097194882
 20
-5.843130997785433
 30
0
 10
18.98695097194882
 20
-5.843130997785433
 30
0
 10
17.45805394931102
 20
-5.843130997785433
 30
0
 10
17.45805394931102
 20
-5.843130997785433
 30
0
 10
17.45805394931102
 20
-5.843130997785433
 30
0
 10
17.96767347440944
 20
-3.408856729822835
 30
0
 10
17.96767347440944
 20
-3.408856729822835
 30
0
 10
17.96767347440944
 20
-3.408856729822835
 30
0
 10
18.42961829478346
 20
-3.408856729822835
 30
0
 10
18.42961829478346
 20
-3.408856729822835
 30
0
  0
SPLINE
  5
9F
100
AcDbEntity
  8
Layer 1
  6
ByLayer
 62
  256
370
   -1
100
AcDbSpline
210
0
220
0
230
0
 70
   11
 71
    3
 72
   23
 73
   19
 74
    0
 42
1e-07
 43
1e-07
 40
0
 40
0
 40
0
 40
0
 40
1
 40
1
 40
1
 40
2
 40
2
 40
2
 40
3
 40
3
 40
3
 40
4
 40
4
 40
4
 40
5
 40
5
 40
5
 40
6
 40
6
 40
6
 40
6
 10
20.31442236712598
 20
-3.408856729822835
 30
0
 10
20.31442236712598
 20
-3.408856729822835
 30
0
 10
19.86739511564961
 20
-5.544875738188976
 30
0
 10
19.86739511564961
 20
-5.544875738188976
 30
0
 10
19.86739511564961
 20
-5.544875738188976
 30
0
 10
20.93434731791339
 20
-5.544875738188976
 30
0
 10
20.93434731791339
 20
-5.544875738188976
 30
0
 10
20.93434731791339
 20
-5.544875738188976
 30
0
 10
20.87175504429133
 20
-5.843130997785433
 30
0
 10
20.87175504429133
 20
-5.843130997785433
 30
0
 10
20.87175504429133
 20
-5.843130997785433
 30
0
 10
19.34285802165354
 20
-5.843130997785433
 30
0
 10
19.34285802165354
 20
-5.843130997785433
 30
0
 10
19.34285802165354
 20
-5.843130997785433
 30
0
 10
19.85247754675197
 20
-3.408856729822835
 30
0
 10
19.85247754675197
 20
-3.408856729822835
 30
0
 10
19.85247754675197
 20
-3.408856729822835
 30
0
 10
20.31442236712598
 20
-3.408856729822835
 30
0
 10
20.31442236712598
 20
-3.408856729822835
 30
0
  0
ENDBLK
  5
57
330
55
100
AcDbEntity
  8
0
100
AcDbBlockEnd
  0
BLOCK
  5
59
330
58
100
AcDbEntity
  8
0
100
AcDbBlockBegin
  2
Block_2
 70
    0
 10
0
 20
0
  3
Block_2
  1

  0
INSERT
  5
A0
100
AcDbEntity
  8
Layer 1
  6
ByLayer
 62
  256
370
   -1
100
AcDbBlockReference
  2
Block_3
 10
0
 20
0
 30
0
 41
1
 42
1
 43
0
 50
0
 70
    1
 71
    1
 44
0
 45
0
  0
ENDBLK
  5
5A
330
58
100
AcDbEntity
  8
0
100
AcDbBlockEnd
  0
BLOCK
  5
5C
330
5B
100
AcDbEntity
  8
0
100
AcDbBlockBegin
  2
Block_3
 70
    0
 10
0
 20
0
  3
Block_3
  1

  0
SPLINE
  5
A1
100
AcDbEntity
  8
Layer 1
  6
ByLayer
 62
  256
370
   -1
100
AcDbSpline
210
0
220
0
230
0
 70
   11
 71
    3
 72
   53
 73
   49
 74
    0
 42
1e-07
 43
1e-07
 40
0
 40
0
 40
0
 40
0
 40
1
 40
1
 40
1
 40
2
 40
2
 40
2
 40
3
 40
3
 40
3
 40
4
 40
4
 40
4
 40
5
 40
5
 40
5
 40
6
 40
6
 40
6
 40
7
 40
7
 40
7
 40
8
 40
8
 40
8
 40
9
 40
9
 40
9
 40
10
 40
10
 40
10
 40
11
 40
11
 40
11
 40
12
 40
12
 40
12
 40
13
 40
13
 40
13
 40
14
 40
14
 40
14
 40
15
 40
15
 40
15
 40
16
 40
16
 40
16
 40
16
 10
5.535129336860236
 20
-6.332431102362205
 30
0
 10
5.535129336860236
 20
-6.332431102362205
 30
0
 10
5.250292199803149
 20
-7.366107129675196
 30
0
 10
5.250292199803149
 20
-7.366107129675196
 30
0
 10
5.250292199803149
 20
-7.366107129675196
 30
0
 10
5.266670767716535
 20
-7.366107129675196
 30
0
 10
5.266670767716535
 20
-7.366107129675196
 30
0
 10
5.266670767716535
 20
-7.366107129675196
 30
0
 10
5.744667353592519
 20
-6.672670859990157
 30
0
 10
5.744667353592519
 20
-6.672670859990157
 30
0
 10
5.744667353592519
 20
-6.672670859990157
 30
0
 10
6.052438330462598
 20
-6.672670859990157
 30
0
 10
6.052438330462598
 20
-6.672670859990157
 30
0
 10
6.052438330462598
 20
-6.672670859990157
 30
0
 10
5.928022730068897
 20
-7.36935593011811
 30
0
 10
5.928022730068897
 20
-7.36935593011811
 30
0
 10
5.928022730068897
 20
-7.36935593011811
 30
0
 10
5.947669322096456
 20
-7.36935593011811
 30
0
 10
5.947669322096456
 20
-7.36935593011811
 30
0
 10
5.947669322096456
 20
-7.36935593011811
 30
0
 10
6.546813484251969
 20
-6.332431102362205
 30
0
 10
6.546813484251969
 20
-6.332431102362205
 30
0
 10
6.546813484251969
 20
-6.332431102362205
 30
0
 10
7.014986774114173
 20
-6.332431102362205
 30
0
 10
7.014986774114173
 20
-6.332431102362205
 30
0
 10
7.014986774114173
 20
-6.332431102362205
 30
0
 10
6.189945250984252
 20
-7.64154389148622
 30
0
 10
6.189945250984252
 20
-7.64154389148622
 30
0
 10
6.189945250984252
 20
-7.64154389148622
 30
0
 10
5.656276913139764
 20
-7.64154389148622
 30
0
 10
5.656276913139764
 20
-7.64154389148622
 30
0
 10
5.656276913139764
 20
-7.64154389148622
 30
0
 10
5.718484713336614
 20
-7.102012333907481
 30
0
 10
5.718484713336614
 20
-7.102012333907481
 30
0
 10
5.718484713336614
 20
-7.102012333907481
 30
0
 10
5.702106145423229
 20
-7.102012333907481
 30
0
 10
5.702106145423229
 20
-7.102012333907481
 30
0
 10
5.702106145423229
 20
-7.102012333907481
 30
0
 10
5.3125
 20
-7.64154389148622
 30
0
 10
5.3125
 20
-7.64154389148622
 30
0
 10
5.3125
 20
-7.64154389148622
 30
0
 10
4.775563638041339
 20
-7.64154389148622
 30
0
 10
4.775563638041339
 20
-7.64154389148622
 30
0
 10
4.775563638041339
 20
-7.64154389148622
 30
0
 10
5.066956046998031
 20
-6.332431102362205
 30
0
 10
5.066956046998031
 20
-6.332431102362205
 30
0
 10
5.066956046998031
 20
-6.332431102362205
 30
0
 10
5.535129336860236
 20
-6.332431102362205
 30
0
 10
5.535129336860236
 20
-6.332431102362205
 30
0
  0
SPLINE
  5
A2
100
AcDbEntity
  8
Layer 1
  6
ByLayer
 62
  256
370
   -1
100
AcDbSpline
210
0
220
0
230
0
 70
   11
 71
    3
 72
   41
 73
   37
 74
    0
 42
1e-07
 43
1e-07
 40
0
 40
0
 40
0
 40
0
 40
1
 40
1
 40
1
 40
2
 40
2
 40
2
 40
3
 40
3
 40
3
 40
4
 40
4
 40
4
 40
5
 40
5
 40
5
 40
6
 40
6
 40
6
 40
7
 40
7
 40
7
 40
8
 40
8
 40
8
 40
9
 40
9
 40
9
 40
10
 40
10
 40
10
 40
11
 40
11
 40
11
 40
12
 40
12
 40
12
 40
12
 10
8.897522453248031
 20
-6.332431102362205
 30
0
 10
8.897522453248031
 20
-6.332431102362205
 30
0
 10
8.828759381151574
 20
-6.496062992125984
 30
0
 10
8.828759381151574
 20
-6.496062992125984
 30
0
 10
8.828759381151574
 20
-6.496062992125984
 30
0
 10
7.72214874507874
 20
-6.496062992125984
 30
0
 10
7.72214874507874
 20
-6.496062992125984
 30
0
 10
7.72214874507874
 20
-6.496062992125984
 30
0
 10
7.545348640501969
 20
-6.90435454601378
 30
0
 10
7.545348640501969
 20
-6.90435454601378
 30
0
 10
7.545348640501969
 20
-6.90435454601378
 30
0
 10
8.350762795275591
 20
-6.90435454601378
 30
0
 10
8.350762795275591
 20
-6.90435454601378
 30
0
 10
8.350762795275591
 20
-6.90435454601378
 30
0
 10
8.281999723179133
 20
-7.064756859005906
 30
0
 10
8.281999723179133
 20
-7.064756859005906
 30
0
 10
8.281999723179133
 20
-7.064756859005906
 30
0
 10
7.476585568405512
 20
-7.064756859005906
 30
0
 10
7.476585568405512
 20
-7.064756859005906
 30
0
 10
7.476585568405512
 20
-7.064756859005906
 30
0
 10
7.29978546382874
 20
-7.481141578494094
 30
0
 10
7.29978546382874
 20
-7.481141578494094
 30
0
 10
7.29978546382874
 20
-7.481141578494094
 30
0
 10
8.406415323572835
 20
-7.481141578494094
 30
0
 10
8.406415323572835
 20
-7.481141578494094
 30
0
 10
8.406415323572835
 20
-7.481141578494094
 30
0
 10
8.337652251476378
 20
-7.64154389148622
 30
0
 10
8.337652251476378
 20
-7.64154389148622
 30
0
 10
8.337652251476378
 20
-7.64154389148622
 30
0
 10
6.717019869586614
 20
-7.64154389148622
 30
0
 10
6.717019869586614
 20
-7.64154389148622
 30
0
 10
6.717019869586614
 20
-7.64154389148622
 30
0
 10
7.276870847687007
 20
-6.332431102362205
 30
0
 10
7.276870847687007
 20
-6.332431102362205
 30
0
 10
7.276870847687007
 20
-6.332431102362205
 30
0
 10
8.897522453248031
 20
-6.332431102362205
 30
0
 10
8.897522453248031
 20
-6.332431102362205
 30
0
  0
SPLINE
  5
A3
100
AcDbEntity
  8
Layer 1
  6
ByLayer
 62
  256
370
   -1
100
AcDbSpline
210
0
220
0
230
0
 70
   11
 71
    3
 72
   23
 73
   19
 74
    0
 42
1e-07
 43
1e-07
 40
0
 40
0
 40
0
 40
0
 40
1
 40
1
 40
1
 40
2
 40
2
 40
2
 40
3
 40
3
 40
3
 40
4
 40
4
 40
4
 40
5
 40
5
 40
5
 40
6
 40
6
 40
6
 40
6
 10
9.797843873031496
 20
-6.332431102362205
 30
0
 10
9.797843873031496
 20
-6.332431102362205
 30
0
 10
9.306755967027559
 20
-7.481141578494094
 30
0
 10
9.306755967027559
 20
-7.481141578494094
 30
0
 10
9.306755967027559
 20
-7.481141578494094
 30
0
 10
10.47886165108268
 20
-7.481141578494094
 30
0
 10
10.47886165108268
 20
-7.481141578494094
 30
0
 10
10.47886165108268
 20
-7.481141578494094
 30
0
 10
10.41009857898622
 20
-7.64154389148622
 30
0
 10
10.41009857898622
 20
-7.64154389148622
 30
0
 10
10.41009857898622
 20
-7.64154389148622
 30
0
 10
8.73052642101378
 20
-7.64154389148622
 30
0
 10
8.73052642101378
 20
-7.64154389148622
 30
0
 10
8.73052642101378
 20
-7.64154389148622
 30
0
 10
9.290377399114172
 20
-6.332431102362205
 30
0
 10
9.290377399114172
 20
-6.332431102362205
 30
0
 10
9.290377399114172
 20
-6.332431102362205
 30
0
 10
9.797843873031496
 20
-6.332431102362205
 30
0
 10
9.797843873031496
 20
-6.332431102362205
 30
0
  0
SPLINE
  5
A4
100
AcDbEntity
  8
Layer 1
  6
ByLayer
 62
  256
370
   -1
100
AcDbSpline
210
0
220
0
230
0
 70
   11
 71
    3
 72
   26
 73
   22
 74
    0
 42
1e-07
 43
1e-07
 40
0
 40
0
 40
0
 40
0
 40
1
 40
1
 40
1
 40
2
 40
2
 40
2
 40
3
 40
3
 40
3
 40
4
 40
4
 40
4
 40
5
 40
5
 40
5
 40
6
 40
6
 40
6
 40
7
 40
7
 40
7
 40
7
 10
11.35298120693898
 20
-7.481141578494094
 30
0
 10
11.35298120693898
 20
-7.481141578494094
 30
0
 10
11.81790569635827
 20
-7.481141578494094
 30
0
 10
11.81790569635827
 20
-7.481141578494094
 30
0
 10
11.96196788877953
 20
-7.481141578494094
 30
0
 10
12.09291953740157
 20
-7.385561484990157
 30
0
 10
12.13548074557087
 20
-7.286713367372047
 30
0
 10
12.13548074557087
 20
-7.286713367372047
 30
0
 10
12.39084799458661
 20
-6.692105991633858
 30
0
 10
12.39084799458661
 20
-6.692105991633858
 30
0
 10
12.40069051427165
 20
-6.667807271161418
 30
0
 10
12.4072265625
 20
-6.643508550688976
 30
0
 10
12.4072265625
 20
-6.620824618602362
 30
0
 10
12.4072265625
 20
-6.549524021899606
 30
0
 10
12.3515548105315
 20
-6.496062992125984
 30
0
 10
12.24024975393701
 20
-6.496062992125984
 30
0
 10
12.24024975393701
 20
-6.496062992125984
 30
0
 10
11.77534448818898
 20
-6.496062992125984
 30
0
 10
11.77534448818898
 20
-6.496062992125984
 30
0
 10
11.77534448818898
 20
-6.496062992125984
 30
0
 10
11.35298120693898
 20
-7.481141578494094
 30
0
 10
11.35298120693898
 20
-7.481141578494094
 30
0
  0
SPLINE
  5
A5
100
AcDbEntity
  8
Layer 1
  6
ByLayer
 62
  256
370
   -1
100
AcDbSpline
210
0
220
0
230
0
 70
   11
 71
    3
 72
   26
 73
   22
 74
    0
 42
1e-07
 43
1e-07
 40
0
 40
0
 40
0
 40
0
 40
1
 40
1
 40
1
 40
2
 40
2
 40
2
 40
3
 40
3
 40
3
 40
4
 40
4
 40
4
 40
5
 40
5
 40
5
 40
6
 40
6
 40
6
 40
7
 40
7
 40
7
 40
7
 10
12.52506766732284
 20
-6.332431102362205
 30
0
 10
12.76082677165354
 20
-6.332431102362205
 30
0
 10
12.89831446850394
 20
-6.432874784694881
 30
0
 10
12.89831446850394
 20
-6.57707154281496
 30
0
 10
12.89831446850394
 20
-6.612712229330708
 30
0
 10
12.88851039616142
 20
-6.65160171628937
 30
0
 10
12.87213182824803
 20
-6.692105991633858
 30
0
 10
12.87213182824803
 20
-6.692105991633858
 30
0
 10
12.61676457923228
 20
-7.286713367372047
 30
0
 10
12.61676457923228
 20
-7.286713367372047
 30
0
 10
12.5316421628937
 20
-7.484390378937007
 30
0
 10
12.26643239419291
 20
-7.64154389148622
 30
0
 10
11.9652359128937
 20
-7.64154389148622
 30
0
 10
11.9652359128937
 20
-7.64154389148622
 30
0
 10
10.7767516609252
 20
-7.64154389148622
 30
0
 10
10.7767516609252
 20
-7.64154389148622
 30
0
 10
10.7767516609252
 20
-7.64154389148622
 30
0
 10
11.33660263902559
 20
-6.332431102362205
 30
0
 10
11.33660263902559
 20
-6.332431102362205
 30
0
 10
11.33660263902559
 20
-6.332431102362205
 30
0
 10
12.52506766732284
 20
-6.332431102362205
 30
0
 10
12.52506766732284
 20
-6.332431102362205
 30
0
  0
SPLINE
  5
A6
100
AcDbEntity
  8
Layer 1
  6
ByLayer
 62
  256
370
   -1
100
AcDbSpline
210
0
220
0
230
0
 70
   11
 71
    3
 72
   41
 73
   37
 74
    0
 42
1e-07
 43
1e-07
 40
0
 40
0
 40
0
 40
0
 40
1
 40
1
 40
1
 40
2
 40
2
 40
2
 40
3
 40
3
 40
3
 40
4
 40
4
 40
4
 40
5
 40
5
 40
5
 40
6
 40
6
 40
6
 40
7
 40
7
 40
7
 40
8
 40
8
 40
8
 40
9
 40
9
 40
9
 40
10
 40
10
 40
10
 40
11
 40
11
 40
11
 40
12
 40
12
 40
12
 40
12
 10
15.03621739665354
 20
-6.332431102362205
 30
0
 10
15.03621739665354
 20
-6.332431102362205
 30
0
 10
14.96747354822835
 20
-6.496062992125984
 30
0
 10
14.96747354822835
 20
-6.496062992125984
 30
0
 10
14.96747354822835
 20
-6.496062992125984
 30
0
 10
14.41417784202756
 20
-6.496062992125984
 30
0
 10
14.41417784202756
 20
-6.496062992125984
 30
0
 10
14.41417784202756
 20
-6.496062992125984
 30
0
 10
13.99183378444882
 20
-7.481141578494094
 30
0
 10
13.99183378444882
 20
-7.481141578494094
 30
0
 10
13.99183378444882
 20
-7.481141578494094
 30
0
 10
14.54512949064961
 20
-7.481141578494094
 30
0
 10
14.54512949064961
 20
-7.481141578494094
 30
0
 10
14.54512949064961
 20
-7.481141578494094
 30
0
 10
14.47638564222441
 20
-7.64154389148622
 30
0
 10
14.47638564222441
 20
-7.64154389148622
 30
0
 10
14.47638564222441
 20
-7.64154389148622
 30
0
 10
12.85244678887795
 20
-7.64154389148622
 30
0
 10
12.85244678887795
 20
-7.64154389148622
 30
0
 10
12.85244678887795
 20
-7.64154389148622
 30
0
 10
12.92119063730315
 20
-7.481141578494094
 30
0
 10
12.92119063730315
 20
-7.481141578494094
 30
0
 10
12.92119063730315
 20
-7.481141578494094
 30
0
 10
13.4810608390748
 20
-7.481141578494094
 30
0
 10
13.4810608390748
 20
-7.481141578494094
 30
0
 10
13.4810608390748
 20
-7.481141578494094
 30
0
 10
13.90340489665354
 20
-6.496062992125984
 30
0
 10
13.90340489665354
 20
-6.496062992125984
 30
0
 10
13.90340489665354
 20
-6.496062992125984
 30
0
 10
13.34357314222441
 20
-6.496062992125984
 30
0
 10
13.34357314222441
 20
-6.496062992125984
 30
0
 10
13.34357314222441
 20
-6.496062992125984
 30
0
 10
13.41231699064961
 20
-6.332431102362205
 30
0
 10
13.41231699064961
 20
-6.332431102362205
 30
0
 10
13.41231699064961
 20
-6.332431102362205
 30
0
 10
15.03621739665354
 20
-6.332431102362205
 30
0
 10
15.03621739665354
 20
-6.332431102362205
 30
0
  0
SPLINE
  5
A7
100
AcDbEntity
  8
Layer 1
  6
ByLayer
 62
  256
370
   -1
100
AcDbSpline
210
0
220
0
230
0
 70
   11
 71
    3
 72
   35
 73
   31
 74
    0
 42
1e-07
 43
1e-07
 40
0
 40
0
 40
0
 40
0
 40
1
 40
1
 40
1
 40
2
 40
2
 40
2
 40
3
 40
3
 40
3
 40
4
 40
4
 40
4
 40
5
 40
5
 40
5
 40
6
 40
6
 40
6
 40
7
 40
7
 40
7
 40
8
 40
8
 40
8
 40
9
 40
9
 40
9
 40
10
 40
10
 40
10
 40
10
 10
15.92346671998031
 20
-6.332431102362205
 30
0
 10
15.92346671998031
 20
-6.332431102362205
 30
0
 10
16.29998154527559
 20
-7.317509688730315
 30
0
 10
16.29998154527559
 20
-7.317509688730315
 30
0
 10
16.29998154527559
 20
-7.317509688730315
 30
0
 10
16.72232560285433
 20
-6.332431102362205
 30
0
 10
16.72232560285433
 20
-6.332431102362205
 30
0
 10
16.72232560285433
 20
-6.332431102362205
 30
0
 10
17.12175504429134
 20
-6.332431102362205
 30
0
 10
17.12175504429134
 20
-6.332431102362205
 30
0
 10
17.12175504429134
 20
-6.332431102362205
 30
0
 10
16.5619232898622
 20
-7.64154389148622
 30
0
 10
16.5619232898622
 20
-7.64154389148622
 30
0
 10
16.5619232898622
 20
-7.64154389148622
 30
0
 10
15.98894254429133
 20
-7.64154389148622
 30
0
 10
15.98894254429133
 20
-7.64154389148622
 30
0
 10
15.98894254429133
 20
-7.64154389148622
 30
0
 10
15.63207431102362
 20
-6.763406588336614
 30
0
 10
15.63207431102362
 20
-6.763406588336614
 30
0
 10
15.63207431102362
 20
-6.763406588336614
 30
0
 10
15.25555948572835
 20
-7.64154389148622
 30
0
 10
15.25555948572835
 20
-7.64154389148622
 30
0
 10
15.25555948572835
 20
-7.64154389148622
 30
0
 10
14.85939806840551
 20
-7.64154389148622
 30
0
 10
14.85939806840551
 20
-7.64154389148622
 30
0
 10
14.85939806840551
 20
-7.64154389148622
 30
0
 10
15.41926827017716
 20
-6.332431102362205
 30
0
 10
15.41926827017716
 20
-6.332431102362205
 30
0
 10
15.41926827017716
 20
-6.332431102362205
 30
0
 10
15.92346671998031
 20
-6.332431102362205
 30
0
 10
15.92346671998031
 20
-6.332431102362205
 30
0
  0
SPLINE
  5
A8
100
AcDbEntity
  8
Layer 1
  6
ByLayer
 62
  256
370
   -1
100
AcDbSpline
210
0
220
0
230
0
 70
   11
 71
    3
 72
   59
 73
   55
 74
    0
 42
1e-07
 43
1e-07
 40
0
 40
0
 40
0
 40
0
 40
1
 40
1
 40
1
 40
2
 40
2
 40
2
 40
3
 40
3
 40
3
 40
4
 40
4
 40
4
 40
5
 40
5
 40
5
 40
6
 40
6
 40
6
 40
7
 40
7
 40
7
 40
8
 40
8
 40
8
 40
9
 40
9
 40
9
 40
10
 40
10
 40
10
 40
11
 40
11
 40
11
 40
12
 40
12
 40
12
 40
13
 40
13
 40
13
 40
14
 40
14
 40
14
 40
15
 40
15
 40
15
 40
16
 40
16
 40
16
 40
17
 40
17
 40
17
 40
18
 40
18
 40
18
 40
18
 10
19.0992172121063
 20
-6.332431102362205
 30
0
 10
19.0992172121063
 20
-6.332431102362205
 30
0
 10
19.0304733636811
 20
-6.496062992125984
 30
0
 10
19.0304733636811
 20
-6.496062992125984
 30
0
 10
19.0304733636811
 20
-6.496062992125984
 30
0
 10
18.13991756889763
 20
-6.496062992125984
 30
0
 10
18.13991756889763
 20
-6.496062992125984
 30
0
 10
18.00242987204724
 20
-6.496062992125984
 30
0
 10
17.86490372785433
 20
-6.586798720472441
 30
0
 10
17.81907449557087
 20
-6.692105991633858
 30
0
 10
17.81907449557087
 20
-6.692105991633858
 30
0
 10
17.56370724655512
 20
-7.286713367372047
 30
0
 10
17.56370724655512
 20
-7.286713367372047
 30
0
 10
17.55386472687008
 20
-7.309397299458661
 30
0
 10
17.5505967027559
 20
-7.330466443159449
 30
0
 10
17.5505967027559
 20
-7.349901574803149
 30
0
 10
17.5505967027559
 20
-7.422816959891732
 30
0
 10
17.6062684547244
 20
-7.481141578494094
 30
0
 10
17.7175735113189
 20
-7.481141578494094
 30
0
 10
17.7175735113189
 20
-7.481141578494094
 30
0
 10
18.17921075295276
 20
-7.481141578494094
 30
0
 10
18.17921075295276
 20
-7.481141578494094
 30
0
 10
18.17921075295276
 20
-7.481141578494094
 30
0
 10
18.35603008120078
 20
-7.064756859005906
 30
0
 10
18.35603008120078
 20
-7.064756859005906
 30
0
 10
18.35603008120078
 20
-7.064756859005906
 30
0
 10
17.91730745570866
 20
-7.064756859005906
 30
0
 10
17.91730745570866
 20
-7.064756859005906
 30
0
 10
17.91730745570866
 20
-7.064756859005906
 30
0
 10
17.98605130413386
 20
-6.902739757627953
 30
0
 10
17.98605130413386
 20
-6.902739757627953
 30
0
 10
17.98605130413386
 20
-6.902739757627953
 30
0
 10
18.89294721948819
 20
-6.902739757627953
 30
0
 10
18.89294721948819
 20
-6.902739757627953
 30
0
 10
18.89294721948819
 20
-6.902739757627953
 30
0
 10
18.57864019438976
 20
-7.64154389148622
 30
0
 10
18.57864019438976
 20
-7.64154389148622
 30
0
 10
18.57864019438976
 20
-7.64154389148622
 30
0
 10
17.43602362204724
 20
-7.64154389148622
 30
0
 10
17.43602362204724
 20
-7.64154389148622
 30
0
 10
17.19046044537401
 20
-7.64154389148622
 30
0
 10
17.0562407726378
 20
-7.541100209153544
 30
0
 10
17.0562407726378
 20
-7.400133027805118
 30
0
 10
17.0562407726378
 20
-7.36449234128937
 30
0
 10
17.06604484498031
 20
-7.327217642716535
 30
0
 10
17.0824234128937
 20
-7.286713367372047
 30
0
 10
17.0824234128937
 20
-7.286713367372047
 30
0
 10
17.33779066190944
 20
-6.692105991633858
 30
0
 10
17.33779066190944
 20
-6.692105991633858
 30
0
 10
17.4261811023622
 20
-6.487969826525591
 30
0
 10
17.69792691929133
 20
-6.332431102362205
 30
0
 10
17.99585537647638
 20
-6.332431102362205
 30
0
 10
17.99585537647638
 20
-6.332431102362205
 30
0
 10
19.0992172121063
 20
-6.332431102362205
 30
0
 10
19.0992172121063
 20
-6.332431102362205
 30
0
  0
ENDBLK
  5
5D
330
5B
100
AcDbEntity
  8
0
100
AcDbBlockEnd
  0
BLOCK
  5
5F
330
5E
100
AcDbEntity
  8
0
100
AcDbBlockBegin
  2
Cannonball Text (for ball)-0
 70
    0
 10
0
 20
0
  3
Cannonball Text (for ball)-0
  1

  0
INSERT
  5
A9
100
AcDbEntity
  8
Layer 1
  6
ByLayer
 62
  256
370
   -1
100
AcDbBlockReference
  2
Block_0-0
 10
0
 20
0
 30
0
 41
1
 42
1
 43
0
 50
0
 70
    1
 71
    1
 44
0
 45
0
  0
INSERT
  5
AA
100
AcDbEntity
  8
Layer 1
  6
ByLayer
 62
  256
370
   -1
100
AcDbBlockReference
  2
Block_2-0
 10
0
 20
0
 30
0
 41
1
 42
1
 43
0
 50
0
 70
    1
 71
    1
 44
0
 45
0
  0
ENDBLK
  5
60
330
5E
100
AcDbEntity
  8
0
100
AcDbBlockEnd
  0
BLOCK
  5
62
330
61
100
AcDbEntity
  8
0
100
AcDbBlockBegin
  2
Block_0-0
 70
    0
 10
0
 20
0
  3
Block_0-0
  1

  0
INSERT
  5
AB
100
AcDbEntity
  8
Layer 1
  6
ByLayer
 62
  256
370
   -1
100
AcDbBlockReference
  2
Block_1-0
 10
0
 20
0
 30
0
 41
1
 42
1
 43
0
 50
0
 70
    1
 71
    1
 44
0
 45
0
  0
ENDBLK
  5
63
330
61
100
AcDbEntity
  8
0
100
AcDbBlockEnd
  0
BLOCK
  5
65
330
64
100
AcDbEntity
  8
0
100
AcDbBlockBegin
  2
Block_1-0
 70
    0
 10
0
 20
0
  3
Block_1-0
  1

  0
SPLINE
  5
AC
100
AcDbEntity
  8
Layer 1
  6
ByLayer
 62
  256
370
   -1
100
AcDbSpline
210
0
220
0
230
0
 70
   11
 71
    3
 72
   47
 73
   43
 74
    0
 42
1e-07
 43
1e-07
 40
0
 40
0
 40
0
 40
0
 40
1
 40
1
 40
1
 40
2
 40
2
 40
2
 40
3
 40
3
 40
3
 40
4
 40
4
 40
4
 40
5
 40
5
 40
5
 40
6
 40
6
 40
6
 40
7
 40
7
 40
7
 40
8
 40
8
 40
8
 40
9
 40
9
 40
9
 40
10
 40
10
 40
10
 40
11
 40
11
 40
11
 40
12
 40
12
 40
12
 40
13
 40
13
 40
13
 40
14
 40
14
 40
14
 40
14
 10
4.370405542568897
 20
-3.408856729822835
 30
0
 10
4.370405542568897
 20
-3.408856729822835
 30
0
 10
4.30783249261811
 20
-3.713148222194882
 30
0
 10
4.30783249261811
 20
-3.713148222194882
 30
0
 10
4.30783249261811
 20
-3.713148222194882
 30
0
 10
3.535944420521654
 20
-3.713148222194882
 30
0
 10
3.535944420521654
 20
-3.713148222194882
 30
0
 10
3.404800535187008
 20
-3.713148222194882
 30
0
 10
3.285594549704725
 20
-3.88185516117126
 30
0
 10
3.243879183070866
 20
-4.077686700295276
 30
0
 10
3.243879183070866
 20
-4.077686700295276
 30
0
 10
3.01140732652559
 20
-5.183355376476378
 30
0
 10
3.01140732652559
 20
-5.183355376476378
 30
0
 10
3.002468319389764
 20
-5.225532111220472
 30
0
 10
2.996508981299213
 20
-5.267708845964567
 30
0
 10
2.996508981299213
 20
-5.306867464320866
 30
0
 10
2.996508981299213
 20
-5.43943390132874
 30
0
 10
3.047182578740157
 20
-5.544875738188976
 30
0
 10
3.151490218996063
 20
-5.544875738188976
 30
0
 10
3.151490218996063
 20
-5.544875738188976
 30
0
 10
3.92337829109252
 20
-5.544875738188976
 30
0
 10
3.92337829109252
 20
-5.544875738188976
 30
0
 10
3.92337829109252
 20
-5.544875738188976
 30
0
 10
3.860786017470472
 20
-5.843130997785433
 30
0
 10
3.860786017470472
 20
-5.843130997785433
 30
0
 10
3.860786017470472
 20
-5.843130997785433
 30
0
 10
2.889221671998031
 20
-5.843130997785433
 30
0
 10
2.889221671998031
 20
-5.843130997785433
 30
0
 10
2.668687715305118
 20
-5.843130997785433
 30
0
 10
2.546482837106299
 20
-5.656334584153544
 30
0
 10
2.546482837106299
 20
-5.391220933809055
 30
0
 10
2.546482837106299
 20
-5.327955831692913
 30
0
 10
2.555421844242126
 20
-5.255655604084645
 30
0
 10
2.570339413139764
 20
-5.183355376476378
 30
0
 10
2.570339413139764
 20
-5.183355376476378
 30
0
 10
2.80279204601378
 20
-4.077686700295276
 30
0
 10
2.80279204601378
 20
-4.077686700295276
 30
0
 10
2.88326233390748
 20
-3.698076863927166
 30
0
 10
3.127633642962599
 20
-3.408856729822835
 30
0
 10
3.398841197096456
 20
-3.408856729822835
 30
0
 10
3.398841197096456
 20
-3.408856729822835
 30
0
 10
4.370405542568897
 20
-3.408856729822835
 30
0
 10
4.370405542568897
 20
-3.408856729822835
 30
0
  0
SPLINE
  5
AD
100
AcDbEntity
  8
Layer 1
  6
ByLayer
 62
  256
370
   -1
100
AcDbSpline
210
0
220
0
230
0
 70
   11
 71
    3
 72
   17
 73
   13
 74
    0
 42
1e-07
 43
1e-07
 40
0
 40
0
 40
0
 40
0
 40
1
 40
1
 40
1
 40
2
 40
2
 40
2
 40
3
 40
3
 40
3
 40
4
 40
4
 40
4
 40
4
 10
4.979661355807086
 20
-5.029700572096456
 30
0
 10
4.979661355807086
 20
-5.029700572096456
 30
0
 10
5.420748492864173
 20
-5.029700572096456
 30
0
 10
5.420748492864173
 20
-5.029700572096456
 30
0
 10
5.420748492864173
 20
-5.029700572096456
 30
0
 10
5.501218780757874
 20
-3.713148222194882
 30
0
 10
5.501218780757874
 20
-3.713148222194882
 30
0
 10
5.501218780757874
 20
-3.713148222194882
 30
0
 10
5.453524852362205
 20
-3.713148222194882
 30
0
 10
5.453524852362205
 20
-3.713148222194882
 30
0
 10
5.453524852362205
 20
-3.713148222194882
 30
0
 10
4.979661355807086
 20
-5.029700572096456
 30
0
 10
4.979661355807086
 20
-5.029700572096456
 30
0
  0
SPLINE
  5
AE
100
AcDbEntity
  8
Layer 1
  6
ByLayer
 62
  256
370
   -1
100
AcDbSpline
210
0
220
0
230
0
 70
   11
 71
    3
 72
   29
 73
   25
 74
    0
 42
1e-07
 43
1e-07
 40
0
 40
0
 40
0
 40
0
 40
1
 40
1
 40
1
 40
2
 40
2
 40
2
 40
3
 40
3
 40
3
 40
4
 40
4
 40
4
 40
5
 40
5
 40
5
 40
6
 40
6
 40
6
 40
7
 40
7
 40
7
 40
8
 40
8
 40
8
 40
8
 10
5.399871585875984
 20
-5.333992064468504
 30
0
 10
5.399871585875984
 20
-5.333992064468504
 30
0
 10
4.86939437746063
 20
-5.333992064468504
 30
0
 10
4.86939437746063
 20
-5.333992064468504
 30
0
 10
4.86939437746063
 20
-5.333992064468504
 30
0
 10
4.69355545644685
 20
-5.843130997785433
 30
0
 10
4.69355545644685
 20
-5.843130997785433
 30
0
 10
4.69355545644685
 20
-5.843130997785433
 30
0
 10
4.228630967027559
 20
-5.843130997785433
 30
0
 10
4.228630967027559
 20
-5.843130997785433
 30
0
 10
4.228630967027559
 20
-5.843130997785433
 30
0
 10
5.235970564714567
 20
-3.408856729822835
 30
0
 10
5.235970564714567
 20
-3.408856729822835
 30
0
 10
5.235970564714567
 20
-3.408856729822835
 30
0
 10
5.834999384842519
 20
-3.408856729822835
 30
0
 10
5.834999384842519
 20
-3.408856729822835
 30
0
 10
5.834999384842519
 20
-3.408856729822835
 30
0
 10
5.834999384842519
 20
-5.843130997785433
 30
0
 10
5.834999384842519
 20
-5.843130997785433
 30
0
 10
5.834999384842519
 20
-5.843130997785433
 30
0
 10
5.373054564468504
 20
-5.843130997785433
 30
0
 10
5.373054564468504
 20
-5.843130997785433
 30
0
 10
5.373054564468504
 20
-5.843130997785433
 30
0
 10
5.399871585875984
 20
-5.333992064468504
 30
0
 10
5.399871585875984
 20
-5.333992064468504
 30
0
  0
SPLINE
  5
AF
100
AcDbEntity
  8
Layer 1
  6
ByLayer
 62
  256
370
   -1
100
AcDbSpline
210
0
220
0
230
0
 70
   11
 71
    3
 72
   35
 73
   31
 74
    0
 42
1e-07
 43
1e-07
 40
0
 40
0
 40
0
 40
0
 40
1
 40
1
 40
1
 40
2
 40
2
 40
2
 40
3
 40
3
 40
3
 40
4
 40
4
 40
4
 40
5
 40
5
 40
5
 40
6
 40
6
 40
6
 40
7
 40
7
 40
7
 40
8
 40
8
 40
8
 40
9
 40
9
 40
9
 40
10
 40
10
 40
10
 40
10
 10
7.108875184547244
 20
-3.408856729822835
 30
0
 10
7.108875184547244
 20
-3.408856729822835
 30
0
 10
7.451594795767717
 20
-5.240584245816929
 30
0
 10
7.451594795767717
 20
-5.240584245816929
 30
0
 10
7.451594795767717
 20
-5.240584245816929
 30
0
 10
7.836048997293307
 20
-3.408856729822835
 30
0
 10
7.836048997293307
 20
-3.408856729822835
 30
0
 10
7.836048997293307
 20
-3.408856729822835
 30
0
 10
8.199645515501969
 20
-3.408856729822835
 30
0
 10
8.199645515501969
 20
-3.408856729822835
 30
0
 10
8.199645515501969
 20
-3.408856729822835
 30
0
 10
7.690025990403544
 20
-5.843130997785433
 30
0
 10
7.690025990403544
 20
-5.843130997785433
 30
0
 10
7.690025990403544
 20
-5.843130997785433
 30
0
 10
7.168468565452756
 20
-5.843130997785433
 30
0
 10
7.168468565452756
 20
-5.843130997785433
 30
0
 10
7.168468565452756
 20
-5.843130997785433
 30
0
 10
6.843626968503937
 20
-4.21023391363189
 30
0
 10
6.843626968503937
 20
-4.21023391363189
 30
0
 10
6.843626968503937
 20
-4.21023391363189
 30
0
 10
6.500888133612205
 20
-5.843130997785433
 30
0
 10
6.500888133612205
 20
-5.843130997785433
 30
0
 10
6.500888133612205
 20
-5.843130997785433
 30
0
 10
6.140271284448819
 20
-5.843130997785433
 30
0
 10
6.140271284448819
 20
-5.843130997785433
 30
0
 10
6.140271284448819
 20
-5.843130997785433
 30
0
 10
6.649910033218504
 20
-3.408856729822835
 30
0
 10
6.649910033218504
 20
-3.408856729822835
 30
0
 10
6.649910033218504
 20
-3.408856729822835
 30
0
 10
7.108875184547244
 20
-3.408856729822835
 30
0
 10
7.108875184547244
 20
-3.408856729822835
 30
0
  0
SPLINE
  5
B0
100
AcDbEntity
  8
Layer 1
  6
ByLayer
 62
  256
370
   -1
100
AcDbSpline
210
0
220
0
230
0
 70
   11
 71
    3
 72
   35
 73
   31
 74
    0
 42
1e-07
 43
1e-07
 40
0
 40
0
 40
0
 40
0
 40
1
 40
1
 40
1
 40
2
 40
2
 40
2
 40
3
 40
3
 40
3
 40
4
 40
4
 40
4
 40
5
 40
5
 40
5
 40
6
 40
6
 40
6
 40
7
 40
7
 40
7
 40
8
 40
8
 40
8
 40
9
 40
9
 40
9
 40
10
 40
10
 40
10
 40
10
 10
8.993679256889763
 20
-3.408856729822835
 30
0
 10
8.993679256889763
 20
-3.408856729822835
 30
0
 10
9.336398868110235
 20
-5.240584245816929
 30
0
 10
9.336398868110235
 20
-5.240584245816929
 30
0
 10
9.336398868110235
 20
-5.240584245816929
 30
0
 10
9.720853069635826
 20
-3.408856729822835
 30
0
 10
9.720853069635826
 20
-3.408856729822835
 30
0
 10
9.720853069635826
 20
-3.408856729822835
 30
0
 10
10.08446881151575
 20
-3.408856729822835
 30
0
 10
10.08446881151575
 20
-3.408856729822835
 30
0
 10
10.08446881151575
 20
-3.408856729822835
 30
0
 10
9.574830062746063
 20
-5.843130997785433
 30
0
 10
9.574830062746063
 20
-5.843130997785433
 30
0
 10
9.574830062746063
 20
-5.843130997785433
 30
0
 10
9.053272637795276
 20
-5.843130997785433
 30
0
 10
9.053272637795276
 20
-5.843130997785433
 30
0
 10
9.053272637795276
 20
-5.843130997785433
 30
0
 10
8.728431040846457
 20
-4.21023391363189
 30
0
 10
8.728431040846457
 20
-4.21023391363189
 30
0
 10
8.728431040846457
 20
-4.21023391363189
 30
0
 10
8.385692205954724
 20
-5.843130997785433
 30
0
 10
8.385692205954724
 20
-5.843130997785433
 30
0
 10
8.385692205954724
 20
-5.843130997785433
 30
0
 10
8.025075356791339
 20
-5.843130997785433
 30
0
 10
8.025075356791339
 20
-5.843130997785433
 30
0
 10
8.025075356791339
 20
-5.843130997785433
 30
0
 10
8.534714105561024
 20
-3.408856729822835
 30
0
 10
8.534714105561024
 20
-3.408856729822835
 30
0
 10
8.534714105561024
 20
-3.408856729822835
 30
0
 10
8.993679256889763
 20
-3.408856729822835
 30
0
 10
8.993679256889763
 20
-3.408856729822835
 30
0
  0
SPLINE
  5
B1
100
AcDbEntity
  8
Layer 1
  6
ByLayer
 62
  256
370
   -1
100
AcDbSpline
210
0
220
0
230
0
 70
   11
 71
    3
 72
   35
 73
   31
 74
    0
 42
1e-07
 43
1e-07
 40
0
 40
0
 40
0
 40
0
 40
1
 40
1
 40
1
 40
2
 40
2
 40
2
 40
3
 40
3
 40
3
 40
4
 40
4
 40
4
 40
5
 40
5
 40
5
 40
6
 40
6
 40
6
 40
7
 40
7
 40
7
 40
8
 40
8
 40
8
 40
9
 40
9
 40
9
 40
10
 40
10
 40
10
 40
10
 10
10.4761703371063
 20
-5.183355376476378
 30
0
 10
10.46721210629921
 20
-5.225532111220472
 30
0
 10
10.46125276820866
 20
-5.267708845964567
 30
0
 10
10.46125276820866
 20
-5.306867464320866
 30
0
 10
10.46125276820866
 20
-5.43943390132874
 30
0
 10
10.51192636564961
 20
-5.544875738188976
 30
0
 10
10.61623400590551
 20
-5.544875738188976
 30
0
 10
10.61623400590551
 20
-5.544875738188976
 30
0
 10
10.88444266732284
 20
-5.544875738188976
 30
0
 10
10.88444266732284
 20
-5.544875738188976
 30
0
 10
11.01858544537401
 20
-5.544875738188976
 30
0
 10
11.13481176181102
 20
-5.373150682824803
 30
0
 10
11.17352823572835
 20
-5.183355376476378
 30
0
 10
11.17352823572835
 20
-5.183355376476378
 30
0
 10
11.40601931594488
 20
-4.077686700295276
 30
0
 10
11.40601931594488
 20
-4.077686700295276
 30
0
 10
11.41493909940945
 20
-4.032491849163386
 30
0
 10
11.4208984375
 20
-3.987296998031496
 30
0
 10
11.4208984375
 20
-3.945120263287401
 30
0
 10
11.4208984375
 20
-3.809554933562992
 30
0
 10
11.37022484005906
 20
-3.713148222194882
 30
0
 10
11.26891609251969
 20
-3.713148222194882
 30
0
 10
11.26891609251969
 20
-3.713148222194882
 30
0
 10
11.00066898375984
 20
-3.713148222194882
 30
0
 10
11.00066898375984
 20
-3.713148222194882
 30
0
 10
10.86956354576772
 20
-3.713148222194882
 30
0
 10
10.75033833661417
 20
-3.88185516117126
 30
0
 10
10.70862296998031
 20
-4.077686700295276
 30
0
 10
10.70862296998031
 20
-4.077686700295276
 30
0
 10
10.4761703371063
 20
-5.183355376476378
 30
0
 10
10.4761703371063
 20
-5.183355376476378
 30
0
  0
SPLINE
  5
B2
100
AcDbEntity
  8
Layer 1
  6
ByLayer
 62
  256
370
   -1
100
AcDbSpline
210
0
220
0
230
0
 70
   11
 71
    3
 72
   35
 73
   31
 74
    0
 42
1e-07
 43
1e-07
 40
0
 40
0
 40
0
 40
0
 40
1
 40
1
 40
1
 40
2
 40
2
 40
2
 40
3
 40
3
 40
3
 40
4
 40
4
 40
4
 40
5
 40
5
 40
5
 40
6
 40
6
 40
6
 40
7
 40
7
 40
7
 40
8
 40
8
 40
8
 40
9
 40
9
 40
9
 40
10
 40
10
 40
10
 40
10
 10
11.52820497047244
 20
-3.408856729822835
 30
0
 10
11.74873892716535
 20
-3.408856729822835
 30
0
 10
11.87392347440945
 20
-3.595653143454724
 30
0
 10
11.87392347440945
 20
-3.863784910187008
 30
0
 10
11.87392347440945
 20
-3.930068128690945
 30
0
 10
11.86496524360236
 20
-4.002368356299213
 30
0
 10
11.85004767470472
 20
-4.077686700295276
 30
0
 10
11.85004767470472
 20
-4.077686700295276
 30
0
 10
11.61759504183071
 20
-5.183355376476378
 30
0
 10
11.61759504183071
 20
-5.183355376476378
 30
0
 10
11.54012364665354
 20
-5.544875738188976
 30
0
 10
11.30171167568898
 20
-5.843130997785433
 30
0
 10
11.01858544537401
 20
-5.843130997785433
 30
0
 10
11.01858544537401
 20
-5.843130997785433
 30
0
 10
10.35694512795276
 20
-5.843130997785433
 30
0
 10
10.35694512795276
 20
-5.843130997785433
 30
0
 10
10.13341227854331
 20
-5.843130997785433
 30
0
 10
10.00826617864173
 20
-5.653335691437007
 30
0
 10
10.00826617864173
 20
-5.38820281742126
 30
0
 10
10.00826617864173
 20
-5.324937715305118
 30
0
 10
10.0171859621063
 20
-5.255655604084645
 30
0
 10
10.03210353100394
 20
-5.183355376476378
 30
0
 10
10.03210353100394
 20
-5.183355376476378
 30
0
 10
10.26455616387795
 20
-4.077686700295276
 30
0
 10
10.26455616387795
 20
-4.077686700295276
 30
0
 10
10.34206600639764
 20
-3.70109498031496
 30
0
 10
10.58939776082677
 20
-3.408856729822835
 30
0
 10
10.86656465305118
 20
-3.408856729822835
 30
0
 10
10.86656465305118
 20
-3.408856729822835
 30
0
 10
11.52820497047244
 20
-3.408856729822835
 30
0
 10
11.52820497047244
 20
-3.408856729822835
 30
0
  0
SPLINE
  5
B3
100
AcDbEntity
  8
Layer 1
  6
ByLayer
 62
  256
370
   -1
100
AcDbSpline
210
0
220
0
230
0
 70
   11
 71
    3
 72
   35
 73
   31
 74
    0
 42
1e-07
 43
1e-07
 40
0
 40
0
 40
0
 40
0
 40
1
 40
1
 40
1
 40
2
 40
2
 40
2
 40
3
 40
3
 40
3
 40
4
 40
4
 40
4
 40
5
 40
5
 40
5
 40
6
 40
6
 40
6
 40
7
 40
7
 40
7
 40
8
 40
8
 40
8
 40
9
 40
9
 40
9
 40
10
 40
10
 40
10
 40
10
 10
12.7632874015748
 20
-3.408856729822835
 30
0
 10
12.7632874015748
 20
-3.408856729822835
 30
0
 10
13.10604546013779
 20
-5.240584245816929
 30
0
 10
13.10604546013779
 20
-5.240584245816929
 30
0
 10
13.10604546013779
 20
-5.240584245816929
 30
0
 10
13.49048043799213
 20
-3.408856729822835
 30
0
 10
13.49048043799213
 20
-3.408856729822835
 30
0
 10
13.49048043799213
 20
-3.408856729822835
 30
0
 10
13.85407695620079
 20
-3.408856729822835
 30
0
 10
13.85407695620079
 20
-3.408856729822835
 30
0
 10
13.85407695620079
 20
-3.408856729822835
 30
0
 10
13.34445743110236
 20
-5.843130997785433
 30
0
 10
13.34445743110236
 20
-5.843130997785433
 30
0
 10
13.34445743110236
 20
-5.843130997785433
 30
0
 10
12.82291922982284
 20
-5.843130997785433
 30
0
 10
12.82291922982284
 20
-5.843130997785433
 30
0
 10
12.82291922982284
 20
-5.843130997785433
 30
0
 10
12.4980391855315
 20
-4.21023391363189
 30
0
 10
12.4980391855315
 20
-4.21023391363189
 30
0
 10
12.4980391855315
 20
-4.21023391363189
 30
0
 10
12.15531957431102
 20
-5.843130997785433
 30
0
 10
12.15531957431102
 20
-5.843130997785433
 30
0
 10
12.15531957431102
 20
-5.843130997785433
 30
0
 10
11.7947219488189
 20
-5.843130997785433
 30
0
 10
11.7947219488189
 20
-5.843130997785433
 30
0
 10
11.7947219488189
 20
-5.843130997785433
 30
0
 10
12.30434147391732
 20
-3.408856729822835
 30
0
 10
12.30434147391732
 20
-3.408856729822835
 30
0
 10
12.30434147391732
 20
-3.408856729822835
 30
0
 10
12.7632874015748
 20
-3.408856729822835
 30
0
 10
12.7632874015748
 20
-3.408856729822835
 30
0
  0
SPLINE
  5
B4
100
AcDbEntity
  8
Layer 1
  6
ByLayer
 62
  256
370
   -1
100
AcDbSpline
210
0
220
0
230
0
 70
   11
 71
    3
 72
   20
 73
   16
 74
    0
 42
1e-07
 43
1e-07
 40
0
 40
0
 40
0
 40
0
 40
1
 40
1
 40
1
 40
2
 40
2
 40
2
 40
3
 40
3
 40
3
 40
4
 40
4
 40
4
 40
5
 40
5
 40
5
 40
5
 10
14.41863773375984
 20
-4.454278420275591
 30
0
 10
14.41863773375984
 20
-4.454278420275591
 30
0
 10
14.83882874015748
 20
-4.454278420275591
 30
0
 10
14.83882874015748
 20
-4.454278420275591
 30
0
 10
14.98189130167323
 20
-4.454278420275591
 30
0
 10
15.14579232283465
 20
-4.26146499753937
 30
0
 10
15.14579232283465
 20
-3.92101377952756
 30
0
 10
15.14579232283465
 20
-3.788466566190945
 30
0
 10
15.09515717273622
 20
-3.713148222194882
 30
0
 10
14.99680887057087
 20
-3.713148222194882
 30
0
 10
14.99680887057087
 20
-3.713148222194882
 30
0
 10
14.57657941683071
 20
-3.713148222194882
 30
0
 10
14.57657941683071
 20
-3.713148222194882
 30
0
 10
14.57657941683071
 20
-3.713148222194882
 30
0
 10
14.41863773375984
 20
-4.454278420275591
 30
0
 10
14.41863773375984
 20
-4.454278420275591
 30
0
  0
SPLINE
  5
B5
100
AcDbEntity
  8
Layer 1
  6
ByLayer
 62
  256
370
   -1
100
AcDbSpline
210
0
220
0
230
0
 70
   11
 71
    3
 72
   20
 73
   16
 74
    0
 42
1e-07
 43
1e-07
 40
0
 40
0
 40
0
 40
0
 40
1
 40
1
 40
1
 40
2
 40
2
 40
2
 40
3
 40
3
 40
3
 40
4
 40
4
 40
4
 40
5
 40
5
 40
5
 40
5
 10
14.19210599163386
 20
-5.544875738188976
 30
0
 10
14.19210599163386
 20
-5.544875738188976
 30
0
 10
14.65109036663386
 20
-5.544875738188976
 30
0
 10
14.65109036663386
 20
-5.544875738188976
 30
0
 10
14.78819359005906
 20
-5.544875738188976
 30
0
 10
14.96101439468504
 20
-5.309885580708661
 30
0
 10
14.96101439468504
 20
-4.999577079232283
 30
0
 10
14.96101439468504
 20
-4.857975516732283
 30
0
 10
14.91037924458661
 20
-4.758550688976378
 30
0
 10
14.81499138779528
 20
-4.758550688976378
 30
0
 10
14.81499138779528
 20
-4.758550688976378
 30
0
 10
14.35604546013779
 20
-4.758550688976378
 30
0
 10
14.35604546013779
 20
-4.758550688976378
 30
0
 10
14.35604546013779
 20
-4.758550688976378
 30
0
 10
14.19210599163386
 20
-5.544875738188976
 30
0
 10
14.19210599163386
 20
-5.544875738188976
 30
0
  0
SPLINE
  5
B6
100
AcDbEntity
  8
Layer 1
  6
ByLayer
 62
  256
370
   -1
100
AcDbSpline
210
0
220
0
230
0
 70
   11
 71
    3
 72
   26
 73
   22
 74
    0
 42
1e-07
 43
1e-07
 40
0
 40
0
 40
0
 40
0
 40
1
 40
1
 40
1
 40
2
 40
2
 40
2
 40
3
 40
3
 40
3
 40
4
 40
4
 40
4
 40
5
 40
5
 40
5
 40
6
 40
6
 40
6
 40
7
 40
7
 40
7
 40
7
 10
15.25009996309055
 20
-3.408856729822835
 30
0
 10
15.47067236712598
 20
-3.408856729822835
 30
0
 10
15.59581846702756
 20
-3.59263502706693
 30
0
 10
15.59581846702756
 20
-3.860766793799213
 30
0
 10
15.59581846702756
 20
-4.183128537155512
 30
0
 10
15.46767347440945
 20
-4.454278420275591
 30
0
 10
15.26205708661417
 20
-4.583826740895669
 30
0
 10
15.35444605068898
 20
-4.653108852116142
 30
0
 10
15.4050812007874
 20
-4.818816898375984
 30
0
 10
15.4050812007874
 20
-4.990541953740157
 30
0
 10
15.4050812007874
 20
-5.451487143208661
 30
0
 10
15.08023960383858
 20
-5.843130997785433
 30
0
 10
14.7822342519685
 20
-5.843130997785433
 30
0
 10
14.7822342519685
 20
-5.843130997785433
 30
0
 10
13.66760734498031
 20
-5.843130997785433
 30
0
 10
13.66760734498031
 20
-5.843130997785433
 30
0
 10
13.66760734498031
 20
-5.843130997785433
 30
0
 10
14.17722687007874
 20
-3.408856729822835
 30
0
 10
14.17722687007874
 20
-3.408856729822835
 30
0
 10
14.17722687007874
 20
-3.408856729822835
 30
0
 10
15.25009996309055
 20
-3.408856729822835
 30
0
 10
15.25009996309055
 20
-3.408856729822835
 30
0
  0
SPLINE
  5
B7
100
AcDbEntity
  8
Layer 1
  6
ByLayer
 62
  256
370
   -1
100
AcDbSpline
210
0
220
0
230
0
 70
   11
 71
    3
 72
   17
 73
   13
 74
    0
 42
1e-07
 43
1e-07
 40
0
 40
0
 40
0
 40
0
 40
1
 40
1
 40
1
 40
2
 40
2
 40
2
 40
3
 40
3
 40
3
 40
4
 40
4
 40
4
 40
4
 10
16.28852423720472
 20
-5.029700572096456
 30
0
 10
16.28852423720472
 20
-5.029700572096456
 30
0
 10
16.72959215059055
 20
-5.029700572096456
 30
0
 10
16.72959215059055
 20
-5.029700572096456
 30
0
 10
16.72959215059055
 20
-5.029700572096456
 30
0
 10
16.81006243848425
 20
-3.713148222194882
 30
0
 10
16.81006243848425
 20
-3.713148222194882
 30
0
 10
16.81006243848425
 20
-3.713148222194882
 30
0
 10
16.76238773375984
 20
-3.713148222194882
 30
0
 10
16.76238773375984
 20
-3.713148222194882
 30
0
 10
16.76238773375984
 20
-3.713148222194882
 30
0
 10
16.28852423720472
 20
-5.029700572096456
 30
0
 10
16.28852423720472
 20
-5.029700572096456
 30
0
  0
SPLINE
  5
B8
100
AcDbEntity
  8
Layer 1
  6
ByLayer
 62
  256
370
   -1
100
AcDbSpline
210
0
220
0
230
0
 70
   11
 71
    3
 72
   29
 73
   25
 74
    0
 42
1e-07
 43
1e-07
 40
0
 40
0
 40
0
 40
0
 40
1
 40
1
 40
1
 40
2
 40
2
 40
2
 40
3
 40
3
 40
3
 40
4
 40
4
 40
4
 40
5
 40
5
 40
5
 40
6
 40
6
 40
6
 40
7
 40
7
 40
7
 40
8
 40
8
 40
8
 40
8
 10
16.70875369094488
 20
-5.333992064468504
 30
0
 10
16.70875369094488
 20
-5.333992064468504
 30
0
 10
16.17825725885826
 20
-5.333992064468504
 30
0
 10
16.17825725885826
 20
-5.333992064468504
 30
0
 10
16.17825725885826
 20
-5.333992064468504
 30
0
 10
16.00243756151575
 20
-5.843130997785433
 30
0
 10
16.00243756151575
 20
-5.843130997785433
 30
0
 10
16.00243756151575
 20
-5.843130997785433
 30
0
 10
15.5374938484252
 20
-5.843130997785433
 30
0
 10
15.5374938484252
 20
-5.843130997785433
 30
0
 10
15.5374938484252
 20
-5.843130997785433
 30
0
 10
16.54481422244094
 20
-3.408856729822835
 30
0
 10
16.54481422244094
 20
-3.408856729822835
 30
0
 10
16.54481422244094
 20
-3.408856729822835
 30
0
 10
17.14386226624016
 20
-3.408856729822835
 30
0
 10
17.14386226624016
 20
-3.408856729822835
 30
0
 10
17.14386226624016
 20
-3.408856729822835
 30
0
 10
17.14386226624016
 20
-5.843130997785433
 30
0
 10
17.14386226624016
 20
-5.843130997785433
 30
0
 10
17.14386226624016
 20
-5.843130997785433
 30
0
 10
16.68191744586614
 20
-5.843130997785433
 30
0
 10
16.68191744586614
 20
-5.843130997785433
 30
0
 10
16.68191744586614
 20
-5.843130997785433
 30
0
 10
16.70875369094488
 20
-5.333992064468504
 30
0
 10
16.70875369094488
 20
-5.333992064468504
 30
0
  0
SPLINE
  5
B9
100
AcDbEntity
  8
Layer 1
  6
ByLayer
 62
  256
370
   -1
100
AcDbSpline
210
0
220
0
230
0
 70
   11
 71
    3
 72
   23
 73
   19
 74
    0
 42
1e-07
 43
1e-07
 40
0
 40
0
 40
0
 40
0
 40
1
 40
1
 40
1
 40
2
 40
2
 40
2
 40
3
 40
3
 40
3
 40
4
 40
4
 40
4
 40
5
 40
5
 40
5
 40
6
 40
6
 40
6
 40
6
 10
18.42961829478346
 20
-3.408856729822835
 30
0
 10
18.42961829478346
 20
-3.408856729822835
 30
0
 10
17.98259104330708
 20
-5.544875738188976
 30
0
 10
17.98259104330708
 20
-5.544875738188976
 30
0
 10
17.98259104330708
 20
-5.544875738188976
 30
0
 10
19.04954324557087
 20
-5.544875738188976
 30
0
 10
19.04954324557087
 20
-5.544875738188976
 30
0
 10
19.04954324557087
 20
-5.544875738188976
 30
0
 10
18.98695097194882
 20
-5.843130997785433
 30
0
 10
18.98695097194882
 20
-5.843130997785433
 30
0
 10
18.98695097194882
 20
-5.843130997785433
 30
0
 10
17.45805394931102
 20
-5.843130997785433
 30
0
 10
17.45805394931102
 20
-5.843130997785433
 30
0
 10
17.45805394931102
 20
-5.843130997785433
 30
0
 10
17.96767347440944
 20
-3.408856729822835
 30
0
 10
17.96767347440944
 20
-3.408856729822835
 30
0
 10
17.96767347440944
 20
-3.408856729822835
 30
0
 10
18.42961829478346
 20
-3.408856729822835
 30
0
 10
18.42961829478346
 20
-3.408856729822835
 30
0
  0
SPLINE
  5
BA
100
AcDbEntity
  8
Layer 1
  6
ByLayer
 62
  256
370
   -1
100
AcDbSpline
210
0
220
0
230
0
 70
   11
 71
    3
 72
   23
 73
   19
 74
    0
 42
1e-07
 43
1e-07
 40
0
 40
0
 40
0
 40
0
 40
1
 40
1
 40
1
 40
2
 40
2
 40
2
 40
3
 40
3
 40
3
 40
4
 40
4
 40
4
 40
5
 40
5
 40
5
 40
6
 40
6
 40
6
 40
6
 10
20.31442236712598
 20
-3.408856729822835
 30
0
 10
20.31442236712598
 20
-3.408856729822835
 30
0
 10
19.86739511564961
 20
-5.544875738188976
 30
0
 10
19.86739511564961
 20
-5.544875738188976
 30
0
 10
19.86739511564961
 20
-5.544875738188976
 30
0
 10
20.93434731791339
 20
-5.544875738188976
 30
0
 10
20.93434731791339
 20
-5.544875738188976
 30
0
 10
20.93434731791339
 20
-5.544875738188976
 30
0
 10
20.87175504429133
 20
-5.843130997785433
 30
0
 10
20.87175504429133
 20
-5.843130997785433
 30
0
 10
20.87175504429133
 20
-5.843130997785433
 30
0
 10
19.34285802165354
 20
-5.843130997785433
 30
0
 10
19.34285802165354
 20
-5.843130997785433
 30
0
 10
19.34285802165354
 20
-5.843130997785433
 30
0
 10
19.85247754675197
 20
-3.408856729822835
 30
0
 10
19.85247754675197
 20
-3.408856729822835
 30
0
 10
19.85247754675197
 20
-3.408856729822835
 30
0
 10
20.31442236712598
 20
-3.408856729822835
 30
0
 10
20.31442236712598
 20
-3.408856729822835
 30
0
  0
ENDBLK
  5
66
330
64
100
AcDbEntity
  8
0
100
AcDbBlockEnd
  0
BLOCK
  5
68
330
67
100
AcDbEntity
  8
0
100
AcDbBlockBegin
  2
Block_2-0
 70
    0
 10
0
 20
0
  3
Block_2-0
  1

  0
INSERT
  5
BB
100
AcDbEntity
  8
Layer 1
  6
ByLayer
 62
  256
370
   -1
100
AcDbBlockReference
  2
Block_3-0
 10
0
 20
0
 30
0
 41
1
 42
1
 43
0
 50
0
 70
    1
 71
    1
 44
0
 45
0
  0
ENDBLK
  5
69
330
67
100
AcDbEntity
  8
0
100
AcDbBlockEnd
  0
BLOCK
  5
6B
330
6A
100
AcDbEntity
  8
0
100
AcDbBlockBegin
  2
Block_3-0
 70
    0
 10
0
 20
0
  3
Block_3-0
  1

  0
SPLINE
  5
BC
100
AcDbEntity
  8
Layer 1
  6
ByLayer
 62
  256
370
   -1
100
AcDbSpline
210
0
220
0
230
0
 70
   11
 71
    3
 72
   53
 73
   49
 74
    0
 42
1e-07
 43
1e-07
 40
0
 40
0
 40
0
 40
0
 40
1
 40
1
 40
1
 40
2
 40
2
 40
2
 40
3
 40
3
 40
3
 40
4
 40
4
 40
4
 40
5
 40
5
 40
5
 40
6
 40
6
 40
6
 40
7
 40
7
 40
7
 40
8
 40
8
 40
8
 40
9
 40
9
 40
9
 40
10
 40
10
 40
10
 40
11
 40
11
 40
11
 40
12
 40
12
 40
12
 40
13
 40
13
 40
13
 40
14
 40
14
 40
14
 40
15
 40
15
 40
15
 40
16
 40
16
 40
16
 40
16
 10
5.535129336860236
 20
-6.332431102362205
 30
0
 10
5.535129336860236
 20
-6.332431102362205
 30
0
 10
5.250292199803149
 20
-7.366107129675196
 30
0
 10
5.250292199803149
 20
-7.366107129675196
 30
0
 10
5.250292199803149
 20
-7.366107129675196
 30
0
 10
5.266670767716535
 20
-7.366107129675196
 30
0
 10
5.266670767716535
 20
-7.366107129675196
 30
0
 10
5.266670767716535
 20
-7.366107129675196
 30
0
 10
5.744667353592519
 20
-6.672670859990157
 30
0
 10
5.744667353592519
 20
-6.672670859990157
 30
0
 10
5.744667353592519
 20
-6.672670859990157
 30
0
 10
6.052438330462598
 20
-6.672670859990157
 30
0
 10
6.052438330462598
 20
-6.672670859990157
 30
0
 10
6.052438330462598
 20
-6.672670859990157
 30
0
 10
5.928022730068897
 20
-7.36935593011811
 30
0
 10
5.928022730068897
 20
-7.36935593011811
 30
0
 10
5.928022730068897
 20
-7.36935593011811
 30
0
 10
5.947669322096456
 20
-7.36935593011811
 30
0
 10
5.947669322096456
 20
-7.36935593011811
 30
0
 10
5.947669322096456
 20
-7.36935593011811
 30
0
 10
6.546813484251969
 20
-6.332431102362205
 30
0
 10
6.546813484251969
 20
-6.332431102362205
 30
0
 10
6.546813484251969
 20
-6.332431102362205
 30
0
 10
7.014986774114173
 20
-6.332431102362205
 30
0
 10
7.014986774114173
 20
-6.332431102362205
 30
0
 10
7.014986774114173
 20
-6.332431102362205
 30
0
 10
6.189945250984252
 20
-7.64154389148622
 30
0
 10
6.189945250984252
 20
-7.64154389148622
 30
0
 10
6.189945250984252
 20
-7.64154389148622
 30
0
 10
5.656276913139764
 20
-7.64154389148622
 30
0
 10
5.656276913139764
 20
-7.64154389148622
 30
0
 10
5.656276913139764
 20
-7.64154389148622
 30
0
 10
5.718484713336614
 20
-7.102012333907481
 30
0
 10
5.718484713336614
 20
-7.102012333907481
 30
0
 10
5.718484713336614
 20
-7.102012333907481
 30
0
 10
5.702106145423229
 20
-7.102012333907481
 30
0
 10
5.702106145423229
 20
-7.102012333907481
 30
0
 10
5.702106145423229
 20
-7.102012333907481
 30
0
 10
5.3125
 20
-7.64154389148622
 30
0
 10
5.3125
 20
-7.64154389148622
 30
0
 10
5.3125
 20
-7.64154389148622
 30
0
 10
4.775563638041339
 20
-7.64154389148622
 30
0
 10
4.775563638041339
 20
-7.64154389148622
 30
0
 10
4.775563638041339
 20
-7.64154389148622
 30
0
 10
5.066956046998031
 20
-6.332431102362205
 30
0
 10
5.066956046998031
 20
-6.332431102362205
 30
0
 10
5.066956046998031
 20
-6.332431102362205
 30
0
 10
5.535129336860236
 20
-6.332431102362205
 30
0
 10
5.535129336860236
 20
-6.332431102362205
 30
0
  0
SPLINE
  5
BD
100
AcDbEntity
  8
Layer 1
  6
ByLayer
 62
  256
370
   -1
100
AcDbSpline
210
0
220
0
230
0
 70
   11
 71
    3
 72
   41
 73
   37
 74
    0
 42
1e-07
 43
1e-07
 40
0
 40
0
 40
0
 40
0
 40
1
 40
1
 40
1
 40
2
 40
2
 40
2
 40
3
 40
3
 40
3
 40
4
 40
4
 40
4
 40
5
 40
5
 40
5
 40
6
 40
6
 40
6
 40
7
 40
7
 40
7
 40
8
 40
8
 40
8
 40
9
 40
9
 40
9
 40
10
 40
10
 40
10
 40
11
 40
11
 40
11
 40
12
 40
12
 40
12
 40
12
 10
8.897522453248031
 20
-6.332431102362205
 30
0
 10
8.897522453248031
 20
-6.332431102362205
 30
0
 10
8.828759381151574
 20
-6.496062992125984
 30
0
 10
8.828759381151574
 20
-6.496062992125984
 30
0
 10
8.828759381151574
 20
-6.496062992125984
 30
0
 10
7.72214874507874
 20
-6.496062992125984
 30
0
 10
7.72214874507874
 20
-6.496062992125984
 30
0
 10
7.72214874507874
 20
-6.496062992125984
 30
0
 10
7.545348640501969
 20
-6.90435454601378
 30
0
 10
7.545348640501969
 20
-6.90435454601378
 30
0
 10
7.545348640501969
 20
-6.90435454601378
 30
0
 10
8.350762795275591
 20
-6.90435454601378
 30
0
 10
8.350762795275591
 20
-6.90435454601378
 30
0
 10
8.350762795275591
 20
-6.90435454601378
 30
0
 10
8.281999723179133
 20
-7.064756859005906
 30
0
 10
8.281999723179133
 20
-7.064756859005906
 30
0
 10
8.281999723179133
 20
-7.064756859005906
 30
0
 10
7.476585568405512
 20
-7.064756859005906
 30
0
 10
7.476585568405512
 20
-7.064756859005906
 30
0
 10
7.476585568405512
 20
-7.064756859005906
 30
0
 10
7.29978546382874
 20
-7.481141578494094
 30
0
 10
7.29978546382874
 20
-7.481141578494094
 30
0
 10
7.29978546382874
 20
-7.481141578494094
 30
0
 10
8.406415323572835
 20
-7.481141578494094
 30
0
 10
8.406415323572835
 20
-7.481141578494094
 30
0
 10
8.406415323572835
 20
-7.481141578494094
 30
0
 10
8.337652251476378
 20
-7.64154389148622
 30
0
 10
8.337652251476378
 20
-7.64154389148622
 30
0
 10
8.337652251476378
 20
-7.64154389148622
 30
0
 10
6.717019869586614
 20
-7.64154389148622
 30
0
 10
6.717019869586614
 20
-7.64154389148622
 30
0
 10
6.717019869586614
 20
-7.64154389148622
 30
0
 10
7.276870847687007
 20
-6.332431102362205
 30
0
 10
7.276870847687007
 20
-6.332431102362205
 30
0
 10
7.276870847687007
 20
-6.332431102362205
 30
0
 10
8.897522453248031
 20
-6.332431102362205
 30
0
 10
8.897522453248031
 20
-6.332431102362205
 30
0
  0
SPLINE
  5
BE
100
AcDbEntity
  8
Layer 1
  6
ByLayer
 62
  256
370
   -1
100
AcDbSpline
210
0
220
0
230
0
 70
   11
 71
    3
 72
   23
 73
   19
 74
    0
 42
1e-07
 43
1e-07
 40
0
 40
0
 40
0
 40
0
 40
1
 40
1
 40
1
 40
2
 40
2
 40
2
 40
3
 40
3
 40
3
 40
4
 40
4
 40
4
 40
5
 40
5
 40
5
 40
6
 40
6
 40
6
 40
6
 10
9.797843873031496
 20
-6.332431102362205
 30
0
 10
9.797843873031496
 20
-6.332431102362205
 30
0
 10
9.306755967027559
 20
-7.481141578494094
 30
0
 10
9.306755967027559
 20
-7.481141578494094
 30
0
 10
9.306755967027559
 20
-7.481141578494094
 30
0
 10
10.47886165108268
 20
-7.481141578494094
 30
0
 10
10.47886165108268
 20
-7.481141578494094
 30
0
 10
10.47886165108268
 20
-7.481141578494094
 30
0
 10
10.41009857898622
 20
-7.64154389148622
 30
0
 10
10.41009857898622
 20
-7.64154389148622
 30
0
 10
10.41009857898622
 20
-7.64154389148622
 30
0
 10
8.73052642101378
 20
-7.64154389148622
 30
0
 10
8.73052642101378
 20
-7.64154389148622
 30
0
 10
8.73052642101378
 20
-7.64154389148622
 30
0
 10
9.290377399114172
 20
-6.332431102362205
 30
0
 10
9.290377399114172
 20
-6.332431102362205
 30
0
 10
9.290377399114172
 20
-6.332431102362205
 30
0
 10
9.797843873031496
 20
-6.332431102362205
 30
0
 10
9.797843873031496
 20
-6.332431102362205
 30
0
  0
SPLINE
  5
BF
100
AcDbEntity
  8
Layer 1
  6
ByLayer
 62
  256
370
   -1
100
AcDbSpline
210
0
220
0
230
0
 70
   11
 71
    3
 72
   26
 73
   22
 74
    0
 42
1e-07
 43
1e-07
 40
0
 40
0
 40
0
 40
0
 40
1
 40
1
 40
1
 40
2
 40
2
 40
2
 40
3
 40
3
 40
3
 40
4
 40
4
 40
4
 40
5
 40
5
 40
5
 40
6
 40
6
 40
6
 40
7
 40
7
 40
7
 40
7
 10
11.35298120693898
 20
-7.481141578494094
 30
0
 10
11.35298120693898
 20
-7.481141578494094
 30
0
 10
11.81790569635827
 20
-7.481141578494094
 30
0
 10
11.81790569635827
 20
-7.481141578494094
 30
0
 10
11.96196788877953
 20
-7.481141578494094
 30
0
 10
12.09291953740157
 20
-7.385561484990157
 30
0
 10
12.13548074557087
 20
-7.286713367372047
 30
0
 10
12.13548074557087
 20
-7.286713367372047
 30
0
 10
12.39084799458661
 20
-6.692105991633858
 30
0
 10
12.39084799458661
 20
-6.692105991633858
 30
0
 10
12.40069051427165
 20
-6.667807271161418
 30
0
 10
12.4072265625
 20
-6.643508550688976
 30
0
 10
12.4072265625
 20
-6.620824618602362
 30
0
 10
12.4072265625
 20
-6.549524021899606
 30
0
 10
12.3515548105315
 20
-6.496062992125984
 30
0
 10
12.24024975393701
 20
-6.496062992125984
 30
0
 10
12.24024975393701
 20
-6.496062992125984
 30
0
 10
11.77534448818898
 20
-6.496062992125984
 30
0
 10
11.77534448818898
 20
-6.496062992125984
 30
0
 10
11.77534448818898
 20
-6.496062992125984
 30
0
 10
11.35298120693898
 20
-7.481141578494094
 30
0
 10
11.35298120693898
 20
-7.481141578494094
 30
0
  0
SPLINE
  5
C0
100
AcDbEntity
  8
Layer 1
  6
ByLayer
 62
  256
370
   -1
100
AcDbSpline
210
0
220
0
230
0
 70
   11
 71
    3
 72
   26
 73
   22
 74
    0
 42
1e-07
 43
1e-07
 40
0
 40
0
 40
0
 40
0
 40
1
 40
1
 40
1
 40
2
 40
2
 40
2
 40
3
 40
3
 40
3
 40
4
 40
4
 40
4
 40
5
 40
5
 40
5
 40
6
 40
6
 40
6
 40
7
 40
7
 40
7
 40
7
 10
12.52506766732284
 20
-6.332431102362205
 30
0
 10
12.76082677165354
 20
-6.332431102362205
 30
0
 10
12.89831446850394
 20
-6.432874784694881
 30
0
 10
12.89831446850394
 20
-6.57707154281496
 30
0
 10
12.89831446850394
 20
-6.612712229330708
 30
0
 10
12.88851039616142
 20
-6.65160171628937
 30
0
 10
12.87213182824803
 20
-6.692105991633858
 30
0
 10
12.87213182824803
 20
-6.692105991633858
 30
0
 10
12.61676457923228
 20
-7.286713367372047
 30
0
 10
12.61676457923228
 20
-7.286713367372047
 30
0
 10
12.5316421628937
 20
-7.484390378937007
 30
0
 10
12.26643239419291
 20
-7.64154389148622
 30
0
 10
11.9652359128937
 20
-7.64154389148622
 30
0
 10
11.9652359128937
 20
-7.64154389148622
 30
0
 10
10.7767516609252
 20
-7.64154389148622
 30
0
 10
10.7767516609252
 20
-7.64154389148622
 30
0
 10
10.7767516609252
 20
-7.64154389148622
 30
0
 10
11.33660263902559
 20
-6.332431102362205
 30
0
 10
11.33660263902559
 20
-6.332431102362205
 30
0
 10
11.33660263902559
 20
-6.332431102362205
 30
0
 10
12.52506766732284
 20
-6.332431102362205
 30
0
 10
12.52506766732284
 20
-6.332431102362205
 30
0
  0
SPLINE
  5
C1
100
AcDbEntity
  8
Layer 1
  6
ByLayer
 62
  256
370
   -1
100
AcDbSpline
210
0
220
0
230
0
 70
   11
 71
    3
 72
   41
 73
   37
 74
    0
 42
1e-07
 43
1e-07
 40
0
 40
0
 40
0
 40
0
 40
1
 40
1
 40
1
 40
2
 40
2
 40
2
 40
3
 40
3
 40
3
 40
4
 40
4
 40
4
 40
5
 40
5
 40
5
 40
6
 40
6
 40
6
 40
7
 40
7
 40
7
 40
8
 40
8
 40
8
 40
9
 40
9
 40
9
 40
10
 40
10
 40
10
 40
11
 40
11
 40
11
 40
12
 40
12
 40
12
 40
12
 10
15.03621739665354
 20
-6.332431102362205
 30
0
 10
15.03621739665354
 20
-6.332431102362205
 30
0
 10
14.96747354822835
 20
-6.496062992125984
 30
0
 10
14.96747354822835
 20
-6.496062992125984
 30
0
 10
14.96747354822835
 20
-6.496062992125984
 30
0
 10
14.41417784202756
 20
-6.496062992125984
 30
0
 10
14.41417784202756
 20
-6.496062992125984
 30
0
 10
14.41417784202756
 20
-6.496062992125984
 30
0
 10
13.99183378444882
 20
-7.481141578494094
 30
0
 10
13.99183378444882
 20
-7.481141578494094
 30
0
 10
13.99183378444882
 20
-7.481141578494094
 30
0
 10
14.54512949064961
 20
-7.481141578494094
 30
0
 10
14.54512949064961
 20
-7.481141578494094
 30
0
 10
14.54512949064961
 20
-7.481141578494094
 30
0
 10
14.47638564222441
 20
-7.64154389148622
 30
0
 10
14.47638564222441
 20
-7.64154389148622
 30
0
 10
14.47638564222441
 20
-7.64154389148622
 30
0
 10
12.85244678887795
 20
-7.64154389148622
 30
0
 10
12.85244678887795
 20
-7.64154389148622
 30
0
 10
12.85244678887795
 20
-7.64154389148622
 30
0
 10
12.92119063730315
 20
-7.481141578494094
 30
0
 10
12.92119063730315
 20
-7.481141578494094
 30
0
 10
12.92119063730315
 20
-7.481141578494094
 30
0
 10
13.4810608390748
 20
-7.481141578494094
 30
0
 10
13.4810608390748
 20
-7.481141578494094
 30
0
 10
13.4810608390748
 20
-7.481141578494094
 30
0
 10
13.90340489665354
 20
-6.496062992125984
 30
0
 10
13.90340489665354
 20
-6.496062992125984
 30
0
 10
13.90340489665354
 20
-6.496062992125984
 30
0
 10
13.34357314222441
 20
-6.496062992125984
 30
0
 10
13.34357314222441
 20
-6.496062992125984
 30
0
 10
13.34357314222441
 20
-6.496062992125984
 30
0
 10
13.41231699064961
 20
-6.332431102362205
 30
0
 10
13.41231699064961
 20
-6.332431102362205
 30
0
 10
13.41231699064961
 20
-6.332431102362205
 30
0
 10
15.03621739665354
 20
-6.332431102362205
 30
0
 10
15.03621739665354
 20
-6.332431102362205
 30
0
  0
SPLINE
  5
C2
100
AcDbEntity
  8
Layer 1
  6
ByLayer
 62
  256
370
   -1
100
AcDbSpline
210
0
220
0
230
0
 70
   11
 71
    3
 72
   35
 73
   31
 74
    0
 42
1e-07
 43
1e-07
 40
0
 40
0
 40
0
 40
0
 40
1
 40
1
 40
1
 40
2
 40
2
 40
2
 40
3
 40
3
 40
3
 40
4
 40
4
 40
4
 40
5
 40
5
 40
5
 40
6
 40
6
 40
6
 40
7
 40
7
 40
7
 40
8
 40
8
 40
8
 40
9
 40
9
 40
9
 40
10
 40
10
 40
10
 40
10
 10
15.92346671998031
 20
-6.332431102362205
 30
0
 10
15.92346671998031
 20
-6.332431102362205
 30
0
 10
16.29998154527559
 20
-7.317509688730315
 30
0
 10
16.29998154527559
 20
-7.317509688730315
 30
0
 10
16.29998154527559
 20
-7.317509688730315
 30
0
 10
16.72232560285433
 20
-6.332431102362205
 30
0
 10
16.72232560285433
 20
-6.332431102362205
 30
0
 10
16.72232560285433
 20
-6.332431102362205
 30
0
 10
17.12175504429134
 20
-6.332431102362205
 30
0
 10
17.12175504429134
 20
-6.332431102362205
 30
0
 10
17.12175504429134
 20
-6.332431102362205
 30
0
 10
16.5619232898622
 20
-7.64154389148622
 30
0
 10
16.5619232898622
 20
-7.64154389148622
 30
0
 10
16.5619232898622
 20
-7.64154389148622
 30
0
 10
15.98894254429133
 20
-7.64154389148622
 30
0
 10
15.98894254429133
 20
-7.64154389148622
 30
0
 10
15.98894254429133
 20
-7.64154389148622
 30
0
 10
15.63207431102362
 20
-6.763406588336614
 30
0
 10
15.63207431102362
 20
-6.763406588336614
 30
0
 10
15.63207431102362
 20
-6.763406588336614
 30
0
 10
15.25555948572835
 20
-7.64154389148622
 30
0
 10
15.25555948572835
 20
-7.64154389148622
 30
0
 10
15.25555948572835
 20
-7.64154389148622
 30
0
 10
14.85939806840551
 20
-7.64154389148622
 30
0
 10
14.85939806840551
 20
-7.64154389148622
 30
0
 10
14.85939806840551
 20
-7.64154389148622
 30
0
 10
15.41926827017716
 20
-6.332431102362205
 30
0
 10
15.41926827017716
 20
-6.332431102362205
 30
0
 10
15.41926827017716
 20
-6.332431102362205
 30
0
 10
15.92346671998031
 20
-6.332431102362205
 30
0
 10
15.92346671998031
 20
-6.332431102362205
 30
0
  0
SPLINE
  5
C3
100
AcDbEntity
  8
Layer 1
  6
ByLayer
 62
  256
370
   -1
100
AcDbSpline
210
0
220
0
230
0
 70
   11
 71
    3
 72
   59
 73
   55
 74
    0
 42
1e-07
 43
1e-07
 40
0
 40
0
 40
0
 40
0
 40
1
 40
1
 40
1
 40
2
 40
2
 40
2
 40
3
 40
3
 40
3
 40
4
 40
4
 40
4
 40
5
 40
5
 40
5
 40
6
 40
6
 40
6
 40
7
 40
7
 40
7
 40
8
 40
8
 40
8
 40
9
 40
9
 40
9
 40
10
 40
10
 40
10
 40
11
 40
11
 40
11
 40
12
 40
12
 40
12
 40
13
 40
13
 40
13
 40
14
 40
14
 40
14
 40
15
 40
15
 40
15
 40
16
 40
16
 40
16
 40
17
 40
17
 40
17
 40
18
 40
18
 40
18
 40
18
 10
19.0992172121063
 20
-6.332431102362205
 30
0
 10
19.0992172121063
 20
-6.332431102362205
 30
0
 10
19.0304733636811
 20
-6.496062992125984
 30
0
 10
19.0304733636811
 20
-6.496062992125984
 30
0
 10
19.0304733636811
 20
-6.496062992125984
 30
0
 10
18.13991756889763
 20
-6.496062992125984
 30
0
 10
18.13991756889763
 20
-6.496062992125984
 30
0
 10
18.00242987204724
 20
-6.496062992125984
 30
0
 10
17.86490372785433
 20
-6.586798720472441
 30
0
 10
17.81907449557087
 20
-6.692105991633858
 30
0
 10
17.81907449557087
 20
-6.692105991633858
 30
0
 10
17.56370724655512
 20
-7.286713367372047
 30
0
 10
17.56370724655512
 20
-7.286713367372047
 30
0
 10
17.55386472687008
 20
-7.309397299458661
 30
0
 10
17.5505967027559
 20
-7.330466443159449
 30
0
 10
17.5505967027559
 20
-7.349901574803149
 30
0
 10
17.5505967027559
 20
-7.422816959891732
 30
0
 10
17.6062684547244
 20
-7.481141578494094
 30
0
 10
17.7175735113189
 20
-7.481141578494094
 30
0
 10
17.7175735113189
 20
-7.481141578494094
 30
0
 10
18.17921075295276
 20
-7.481141578494094
 30
0
 10
18.17921075295276
 20
-7.481141578494094
 30
0
 10
18.17921075295276
 20
-7.481141578494094
 30
0
 10
18.35603008120078
 20
-7.064756859005906
 30
0
 10
18.35603008120078
 20
-7.064756859005906
 30
0
 10
18.35603008120078
 20
-7.064756859005906
 30
0
 10
17.91730745570866
 20
-7.064756859005906
 30
0
 10
17.91730745570866
 20
-7.064756859005906
 30
0
 10
17.91730745570866
 20
-7.064756859005906
 30
0
 10
17.98605130413386
 20
-6.902739757627953
 30
0
 10
17.98605130413386
 20
-6.902739757627953
 30
0
 10
17.98605130413386
 20
-6.902739757627953
 30
0
 10
18.89294721948819
 20
-6.902739757627953
 30
0
 10
18.89294721948819
 20
-6.902739757627953
 30
0
 10
18.89294721948819
 20
-6.902739757627953
 30
0
 10
18.57864019438976
 20
-7.64154389148622
 30
0
 10
18.57864019438976
 20
-7.64154389148622
 30
0
 10
18.57864019438976
 20
-7.64154389148622
 30
0
 10
17.43602362204724
 20
-7.64154389148622
 30
0
 10
17.43602362204724
 20
-7.64154389148622
 30
0
 10
17.19046044537401
 20
-7.64154389148622
 30
0
 10
17.0562407726378
 20
-7.541100209153544
 30
0
 10
17.0562407726378
 20
-7.400133027805118
 30
0
 10
17.0562407726378
 20
-7.36449234128937
 30
0
 10
17.06604484498031
 20
-7.327217642716535
 30
0
 10
17.0824234128937
 20
-7.286713367372047
 30
0
 10
17.0824234128937
 20
-7.286713367372047
 30
0
 10
17.33779066190944
 20
-6.692105991633858
 30
0
 10
17.33779066190944
 20
-6.692105991633858
 30
0
 10
17.4261811023622
 20
-6.487969826525591
 30
0
 10
17.69792691929133
 20
-6.332431102362205
 30
0
 10
17.99585537647638
 20
-6.332431102362205
 30
0
 10
17.99585537647638
 20
-6.332431102362205
 30
0
 10
19.0992172121063
 20
-6.332431102362205
 30
0
 10
19.0992172121063
 20
-6.332431102362205
 30
0
  0
ENDBLK
  5
6C
330
6A
100
AcDbEntity
  8
0
100
AcDbBlockEnd
  0
BLOCK
  5
6E
330
6D
100
AcDbEntity
  8
0
100
AcDbBlockBegin
  2
Cannonball Text (for ball)-1
 70
    0
 10
0
 20
0
  3
Cannonball Text (for ball)-1
  1

  0
INSERT
  5
C4
100
AcDbEntity
  8
Layer 1
  6
ByLayer
 62
  256
370
   -1
100
AcDbBlockReference
  2
Block_0-1
 10
0
 20
0
 30
0
 41
1
 42
1
 43
0
 50
0
 70
    1
 71
    1
 44
0
 45
0
  0
INSERT
  5
C5
100
AcDbEntity
  8
Layer 1
  6
ByLayer
 62
  256
370
   -1
100
AcDbBlockReference
  2
Block_2-1
 10
0
 20
0
 30
0
 41
1
 42
1
 43
0
 50
0
 70
    1
 71
    1
 44
0
 45
0
  0
ENDBLK
  5
6F
330
6D
100
AcDbEntity
  8
0
100
AcDbBlockEnd
  0
BLOCK
  5
71
330
70
100
AcDbEntity
  8
0
100
AcDbBlockBegin
  2
Block_0-1
 70
    0
 10
0
 20
0
  3
Block_0-1
  1

  0
INSERT
  5
C6
100
AcDbEntity
  8
Layer 1
  6
ByLayer
 62
  256
370
   -1
100
AcDbBlockReference
  2
Block_1-1
 10
0
 20
0
 30
0
 41
1
 42
1
 43
0
 50
0
 70
    1
 71
    1
 44
0
 45
0
  0
ENDBLK
  5
72
330
70
100
AcDbEntity
  8
0
100
AcDbBlockEnd
  0
BLOCK
  5
74
330
73
100
AcDbEntity
  8
0
100
AcDbBlockBegin
  2
Block_1-1
 70
    0
 10
0
 20
0
  3
Block_1-1
  1

  0
SPLINE
  5
C7
100
AcDbEntity
  8
Layer 1
  6
ByLayer
 62
  256
370
   -1
100
AcDbSpline
210
0
220
0
230
0
 70
   11
 71
    3
 72
   47
 73
   43
 74
    0
 42
1e-07
 43
1e-07
 40
0
 40
0
 40
0
 40
0
 40
1
 40
1
 40
1
 40
2
 40
2
 40
2
 40
3
 40
3
 40
3
 40
4
 40
4
 40
4
 40
5
 40
5
 40
5
 40
6
 40
6
 40
6
 40
7
 40
7
 40
7
 40
8
 40
8
 40
8
 40
9
 40
9
 40
9
 40
10
 40
10
 40
10
 40
11
 40
11
 40
11
 40
12
 40
12
 40
12
 40
13
 40
13
 40
13
 40
14
 40
14
 40
14
 40
14
 10
4.370405542568897
 20
-3.408856729822835
 30
0
 10
4.370405542568897
 20
-3.408856729822835
 30
0
 10
4.30783249261811
 20
-3.713148222194882
 30
0
 10
4.30783249261811
 20
-3.713148222194882
 30
0
 10
4.30783249261811
 20
-3.713148222194882
 30
0
 10
3.535944420521654
 20
-3.713148222194882
 30
0
 10
3.535944420521654
 20
-3.713148222194882
 30
0
 10
3.404800535187008
 20
-3.713148222194882
 30
0
 10
3.285594549704725
 20
-3.88185516117126
 30
0
 10
3.243879183070866
 20
-4.077686700295276
 30
0
 10
3.243879183070866
 20
-4.077686700295276
 30
0
 10
3.01140732652559
 20
-5.183355376476378
 30
0
 10
3.01140732652559
 20
-5.183355376476378
 30
0
 10
3.002468319389764
 20
-5.225532111220472
 30
0
 10
2.996508981299213
 20
-5.267708845964567
 30
0
 10
2.996508981299213
 20
-5.306867464320866
 30
0
 10
2.996508981299213
 20
-5.43943390132874
 30
0
 10
3.047182578740157
 20
-5.544875738188976
 30
0
 10
3.151490218996063
 20
-5.544875738188976
 30
0
 10
3.151490218996063
 20
-5.544875738188976
 30
0
 10
3.92337829109252
 20
-5.544875738188976
 30
0
 10
3.92337829109252
 20
-5.544875738188976
 30
0
 10
3.92337829109252
 20
-5.544875738188976
 30
0
 10
3.860786017470472
 20
-5.843130997785433
 30
0
 10
3.860786017470472
 20
-5.843130997785433
 30
0
 10
3.860786017470472
 20
-5.843130997785433
 30
0
 10
2.889221671998031
 20
-5.843130997785433
 30
0
 10
2.889221671998031
 20
-5.843130997785433
 30
0
 10
2.668687715305118
 20
-5.843130997785433
 30
0
 10
2.546482837106299
 20
-5.656334584153544
 30
0
 10
2.546482837106299
 20
-5.391220933809055
 30
0
 10
2.546482837106299
 20
-5.327955831692913
 30
0
 10
2.555421844242126
 20
-5.255655604084645
 30
0
 10
2.570339413139764
 20
-5.183355376476378
 30
0
 10
2.570339413139764
 20
-5.183355376476378
 30
0
 10
2.80279204601378
 20
-4.077686700295276
 30
0
 10
2.80279204601378
 20
-4.077686700295276
 30
0
 10
2.88326233390748
 20
-3.698076863927166
 30
0
 10
3.127633642962599
 20
-3.408856729822835
 30
0
 10
3.398841197096456
 20
-3.408856729822835
 30
0
 10
3.398841197096456
 20
-3.408856729822835
 30
0
 10
4.370405542568897
 20
-3.408856729822835
 30
0
 10
4.370405542568897
 20
-3.408856729822835
 30
0
  0
SPLINE
  5
C8
100
AcDbEntity
  8
Layer 1
  6
ByLayer
 62
  256
370
   -1
100
AcDbSpline
210
0
220
0
230
0
 70
   11
 71
    3
 72
   17
 73
   13
 74
    0
 42
1e-07
 43
1e-07
 40
0
 40
0
 40
0
 40
0
 40
1
 40
1
 40
1
 40
2
 40
2
 40
2
 40
3
 40
3
 40
3
 40
4
 40
4
 40
4
 40
4
 10
4.979661355807086
 20
-5.029700572096456
 30
0
 10
4.979661355807086
 20
-5.029700572096456
 30
0
 10
5.420748492864173
 20
-5.029700572096456
 30
0
 10
5.420748492864173
 20
-5.029700572096456
 30
0
 10
5.420748492864173
 20
-5.029700572096456
 30
0
 10
5.501218780757874
 20
-3.713148222194882
 30
0
 10
5.501218780757874
 20
-3.713148222194882
 30
0
 10
5.501218780757874
 20
-3.713148222194882
 30
0
 10
5.453524852362205
 20
-3.713148222194882
 30
0
 10
5.453524852362205
 20
-3.713148222194882
 30
0
 10
5.453524852362205
 20
-3.713148222194882
 30
0
 10
4.979661355807086
 20
-5.029700572096456
 30
0
 10
4.979661355807086
 20
-5.029700572096456
 30
0
  0
SPLINE
  5
C9
100
AcDbEntity
  8
Layer 1
  6
ByLayer
 62
  256
370
   -1
100
AcDbSpline
210
0
220
0
230
0
 70
   11
 71
    3
 72
   29
 73
   25
 74
    0
 42
1e-07
 43
1e-07
 40
0
 40
0
 40
0
 40
0
 40
1
 40
1
 40
1
 40
2
 40
2
 40
2
 40
3
 40
3
 40
3
 40
4
 40
4
 40
4
 40
5
 40
5
 40
5
 40
6
 40
6
 40
6
 40
7
 40
7
 40
7
 40
8
 40
8
 40
8
 40
8
 10
5.399871585875984
 20
-5.333992064468504
 30
0
 10
5.399871585875984
 20
-5.333992064468504
 30
0
 10
4.86939437746063
 20
-5.333992064468504
 30
0
 10
4.86939437746063
 20
-5.333992064468504
 30
0
 10
4.86939437746063
 20
-5.333992064468504
 30
0
 10
4.69355545644685
 20
-5.843130997785433
 30
0
 10
4.69355545644685
 20
-5.843130997785433
 30
0
 10
4.69355545644685
 20
-5.843130997785433
 30
0
 10
4.228630967027559
 20
-5.843130997785433
 30
0
 10
4.228630967027559
 20
-5.843130997785433
 30
0
 10
4.228630967027559
 20
-5.843130997785433
 30
0
 10
5.235970564714567
 20
-3.408856729822835
 30
0
 10
5.235970564714567
 20
-3.408856729822835
 30
0
 10
5.235970564714567
 20
-3.408856729822835
 30
0
 10
5.834999384842519
 20
-3.408856729822835
 30
0
 10
5.834999384842519
 20
-3.408856729822835
 30
0
 10
5.834999384842519
 20
-3.408856729822835
 30
0
 10
5.834999384842519
 20
-5.843130997785433
 30
0
 10
5.834999384842519
 20
-5.843130997785433
 30
0
 10
5.834999384842519
 20
-5.843130997785433
 30
0
 10
5.373054564468504
 20
-5.843130997785433
 30
0
 10
5.373054564468504
 20
-5.843130997785433
 30
0
 10
5.373054564468504
 20
-5.843130997785433
 30
0
 10
5.399871585875984
 20
-5.333992064468504
 30
0
 10
5.399871585875984
 20
-5.333992064468504
 30
0
  0
SPLINE
  5
CA
100
AcDbEntity
  8
Layer 1
  6
ByLayer
 62
  256
370
   -1
100
AcDbSpline
210
0
220
0
230
0
 70
   11
 71
    3
 72
   35
 73
   31
 74
    0
 42
1e-07
 43
1e-07
 40
0
 40
0
 40
0
 40
0
 40
1
 40
1
 40
1
 40
2
 40
2
 40
2
 40
3
 40
3
 40
3
 40
4
 40
4
 40
4
 40
5
 40
5
 40
5
 40
6
 40
6
 40
6
 40
7
 40
7
 40
7
 40
8
 40
8
 40
8
 40
9
 40
9
 40
9
 40
10
 40
10
 40
10
 40
10
 10
7.108875184547244
 20
-3.408856729822835
 30
0
 10
7.108875184547244
 20
-3.408856729822835
 30
0
 10
7.451594795767717
 20
-5.240584245816929
 30
0
 10
7.451594795767717
 20
-5.240584245816929
 30
0
 10
7.451594795767717
 20
-5.240584245816929
 30
0
 10
7.836048997293307
 20
-3.408856729822835
 30
0
 10
7.836048997293307
 20
-3.408856729822835
 30
0
 10
7.836048997293307
 20
-3.408856729822835
 30
0
 10
8.199645515501969
 20
-3.408856729822835
 30
0
 10
8.199645515501969
 20
-3.408856729822835
 30
0
 10
8.199645515501969
 20
-3.408856729822835
 30
0
 10
7.690025990403544
 20
-5.843130997785433
 30
0
 10
7.690025990403544
 20
-5.843130997785433
 30
0
 10
7.690025990403544
 20
-5.843130997785433
 30
0
 10
7.168468565452756
 20
-5.843130997785433
 30
0
 10
7.168468565452756
 20
-5.843130997785433
 30
0
 10
7.168468565452756
 20
-5.843130997785433
 30
0
 10
6.843626968503937
 20
-4.21023391363189
 30
0
 10
6.843626968503937
 20
-4.21023391363189
 30
0
 10
6.843626968503937
 20
-4.21023391363189
 30
0
 10
6.500888133612205
 20
-5.843130997785433
 30
0
 10
6.500888133612205
 20
-5.843130997785433
 30
0
 10
6.500888133612205
 20
-5.843130997785433
 30
0
 10
6.140271284448819
 20
-5.843130997785433
 30
0
 10
6.140271284448819
 20
-5.843130997785433
 30
0
 10
6.140271284448819
 20
-5.843130997785433
 30
0
 10
6.649910033218504
 20
-3.408856729822835
 30
0
 10
6.649910033218504
 20
-3.408856729822835
 30
0
 10
6.649910033218504
 20
-3.408856729822835
 30
0
 10
7.108875184547244
 20
-3.408856729822835
 30
0
 10
7.108875184547244
 20
-3.408856729822835
 30
0
  0
SPLINE
  5
CB
100
AcDbEntity
  8
Layer 1
  6
ByLayer
 62
  256
370
   -1
100
AcDbSpline
210
0
220
0
230
0
 70
   11
 71
    3
 72
   35
 73
   31
 74
    0
 42
1e-07
 43
1e-07
 40
0
 40
0
 40
0
 40
0
 40
1
 40
1
 40
1
 40
2
 40
2
 40
2
 40
3
 40
3
 40
3
 40
4
 40
4
 40
4
 40
5
 40
5
 40
5
 40
6
 40
6
 40
6
 40
7
 40
7
 40
7
 40
8
 40
8
 40
8
 40
9
 40
9
 40
9
 40
10
 40
10
 40
10
 40
10
 10
8.993679256889763
 20
-3.408856729822835
 30
0
 10
8.993679256889763
 20
-3.408856729822835
 30
0
 10
9.336398868110235
 20
-5.240584245816929
 30
0
 10
9.336398868110235
 20
-5.240584245816929
 30
0
 10
9.336398868110235
 20
-5.240584245816929
 30
0
 10
9.720853069635826
 20
-3.408856729822835
 30
0
 10
9.720853069635826
 20
-3.408856729822835
 30
0
 10
9.720853069635826
 20
-3.408856729822835
 30
0
 10
10.08446881151575
 20
-3.408856729822835
 30
0
 10
10.08446881151575
 20
-3.408856729822835
 30
0
 10
10.08446881151575
 20
-3.408856729822835
 30
0
 10
9.574830062746063
 20
-5.843130997785433
 30
0
 10
9.574830062746063
 20
-5.843130997785433
 30
0
 10
9.574830062746063
 20
-5.843130997785433
 30
0
 10
9.053272637795276
 20
-5.843130997785433
 30
0
 10
9.053272637795276
 20
-5.843130997785433
 30
0
 10
9.053272637795276
 20
-5.843130997785433
 30
0
 10
8.728431040846457
 20
-4.21023391363189
 30
0
 10
8.728431040846457
 20
-4.21023391363189
 30
0
 10
8.728431040846457
 20
-4.21023391363189
 30
0
 10
8.385692205954724
 20
-5.843130997785433
 30
0
 10
8.385692205954724
 20
-5.843130997785433
 30
0
 10
8.385692205954724
 20
-5.843130997785433
 30
0
 10
8.025075356791339
 20
-5.843130997785433
 30
0
 10
8.025075356791339
 20
-5.843130997785433
 30
0
 10
8.025075356791339
 20
-5.843130997785433
 30
0
 10
8.534714105561024
 20
-3.408856729822835
 30
0
 10
8.534714105561024
 20
-3.408856729822835
 30
0
 10
8.534714105561024
 20
-3.408856729822835
 30
0
 10
8.993679256889763
 20
-3.408856729822835
 30
0
 10
8.993679256889763
 20
-3.408856729822835
 30
0
  0
SPLINE
  5
CC
100
AcDbEntity
  8
Layer 1
  6
ByLayer
 62
  256
370
   -1
100
AcDbSpline
210
0
220
0
230
0
 70
   11
 71
    3
 72
   35
 73
   31
 74
    0
 42
1e-07
 43
1e-07
 40
0
 40
0
 40
0
 40
0
 40
1
 40
1
 40
1
 40
2
 40
2
 40
2
 40
3
 40
3
 40
3
 40
4
 40
4
 40
4
 40
5
 40
5
 40
5
 40
6
 40
6
 40
6
 40
7
 40
7
 40
7
 40
8
 40
8
 40
8
 40
9
 40
9
 40
9
 40
10
 40
10
 40
10
 40
10
 10
10.4761703371063
 20
-5.183355376476378
 30
0
 10
10.46721210629921
 20
-5.225532111220472
 30
0
 10
10.46125276820866
 20
-5.267708845964567
 30
0
 10
10.46125276820866
 20
-5.306867464320866
 30
0
 10
10.46125276820866
 20
-5.43943390132874
 30
0
 10
10.51192636564961
 20
-5.544875738188976
 30
0
 10
10.61623400590551
 20
-5.544875738188976
 30
0
 10
10.61623400590551
 20
-5.544875738188976
 30
0
 10
10.88444266732284
 20
-5.544875738188976
 30
0
 10
10.88444266732284
 20
-5.544875738188976
 30
0
 10
11.01858544537401
 20
-5.544875738188976
 30
0
 10
11.13481176181102
 20
-5.373150682824803
 30
0
 10
11.17352823572835
 20
-5.183355376476378
 30
0
 10
11.17352823572835
 20
-5.183355376476378
 30
0
 10
11.40601931594488
 20
-4.077686700295276
 30
0
 10
11.40601931594488
 20
-4.077686700295276
 30
0
 10
11.41493909940945
 20
-4.032491849163386
 30
0
 10
11.4208984375
 20
-3.987296998031496
 30
0
 10
11.4208984375
 20
-3.945120263287401
 30
0
 10
11.4208984375
 20
-3.809554933562992
 30
0
 10
11.37022484005906
 20
-3.713148222194882
 30
0
 10
11.26891609251969
 20
-3.713148222194882
 30
0
 10
11.26891609251969
 20
-3.713148222194882
 30
0
 10
11.00066898375984
 20
-3.713148222194882
 30
0
 10
11.00066898375984
 20
-3.713148222194882
 30
0
 10
10.86956354576772
 20
-3.713148222194882
 30
0
 10
10.75033833661417
 20
-3.88185516117126
 30
0
 10
10.70862296998031
 20
-4.077686700295276
 30
0
 10
10.70862296998031
 20
-4.077686700295276
 30
0
 10
10.4761703371063
 20
-5.183355376476378
 30
0
 10
10.4761703371063
 20
-5.183355376476378
 30
0
  0
SPLINE
  5
CD
100
AcDbEntity
  8
Layer 1
  6
ByLayer
 62
  256
370
   -1
100
AcDbSpline
210
0
220
0
230
0
 70
   11
 71
    3
 72
   35
 73
   31
 74
    0
 42
1e-07
 43
1e-07
 40
0
 40
0
 40
0
 40
0
 40
1
 40
1
 40
1
 40
2
 40
2
 40
2
 40
3
 40
3
 40
3
 40
4
 40
4
 40
4
 40
5
 40
5
 40
5
 40
6
 40
6
 40
6
 40
7
 40
7
 40
7
 40
8
 40
8
 40
8
 40
9
 40
9
 40
9
 40
10
 40
10
 40
10
 40
10
 10
11.52820497047244
 20
-3.408856729822835
 30
0
 10
11.74873892716535
 20
-3.408856729822835
 30
0
 10
11.87392347440945
 20
-3.595653143454724
 30
0
 10
11.87392347440945
 20
-3.863784910187008
 30
0
 10
11.87392347440945
 20
-3.930068128690945
 30
0
 10
11.86496524360236
 20
-4.002368356299213
 30
0
 10
11.85004767470472
 20
-4.077686700295276
 30
0
 10
11.85004767470472
 20
-4.077686700295276
 30
0
 10
11.61759504183071
 20
-5.183355376476378
 30
0
 10
11.61759504183071
 20
-5.183355376476378
 30
0
 10
11.54012364665354
 20
-5.544875738188976
 30
0
 10
11.30171167568898
 20
-5.843130997785433
 30
0
 10
11.01858544537401
 20
-5.843130997785433
 30
0
 10
11.01858544537401
 20
-5.843130997785433
 30
0
 10
10.35694512795276
 20
-5.843130997785433
 30
0
 10
10.35694512795276
 20
-5.843130997785433
 30
0
 10
10.13341227854331
 20
-5.843130997785433
 30
0
 10
10.00826617864173
 20
-5.653335691437007
 30
0
 10
10.00826617864173
 20
-5.38820281742126
 30
0
 10
10.00826617864173
 20
-5.324937715305118
 30
0
 10
10.0171859621063
 20
-5.255655604084645
 30
0
 10
10.03210353100394
 20
-5.183355376476378
 30
0
 10
10.03210353100394
 20
-5.183355376476378
 30
0
 10
10.26455616387795
 20
-4.077686700295276
 30
0
 10
10.26455616387795
 20
-4.077686700295276
 30
0
 10
10.34206600639764
 20
-3.70109498031496
 30
0
 10
10.58939776082677
 20
-3.408856729822835
 30
0
 10
10.86656465305118
 20
-3.408856729822835
 30
0
 10
10.86656465305118
 20
-3.408856729822835
 30
0
 10
11.52820497047244
 20
-3.408856729822835
 30
0
 10
11.52820497047244
 20
-3.408856729822835
 30
0
  0
SPLINE
  5
CE
100
AcDbEntity
  8
Layer 1
  6
ByLayer
 62
  256
370
   -1
100
AcDbSpline
210
0
220
0
230
0
 70
   11
 71
    3
 72
   35
 73
   31
 74
    0
 42
1e-07
 43
1e-07
 40
0
 40
0
 40
0
 40
0
 40
1
 40
1
 40
1
 40
2
 40
2
 40
2
 40
3
 40
3
 40
3
 40
4
 40
4
 40
4
 40
5
 40
5
 40
5
 40
6
 40
6
 40
6
 40
7
 40
7
 40
7
 40
8
 40
8
 40
8
 40
9
 40
9
 40
9
 40
10
 40
10
 40
10
 40
10
 10
12.7632874015748
 20
-3.408856729822835
 30
0
 10
12.7632874015748
 20
-3.408856729822835
 30
0
 10
13.10604546013779
 20
-5.240584245816929
 30
0
 10
13.10604546013779
 20
-5.240584245816929
 30
0
 10
13.10604546013779
 20
-5.240584245816929
 30
0
 10
13.49048043799213
 20
-3.408856729822835
 30
0
 10
13.49048043799213
 20
-3.408856729822835
 30
0
 10
13.49048043799213
 20
-3.408856729822835
 30
0
 10
13.85407695620079
 20
-3.408856729822835
 30
0
 10
13.85407695620079
 20
-3.408856729822835
 30
0
 10
13.85407695620079
 20
-3.408856729822835
 30
0
 10
13.34445743110236
 20
-5.843130997785433
 30
0
 10
13.34445743110236
 20
-5.843130997785433
 30
0
 10
13.34445743110236
 20
-5.843130997785433
 30
0
 10
12.82291922982284
 20
-5.843130997785433
 30
0
 10
12.82291922982284
 20
-5.843130997785433
 30
0
 10
12.82291922982284
 20
-5.843130997785433
 30
0
 10
12.4980391855315
 20
-4.21023391363189
 30
0
 10
12.4980391855315
 20
-4.21023391363189
 30
0
 10
12.4980391855315
 20
-4.21023391363189
 30
0
 10
12.15531957431102
 20
-5.843130997785433
 30
0
 10
12.15531957431102
 20
-5.843130997785433
 30
0
 10
12.15531957431102
 20
-5.843130997785433
 30
0
 10
11.7947219488189
 20
-5.843130997785433
 30
0
 10
11.7947219488189
 20
-5.843130997785433
 30
0
 10
11.7947219488189
 20
-5.843130997785433
 30
0
 10
12.30434147391732
 20
-3.408856729822835
 30
0
 10
12.30434147391732
 20
-3.408856729822835
 30
0
 10
12.30434147391732
 20
-3.408856729822835
 30
0
 10
12.7632874015748
 20
-3.408856729822835
 30
0
 10
12.7632874015748
 20
-3.408856729822835
 30
0
  0
SPLINE
  5
CF
100
AcDbEntity
  8
Layer 1
  6
ByLayer
 62
  256
370
   -1
100
AcDbSpline
210
0
220
0
230
0
 70
   11
 71
    3
 72
   20
 73
   16
 74
    0
 42
1e-07
 43
1e-07
 40
0
 40
0
 40
0
 40
0
 40
1
 40
1
 40
1
 40
2
 40
2
 40
2
 40
3
 40
3
 40
3
 40
4
 40
4
 40
4
 40
5
 40
5
 40
5
 40
5
 10
14.41863773375984
 20
-4.454278420275591
 30
0
 10
14.41863773375984
 20
-4.454278420275591
 30
0
 10
14.83882874015748
 20
-4.454278420275591
 30
0
 10
14.83882874015748
 20
-4.454278420275591
 30
0
 10
14.98189130167323
 20
-4.454278420275591
 30
0
 10
15.14579232283465
 20
-4.26146499753937
 30
0
 10
15.14579232283465
 20
-3.92101377952756
 30
0
 10
15.14579232283465
 20
-3.788466566190945
 30
0
 10
15.09515717273622
 20
-3.713148222194882
 30
0
 10
14.99680887057087
 20
-3.713148222194882
 30
0
 10
14.99680887057087
 20
-3.713148222194882
 30
0
 10
14.57657941683071
 20
-3.713148222194882
 30
0
 10
14.57657941683071
 20
-3.713148222194882
 30
0
 10
14.57657941683071
 20
-3.713148222194882
 30
0
 10
14.41863773375984
 20
-4.454278420275591
 30
0
 10
14.41863773375984
 20
-4.454278420275591
 30
0
  0
SPLINE
  5
D0
100
AcDbEntity
  8
Layer 1
  6
ByLayer
 62
  256
370
   -1
100
AcDbSpline
210
0
220
0
230
0
 70
   11
 71
    3
 72
   20
 73
   16
 74
    0
 42
1e-07
 43
1e-07
 40
0
 40
0
 40
0
 40
0
 40
1
 40
1
 40
1
 40
2
 40
2
 40
2
 40
3
 40
3
 40
3
 40
4
 40
4
 40
4
 40
5
 40
5
 40
5
 40
5
 10
14.19210599163386
 20
-5.544875738188976
 30
0
 10
14.19210599163386
 20
-5.544875738188976
 30
0
 10
14.65109036663386
 20
-5.544875738188976
 30
0
 10
14.65109036663386
 20
-5.544875738188976
 30
0
 10
14.78819359005906
 20
-5.544875738188976
 30
0
 10
14.96101439468504
 20
-5.309885580708661
 30
0
 10
14.96101439468504
 20
-4.999577079232283
 30
0
 10
14.96101439468504
 20
-4.857975516732283
 30
0
 10
14.91037924458661
 20
-4.758550688976378
 30
0
 10
14.81499138779528
 20
-4.758550688976378
 30
0
 10
14.81499138779528
 20
-4.758550688976378
 30
0
 10
14.35604546013779
 20
-4.758550688976378
 30
0
 10
14.35604546013779
 20
-4.758550688976378
 30
0
 10
14.35604546013779
 20
-4.758550688976378
 30
0
 10
14.19210599163386
 20
-5.544875738188976
 30
0
 10
14.19210599163386
 20
-5.544875738188976
 30
0
  0
SPLINE
  5
D1
100
AcDbEntity
  8
Layer 1
  6
ByLayer
 62
  256
370
   -1
100
AcDbSpline
210
0
220
0
230
0
 70
   11
 71
    3
 72
   26
 73
   22
 74
    0
 42
1e-07
 43
1e-07
 40
0
 40
0
 40
0
 40
0
 40
1
 40
1
 40
1
 40
2
 40
2
 40
2
 40
3
 40
3
 40
3
 40
4
 40
4
 40
4
 40
5
 40
5
 40
5
 40
6
 40
6
 40
6
 40
7
 40
7
 40
7
 40
7
 10
15.25009996309055
 20
-3.408856729822835
 30
0
 10
15.47067236712598
 20
-3.408856729822835
 30
0
 10
15.59581846702756
 20
-3.59263502706693
 30
0
 10
15.59581846702756
 20
-3.860766793799213
 30
0
 10
15.59581846702756
 20
-4.183128537155512
 30
0
 10
15.46767347440945
 20
-4.454278420275591
 30
0
 10
15.26205708661417
 20
-4.583826740895669
 30
0
 10
15.35444605068898
 20
-4.653108852116142
 30
0
 10
15.4050812007874
 20
-4.818816898375984
 30
0
 10
15.4050812007874
 20
-4.990541953740157
 30
0
 10
15.4050812007874
 20
-5.451487143208661
 30
0
 10
15.08023960383858
 20
-5.843130997785433
 30
0
 10
14.7822342519685
 20
-5.843130997785433
 30
0
 10
14.7822342519685
 20
-5.843130997785433
 30
0
 10
13.66760734498031
 20
-5.843130997785433
 30
0
 10
13.66760734498031
 20
-5.843130997785433
 30
0
 10
13.66760734498031
 20
-5.843130997785433
 30
0
 10
14.17722687007874
 20
-3.408856729822835
 30
0
 10
14.17722687007874
 20
-3.408856729822835
 30
0
 10
14.17722687007874
 20
-3.408856729822835
 30
0
 10
15.25009996309055
 20
-3.408856729822835
 30
0
 10
15.25009996309055
 20
-3.408856729822835
 30
0
  0
SPLINE
  5
D2
100
AcDbEntity
  8
Layer 1
  6
ByLayer
 62
  256
370
   -1
100
AcDbSpline
210
0
220
0
230
0
 70
   11
 71
    3
 72
   17
 73
   13
 74
    0
 42
1e-07
 43
1e-07
 40
0
 40
0
 40
0
 40
0
 40
1
 40
1
 40
1
 40
2
 40
2
 40
2
 40
3
 40
3
 40
3
 40
4
 40
4
 40
4
 40
4
 10
16.28852423720472
 20
-5.029700572096456
 30
0
 10
16.28852423720472
 20
-5.029700572096456
 30
0
 10
16.72959215059055
 20
-5.029700572096456
 30
0
 10
16.72959215059055
 20
-5.029700572096456
 30
0
 10
16.72959215059055
 20
-5.029700572096456
 30
0
 10
16.81006243848425
 20
-3.713148222194882
 30
0
 10
16.81006243848425
 20
-3.713148222194882
 30
0
 10
16.81006243848425
 20
-3.713148222194882
 30
0
 10
16.76238773375984
 20
-3.713148222194882
 30
0
 10
16.76238773375984
 20
-3.713148222194882
 30
0
 10
16.76238773375984
 20
-3.713148222194882
 30
0
 10
16.28852423720472
 20
-5.029700572096456
 30
0
 10
16.28852423720472
 20
-5.029700572096456
 30
0
  0
SPLINE
  5
D3
100
AcDbEntity
  8
Layer 1
  6
ByLayer
 62
  256
370
   -1
100
AcDbSpline
210
0
220
0
230
0
 70
   11
 71
    3
 72
   29
 73
   25
 74
    0
 42
1e-07
 43
1e-07
 40
0
 40
0
 40
0
 40
0
 40
1
 40
1
 40
1
 40
2
 40
2
 40
2
 40
3
 40
3
 40
3
 40
4
 40
4
 40
4
 40
5
 40
5
 40
5
 40
6
 40
6
 40
6
 40
7
 40
7
 40
7
 40
8
 40
8
 40
8
 40
8
 10
16.70875369094488
 20
-5.333992064468504
 30
0
 10
16.70875369094488
 20
-5.333992064468504
 30
0
 10
16.17825725885826
 20
-5.333992064468504
 30
0
 10
16.17825725885826
 20
-5.333992064468504
 30
0
 10
16.17825725885826
 20
-5.333992064468504
 30
0
 10
16.00243756151575
 20
-5.843130997785433
 30
0
 10
16.00243756151575
 20
-5.843130997785433
 30
0
 10
16.00243756151575
 20
-5.843130997785433
 30
0
 10
15.5374938484252
 20
-5.843130997785433
 30
0
 10
15.5374938484252
 20
-5.843130997785433
 30
0
 10
15.5374938484252
 20
-5.843130997785433
 30
0
 10
16.54481422244094
 20
-3.408856729822835
 30
0
 10
16.54481422244094
 20
-3.408856729822835
 30
0
 10
16.54481422244094
 20
-3.408856729822835
 30
0
 10
17.14386226624016
 20
-3.408856729822835
 30
0
 10
17.14386226624016
 20
-3.408856729822835
 30
0
 10
17.14386226624016
 20
-3.408856729822835
 30
0
 10
17.14386226624016
 20
-5.843130997785433
 30
0
 10
17.14386226624016
 20
-5.843130997785433
 30
0
 10
17.14386226624016
 20
-5.843130997785433
 30
0
 10
16.68191744586614
 20
-5.843130997785433
 30
0
 10
16.68191744586614
 20
-5.843130997785433
 30
0
 10
16.68191744586614
 20
-5.843130997785433
 30
0
 10
16.70875369094488
 20
-5.333992064468504
 30
0
 10
16.70875369094488
 20
-5.333992064468504
 30
0
  0
SPLINE
  5
D4
100
AcDbEntity
  8
Layer 1
  6
ByLayer
 62
  256
370
   -1
100
AcDbSpline
210
0
220
0
230
0
 70
   11
 71
    3
 72
   23
 73
   19
 74
    0
 42
1e-07
 43
1e-07
 40
0
 40
0
 40
0
 40
0
 40
1
 40
1
 40
1
 40
2
 40
2
 40
2
 40
3
 40
3
 40
3
 40
4
 40
4
 40
4
 40
5
 40
5
 40
5
 40
6
 40
6
 40
6
 40
6
 10
18.42961829478346
 20
-3.408856729822835
 30
0
 10
18.42961829478346
 20
-3.408856729822835
 30
0
 10
17.98259104330708
 20
-5.544875738188976
 30
0
 10
17.98259104330708
 20
-5.544875738188976
 30
0
 10
17.98259104330708
 20
-5.544875738188976
 30
0
 10
19.04954324557087
 20
-5.544875738188976
 30
0
 10
19.04954324557087
 20
-5.544875738188976
 30
0
 10
19.04954324557087
 20
-5.544875738188976
 30
0
 10
18.98695097194882
 20
-5.843130997785433
 30
0
 10
18.98695097194882
 20
-5.843130997785433
 30
0
 10
18.98695097194882
 20
-5.843130997785433
 30
0
 10
17.45805394931102
 20
-5.843130997785433
 30
0
 10
17.45805394931102
 20
-5.843130997785433
 30
0
 10
17.45805394931102
 20
-5.843130997785433
 30
0
 10
17.96767347440944
 20
-3.408856729822835
 30
0
 10
17.96767347440944
 20
-3.408856729822835
 30
0
 10
17.96767347440944
 20
-3.408856729822835
 30
0
 10
18.42961829478346
 20
-3.408856729822835
 30
0
 10
18.42961829478346
 20
-3.408856729822835
 30
0
  0
SPLINE
  5
D5
100
AcDbEntity
  8
Layer 1
  6
ByLayer
 62
  256
370
   -1
100
AcDbSpline
210
0
220
0
230
0
 70
   11
 71
    3
 72
   23
 73
   19
 74
    0
 42
1e-07
 43
1e-07
 40
0
 40
0
 40
0
 40
0
 40
1
 40
1
 40
1
 40
2
 40
2
 40
2
 40
3
 40
3
 40
3
 40
4
 40
4
 40
4
 40
5
 40
5
 40
5
 40
6
 40
6
 40
6
 40
6
 10
20.31442236712598
 20
-3.408856729822835
 30
0
 10
20.31442236712598
 20
-3.408856729822835
 30
0
 10
19.86739511564961
 20
-5.544875738188976
 30
0
 10
19.86739511564961
 20
-5.544875738188976
 30
0
 10
19.86739511564961
 20
-5.544875738188976
 30
0
 10
20.93434731791339
 20
-5.544875738188976
 30
0
 10
20.93434731791339
 20
-5.544875738188976
 30
0
 10
20.93434731791339
 20
-5.544875738188976
 30
0
 10
20.87175504429133
 20
-5.843130997785433
 30
0
 10
20.87175504429133
 20
-5.843130997785433
 30
0
 10
20.87175504429133
 20
-5.843130997785433
 30
0
 10
19.34285802165354
 20
-5.843130997785433
 30
0
 10
19.34285802165354
 20
-5.843130997785433
 30
0
 10
19.34285802165354
 20
-5.843130997785433
 30
0
 10
19.85247754675197
 20
-3.408856729822835
 30
0
 10
19.85247754675197
 20
-3.408856729822835
 30
0
 10
19.85247754675197
 20
-3.408856729822835
 30
0
 10
20.31442236712598
 20
-3.408856729822835
 30
0
 10
20.31442236712598
 20
-3.408856729822835
 30
0
  0
ENDBLK
  5
75
330
73
100
AcDbEntity
  8
0
100
AcDbBlockEnd
  0
BLOCK
  5
77
330
76
100
AcDbEntity
  8
0
100
AcDbBlockBegin
  2
Block_2-1
 70
    0
 10
0
 20
0
  3
Block_2-1
  1

  0
INSERT
  5
D6
100
AcDbEntity
  8
Layer 1
  6
ByLayer
 62
  256
370
   -1
100
AcDbBlockReference
  2
Block_3-1
 10
0
 20
0
 30
0
 41
1
 42
1
 43
0
 50
0
 70
    1
 71
    1
 44
0
 45
0
  0
ENDBLK
  5
78
330
76
100
AcDbEntity
  8
0
100
AcDbBlockEnd
  0
BLOCK
  5
7A
330
79
100
AcDbEntity
  8
0
100
AcDbBlockBegin
  2
Block_3-1
 70
    0
 10
0
 20
0
  3
Block_3-1
  1

  0
SPLINE
  5
D7
100
AcDbEntity
  8
Layer 1
  6
ByLayer
 62
  256
370
   -1
100
AcDbSpline
210
0
220
0
230
0
 70
   11
 71
    3
 72
   53
 73
   49
 74
    0
 42
1e-07
 43
1e-07
 40
0
 40
0
 40
0
 40
0
 40
1
 40
1
 40
1
 40
2
 40
2
 40
2
 40
3
 40
3
 40
3
 40
4
 40
4
 40
4
 40
5
 40
5
 40
5
 40
6
 40
6
 40
6
 40
7
 40
7
 40
7
 40
8
 40
8
 40
8
 40
9
 40
9
 40
9
 40
10
 40
10
 40
10
 40
11
 40
11
 40
11
 40
12
 40
12
 40
12
 40
13
 40
13
 40
13
 40
14
 40
14
 40
14
 40
15
 40
15
 40
15
 40
16
 40
16
 40
16
 40
16
 10
5.535129336860236
 20
-6.332431102362205
 30
0
 10
5.535129336860236
 20
-6.332431102362205
 30
0
 10
5.250292199803149
 20
-7.366107129675196
 30
0
 10
5.250292199803149
 20
-7.366107129675196
 30
0
 10
5.250292199803149
 20
-7.366107129675196
 30
0
 10
5.266670767716535
 20
-7.366107129675196
 30
0
 10
5.266670767716535
 20
-7.366107129675196
 30
0
 10
5.266670767716535
 20
-7.366107129675196
 30
0
 10
5.744667353592519
 20
-6.672670859990157
 30
0
 10
5.744667353592519
 20
-6.672670859990157
 30
0
 10
5.744667353592519
 20
-6.672670859990157
 30
0
 10
6.052438330462598
 20
-6.672670859990157
 30
0
 10
6.052438330462598
 20
-6.672670859990157
 30
0
 10
6.052438330462598
 20
-6.672670859990157
 30
0
 10
5.928022730068897
 20
-7.36935593011811
 30
0
 10
5.928022730068897
 20
-7.36935593011811
 30
0
 10
5.928022730068897
 20
-7.36935593011811
 30
0
 10
5.947669322096456
 20
-7.36935593011811
 30
0
 10
5.947669322096456
 20
-7.36935593011811
 30
0
 10
5.947669322096456
 20
-7.36935593011811
 30
0
 10
6.546813484251969
 20
-6.332431102362205
 30
0
 10
6.546813484251969
 20
-6.332431102362205
 30
0
 10
6.546813484251969
 20
-6.332431102362205
 30
0
 10
7.014986774114173
 20
-6.332431102362205
 30
0
 10
7.014986774114173
 20
-6.332431102362205
 30
0
 10
7.014986774114173
 20
-6.332431102362205
 30
0
 10
6.189945250984252
 20
-7.64154389148622
 30
0
 10
6.189945250984252
 20
-7.64154389148622
 30
0
 10
6.189945250984252
 20
-7.64154389148622
 30
0
 10
5.656276913139764
 20
-7.64154389148622
 30
0
 10
5.656276913139764
 20
-7.64154389148622
 30
0
 10
5.656276913139764
 20
-7.64154389148622
 30
0
 10
5.718484713336614
 20
-7.102012333907481
 30
0
 10
5.718484713336614
 20
-7.102012333907481
 30
0
 10
5.718484713336614
 20
-7.102012333907481
 30
0
 10
5.702106145423229
 20
-7.102012333907481
 30
0
 10
5.702106145423229
 20
-7.102012333907481
 30
0
 10
5.702106145423229
 20
-7.102012333907481
 30
0
 10
5.3125
 20
-7.64154389148622
 30
0
 10
5.3125
 20
-7.64154389148622
 30
0
 10
5.3125
 20
-7.64154389148622
 30
0
 10
4.775563638041339
 20
-7.64154389148622
 30
0
 10
4.775563638041339
 20
-7.64154389148622
 30
0
 10
4.775563638041339
 20
-7.64154389148622
 30
0
 10
5.066956046998031
 20
-6.332431102362205
 30
0
 10
5.066956046998031
 20
-6.332431102362205
 30
0
 10
5.066956046998031
 20
-6.332431102362205
 30
0
 10
5.535129336860236
 20
-6.332431102362205
 30
0
 10
5.535129336860236
 20
-6.332431102362205
 30
0
  0
SPLINE
  5
D8
100
AcDbEntity
  8
Layer 1
  6
ByLayer
 62
  256
370
   -1
100
AcDbSpline
210
0
220
0
230
0
 70
   11
 71
    3
 72
   41
 73
   37
 74
    0
 42
1e-07
 43
1e-07
 40
0
 40
0
 40
0
 40
0
 40
1
 40
1
 40
1
 40
2
 40
2
 40
2
 40
3
 40
3
 40
3
 40
4
 40
4
 40
4
 40
5
 40
5
 40
5
 40
6
 40
6
 40
6
 40
7
 40
7
 40
7
 40
8
 40
8
 40
8
 40
9
 40
9
 40
9
 40
10
 40
10
 40
10
 40
11
 40
11
 40
11
 40
12
 40
12
 40
12
 40
12
 10
8.897522453248031
 20
-6.332431102362205
 30
0
 10
8.897522453248031
 20
-6.332431102362205
 30
0
 10
8.828759381151574
 20
-6.496062992125984
 30
0
 10
8.828759381151574
 20
-6.496062992125984
 30
0
 10
8.828759381151574
 20
-6.496062992125984
 30
0
 10
7.72214874507874
 20
-6.496062992125984
 30
0
 10
7.72214874507874
 20
-6.496062992125984
 30
0
 10
7.72214874507874
 20
-6.496062992125984
 30
0
 10
7.545348640501969
 20
-6.90435454601378
 30
0
 10
7.545348640501969
 20
-6.90435454601378
 30
0
 10
7.545348640501969
 20
-6.90435454601378
 30
0
 10
8.350762795275591
 20
-6.90435454601378
 30
0
 10
8.350762795275591
 20
-6.90435454601378
 30
0
 10
8.350762795275591
 20
-6.90435454601378
 30
0
 10
8.281999723179133
 20
-7.064756859005906
 30
0
 10
8.281999723179133
 20
-7.064756859005906
 30
0
 10
8.281999723179133
 20
-7.064756859005906
 30
0
 10
7.476585568405512
 20
-7.064756859005906
 30
0
 10
7.476585568405512
 20
-7.064756859005906
 30
0
 10
7.476585568405512
 20
-7.064756859005906
 30
0
 10
7.29978546382874
 20
-7.481141578494094
 30
0
 10
7.29978546382874
 20
-7.481141578494094
 30
0
 10
7.29978546382874
 20
-7.481141578494094
 30
0
 10
8.406415323572835
 20
-7.481141578494094
 30
0
 10
8.406415323572835
 20
-7.481141578494094
 30
0
 10
8.406415323572835
 20
-7.481141578494094
 30
0
 10
8.337652251476378
 20
-7.64154389148622
 30
0
 10
8.337652251476378
 20
-7.64154389148622
 30
0
 10
8.337652251476378
 20
-7.64154389148622
 30
0
 10
6.717019869586614
 20
-7.64154389148622
 30
0
 10
6.717019869586614
 20
-7.64154389148622
 30
0
 10
6.717019869586614
 20
-7.64154389148622
 30
0
 10
7.276870847687007
 20
-6.332431102362205
 30
0
 10
7.276870847687007
 20
-6.332431102362205
 30
0
 10
7.276870847687007
 20
-6.332431102362205
 30
0
 10
8.897522453248031
 20
-6.332431102362205
 30
0
 10
8.897522453248031
 20
-6.332431102362205
 30
0
  0
SPLINE
  5
D9
100
AcDbEntity
  8
Layer 1
  6
ByLayer
 62
  256
370
   -1
100
AcDbSpline
210
0
220
0
230
0
 70
   11
 71
    3
 72
   23
 73
   19
 74
    0
 42
1e-07
 43
1e-07
 40
0
 40
0
 40
0
 40
0
 40
1
 40
1
 40
1
 40
2
 40
2
 40
2
 40
3
 40
3
 40
3
 40
4
 40
4
 40
4
 40
5
 40
5
 40
5
 40
6
 40
6
 40
6
 40
6
 10
9.797843873031496
 20
-6.332431102362205
 30
0
 10
9.797843873031496
 20
-6.332431102362205
 30
0
 10
9.306755967027559
 20
-7.481141578494094
 30
0
 10
9.306755967027559
 20
-7.481141578494094
 30
0
 10
9.306755967027559
 20
-7.481141578494094
 30
0
 10
10.47886165108268
 20
-7.481141578494094
 30
0
 10
10.47886165108268
 20
-7.481141578494094
 30
0
 10
10.47886165108268
 20
-7.481141578494094
 30
0
 10
10.41009857898622
 20
-7.64154389148622
 30
0
 10
10.41009857898622
 20
-7.64154389148622
 30
0
 10
10.41009857898622
 20
-7.64154389148622
 30
0
 10
8.73052642101378
 20
-7.64154389148622
 30
0
 10
8.73052642101378
 20
-7.64154389148622
 30
0
 10
8.73052642101378
 20
-7.64154389148622
 30
0
 10
9.290377399114172
 20
-6.332431102362205
 30
0
 10
9.290377399114172
 20
-6.332431102362205
 30
0
 10
9.290377399114172
 20
-6.332431102362205
 30
0
 10
9.797843873031496
 20
-6.332431102362205
 30
0
 10
9.797843873031496
 20
-6.332431102362205
 30
0
  0
SPLINE
  5
DA
100
AcDbEntity
  8
Layer 1
  6
ByLayer
 62
  256
370
   -1
100
AcDbSpline
210
0
220
0
230
0
 70
   11
 71
    3
 72
   26
 73
   22
 74
    0
 42
1e-07
 43
1e-07
 40
0
 40
0
 40
0
 40
0
 40
1
 40
1
 40
1
 40
2
 40
2
 40
2
 40
3
 40
3
 40
3
 40
4
 40
4
 40
4
 40
5
 40
5
 40
5
 40
6
 40
6
 40
6
 40
7
 40
7
 40
7
 40
7
 10
11.35298120693898
 20
-7.481141578494094
 30
0
 10
11.35298120693898
 20
-7.481141578494094
 30
0
 10
11.81790569635827
 20
-7.481141578494094
 30
0
 10
11.81790569635827
 20
-7.481141578494094
 30
0
 10
11.96196788877953
 20
-7.481141578494094
 30
0
 10
12.09291953740157
 20
-7.385561484990157
 30
0
 10
12.13548074557087
 20
-7.286713367372047
 30
0
 10
12.13548074557087
 20
-7.286713367372047
 30
0
 10
12.39084799458661
 20
-6.692105991633858
 30
0
 10
12.39084799458661
 20
-6.692105991633858
 30
0
 10
12.40069051427165
 20
-6.667807271161418
 30
0
 10
12.4072265625
 20
-6.643508550688976
 30
0
 10
12.4072265625
 20
-6.620824618602362
 30
0
 10
12.4072265625
 20
-6.549524021899606
 30
0
 10
12.3515548105315
 20
-6.496062992125984
 30
0
 10
12.24024975393701
 20
-6.496062992125984
 30
0
 10
12.24024975393701
 20
-6.496062992125984
 30
0
 10
11.77534448818898
 20
-6.496062992125984
 30
0
 10
11.77534448818898
 20
-6.496062992125984
 30
0
 10
11.77534448818898
 20
-6.496062992125984
 30
0
 10
11.35298120693898
 20
-7.481141578494094
 30
0
 10
11.35298120693898
 20
-7.481141578494094
 30
0
  0
SPLINE
  5
DB
100
AcDbEntity
  8
Layer 1
  6
ByLayer
 62
  256
370
   -1
100
AcDbSpline
210
0
220
0
230
0
 70
   11
 71
    3
 72
   26
 73
   22
 74
    0
 42
1e-07
 43
1e-07
 40
0
 40
0
 40
0
 40
0
 40
1
 40
1
 40
1
 40
2
 40
2
 40
2
 40
3
 40
3
 40
3
 40
4
 40
4
 40
4
 40
5
 40
5
 40
5
 40
6
 40
6
 40
6
 40
7
 40
7
 40
7
 40
7
 10
12.52506766732284
 20
-6.332431102362205
 30
0
 10
12.76082677165354
 20
-6.332431102362205
 30
0
 10
12.89831446850394
 20
-6.432874784694881
 30
0
 10
12.89831446850394
 20
-6.57707154281496
 30
0
 10
12.89831446850394
 20
-6.612712229330708
 30
0
 10
12.88851039616142
 20
-6.65160171628937
 30
0
 10
12.87213182824803
 20
-6.692105991633858
 30
0
 10
12.87213182824803
 20
-6.692105991633858
 30
0
 10
12.61676457923228
 20
-7.286713367372047
 30
0
 10
12.61676457923228
 20
-7.286713367372047
 30
0
 10
12.5316421628937
 20
-7.484390378937007
 30
0
 10
12.26643239419291
 20
-7.64154389148622
 30
0
 10
11.9652359128937
 20
-7.64154389148622
 30
0
 10
11.9652359128937
 20
-7.64154389148622
 30
0
 10
10.7767516609252
 20
-7.64154389148622
 30
0
 10
10.7767516609252
 20
-7.64154389148622
 30
0
 10
10.7767516609252
 20
-7.64154389148622
 30
0
 10
11.33660263902559
 20
-6.332431102362205
 30
0
 10
11.33660263902559
 20
-6.332431102362205
 30
0
 10
11.33660263902559
 20
-6.332431102362205
 30
0
 10
12.52506766732284
 20
-6.332431102362205
 30
0
 10
12.52506766732284
 20
-6.332431102362205
 30
0
  0
SPLINE
  5
DC
100
AcDbEntity
  8
Layer 1
  6
ByLayer
 62
  256
370
   -1
100
AcDbSpline
210
0
220
0
230
0
 70
   11
 71
    3
 72
   41
 73
   37
 74
    0
 42
1e-07
 43
1e-07
 40
0
 40
0
 40
0
 40
0
 40
1
 40
1
 40
1
 40
2
 40
2
 40
2
 40
3
 40
3
 40
3
 40
4
 40
4
 40
4
 40
5
 40
5
 40
5
 40
6
 40
6
 40
6
 40
7
 40
7
 40
7
 40
8
 40
8
 40
8
 40
9
 40
9
 40
9
 40
10
 40
10
 40
10
 40
11
 40
11
 40
11
 40
12
 40
12
 40
12
 40
12
 10
15.03621739665354
 20
-6.332431102362205
 30
0
 10
15.03621739665354
 20
-6.332431102362205
 30
0
 10
14.96747354822835
 20
-6.496062992125984
 30
0
 10
14.96747354822835
 20
-6.496062992125984
 30
0
 10
14.96747354822835
 20
-6.496062992125984
 30
0
 10
14.41417784202756
 20
-6.496062992125984
 30
0
 10
14.41417784202756
 20
-6.496062992125984
 30
0
 10
14.41417784202756
 20
-6.496062992125984
 30
0
 10
13.99183378444882
 20
-7.481141578494094
 30
0
 10
13.99183378444882
 20
-7.481141578494094
 30
0
 10
13.99183378444882
 20
-7.481141578494094
 30
0
 10
14.54512949064961
 20
-7.481141578494094
 30
0
 10
14.54512949064961
 20
-7.481141578494094
 30
0
 10
14.54512949064961
 20
-7.481141578494094
 30
0
 10
14.47638564222441
 20
-7.64154389148622
 30
0
 10
14.47638564222441
 20
-7.64154389148622
 30
0
 10
14.47638564222441
 20
-7.64154389148622
 30
0
 10
12.85244678887795
 20
-7.64154389148622
 30
0
 10
12.85244678887795
 20
-7.64154389148622
 30
0
 10
12.85244678887795
 20
-7.64154389148622
 30
0
 10
12.92119063730315
 20
-7.481141578494094
 30
0
 10
12.92119063730315
 20
-7.481141578494094
 30
0
 10
12.92119063730315
 20
-7.481141578494094
 30
0
 10
13.4810608390748
 20
-7.481141578494094
 30
0
 10
13.4810608390748
 20
-7.481141578494094
 30
0
 10
13.4810608390748
 20
-7.481141578494094
 30
0
 10
13.90340489665354
 20
-6.496062992125984
 30
0
 10
13.90340489665354
 20
-6.496062992125984
 30
0
 10
13.90340489665354
 20
-6.496062992125984
 30
0
 10
13.34357314222441
 20
-6.496062992125984
 30
0
 10
13.34357314222441
 20
-6.496062992125984
 30
0
 10
13.34357314222441
 20
-6.496062992125984
 30
0
 10
13.41231699064961
 20
-6.332431102362205
 30
0
 10
13.41231699064961
 20
-6.332431102362205
 30
0
 10
13.41231699064961
 20
-6.332431102362205
 30
0
 10
15.03621739665354
 20
-6.332431102362205
 30
0
 10
15.03621739665354
 20
-6.332431102362205
 30
0
  0
SPLINE
  5
DD
100
AcDbEntity
  8
Layer 1
  6
ByLayer
 62
  256
370
   -1
100
AcDbSpline
210
0
220
0
230
0
 70
   11
 71
    3
 72
   35
 73
   31
 74
    0
 42
1e-07
 43
1e-07
 40
0
 40
0
 40
0
 40
0
 40
1
 40
1
 40
1
 40
2
 40
2
 40
2
 40
3
 40
3
 40
3
 40
4
 40
4
 40
4
 40
5
 40
5
 40
5
 40
6
 40
6
 40
6
 40
7
 40
7
 40
7
 40
8
 40
8
 40
8
 40
9
 40
9
 40
9
 40
10
 40
10
 40
10
 40
10
 10
15.92346671998031
 20
-6.332431102362205
 30
0
 10
15.92346671998031
 20
-6.332431102362205
 30
0
 10
16.29998154527559
 20
-7.317509688730315
 30
0
 10
16.29998154527559
 20
-7.317509688730315
 30
0
 10
16.29998154527559
 20
-7.317509688730315
 30
0
 10
16.72232560285433
 20
-6.332431102362205
 30
0
 10
16.72232560285433
 20
-6.332431102362205
 30
0
 10
16.72232560285433
 20
-6.332431102362205
 30
0
 10
17.12175504429134
 20
-6.332431102362205
 30
0
 10
17.12175504429134
 20
-6.332431102362205
 30
0
 10
17.12175504429134
 20
-6.332431102362205
 30
0
 10
16.5619232898622
 20
-7.64154389148622
 30
0
 10
16.5619232898622
 20
-7.64154389148622
 30
0
 10
16.5619232898622
 20
-7.64154389148622
 30
0
 10
15.98894254429133
 20
-7.64154389148622
 30
0
 10
15.98894254429133
 20
-7.64154389148622
 30
0
 10
15.98894254429133
 20
-7.64154389148622
 30
0
 10
15.63207431102362
 20
-6.763406588336614
 30
0
 10
15.63207431102362
 20
-6.763406588336614
 30
0
 10
15.63207431102362
 20
-6.763406588336614
 30
0
 10
15.25555948572835
 20
-7.64154389148622
 30
0
 10
15.25555948572835
 20
-7.64154389148622
 30
0
 10
15.25555948572835
 20
-7.64154389148622
 30
0
 10
14.85939806840551
 20
-7.64154389148622
 30
0
 10
14.85939806840551
 20
-7.64154389148622
 30
0
 10
14.85939806840551
 20
-7.64154389148622
 30
0
 10
15.41926827017716
 20
-6.332431102362205
 30
0
 10
15.41926827017716
 20
-6.332431102362205
 30
0
 10
15.41926827017716
 20
-6.332431102362205
 30
0
 10
15.92346671998031
 20
-6.332431102362205
 30
0
 10
15.92346671998031
 20
-6.332431102362205
 30
0
  0
SPLINE
  5
DE
100
AcDbEntity
  8
Layer 1
  6
ByLayer
 62
  256
370
   -1
100
AcDbSpline
210
0
220
0
230
0
 70
   11
 71
    3
 72
   59
 73
   55
 74
    0
 42
1e-07
 43
1e-07
 40
0
 40
0
 40
0
 40
0
 40
1
 40
1
 40
1
 40
2
 40
2
 40
2
 40
3
 40
3
 40
3
 40
4
 40
4
 40
4
 40
5
 40
5
 40
5
 40
6
 40
6
 40
6
 40
7
 40
7
 40
7
 40
8
 40
8
 40
8
 40
9
 40
9
 40
9
 40
10
 40
10
 40
10
 40
11
 40
11
 40
11
 40
12
 40
12
 40
12
 40
13
 40
13
 40
13
 40
14
 40
14
 40
14
 40
15
 40
15
 40
15
 40
16
 40
16
 40
16
 40
17
 40
17
 40
17
 40
18
 40
18
 40
18
 40
18
 10
19.0992172121063
 20
-6.332431102362205
 30
0
 10
19.0992172121063
 20
-6.332431102362205
 30
0
 10
19.0304733636811
 20
-6.496062992125984
 30
0
 10
19.0304733636811
 20
-6.496062992125984
 30
0
 10
19.0304733636811
 20
-6.496062992125984
 30
0
 10
18.13991756889763
 20
-6.496062992125984
 30
0
 10
18.13991756889763
 20
-6.496062992125984
 30
0
 10
18.00242987204724
 20
-6.496062992125984
 30
0
 10
17.86490372785433
 20
-6.586798720472441
 30
0
 10
17.81907449557087
 20
-6.692105991633858
 30
0
 10
17.81907449557087
 20
-6.692105991633858
 30
0
 10
17.56370724655512
 20
-7.286713367372047
 30
0
 10
17.56370724655512
 20
-7.286713367372047
 30
0
 10
17.55386472687008
 20
-7.309397299458661
 30
0
 10
17.5505967027559
 20
-7.330466443159449
 30
0
 10
17.5505967027559
 20
-7.349901574803149
 30
0
 10
17.5505967027559
 20
-7.422816959891732
 30
0
 10
17.6062684547244
 20
-7.481141578494094
 30
0
 10
17.7175735113189
 20
-7.481141578494094
 30
0
 10
17.7175735113189
 20
-7.481141578494094
 30
0
 10
18.17921075295276
 20
-7.481141578494094
 30
0
 10
18.17921075295276
 20
-7.481141578494094
 30
0
 10
18.17921075295276
 20
-7.481141578494094
 30
0
 10
18.35603008120078
 20
-7.064756859005906
 30
0
 10
18.35603008120078
 20
-7.064756859005906
 30
0
 10
18.35603008120078
 20
-7.064756859005906
 30
0
 10
17.91730745570866
 20
-7.064756859005906
 30
0
 10
17.91730745570866
 20
-7.064756859005906
 30
0
 10
17.91730745570866
 20
-7.064756859005906
 30
0
 10
17.98605130413386
 20
-6.902739757627953
 30
0
 10
17.98605130413386
 20
-6.902739757627953
 30
0
 10
17.98605130413386
 20
-6.902739757627953
 30
0
 10
18.89294721948819
 20
-6.902739757627953
 30
0
 10
18.89294721948819
 20
-6.902739757627953
 30
0
 10
18.89294721948819
 20
-6.902739757627953
 30
0
 10
18.57864019438976
 20
-7.64154389148622
 30
0
 10
18.57864019438976
 20
-7.64154389148622
 30
0
 10
18.57864019438976
 20
-7.64154389148622
 30
0
 10
17.43602362204724
 20
-7.64154389148622
 30
0
 10
17.43602362204724
 20
-7.64154389148622
 30
0
 10
17.19046044537401
 20
-7.64154389148622
 30
0
 10
17.0562407726378
 20
-7.541100209153544
 30
0
 10
17.0562407726378
 20
-7.400133027805118
 30
0
 10
17.0562407726378
 20
-7.36449234128937
 30
0
 10
17.06604484498031
 20
-7.327217642716535
 30
0
 10
17.0824234128937
 20
-7.286713367372047
 30
0
 10
17.0824234128937
 20
-7.286713367372047
 30
0
 10
17.33779066190944
 20
-6.692105991633858
 30
0
 10
17.33779066190944
 20
-6.692105991633858
 30
0
 10
17.4261811023622
 20
-6.487969826525591
 30
0
 10
17.69792691929133
 20
-6.332431102362205
 30
0
 10
17.99585537647638
 20
-6.332431102362205
 30
0
 10
17.99585537647638
 20
-6.332431102362205
 30
0
 10
19.0992172121063
 20
-6.332431102362205
 30
0
 10
19.0992172121063
 20
-6.332431102362205
 30
0
  0
ENDBLK
  5
7B
330
79
100
AcDbEntity
  8
0
100
AcDbBlockEnd
  0
BLOCK
  5
7D
330
7C
100
AcDbEntity
  8
0
100
AcDbBlockBegin
  2
Cannonball Text (for ball)-2
 70
    0
 10
0
 20
0
  3
Cannonball Text (for ball)-2
  1

  0
INSERT
  5
DF
100
AcDbEntity
  8
Layer 1
  6
ByLayer
 62
  256
370
   -1
100
AcDbBlockReference
  2
Block_0-2
 10
0
 20
0
 30
0
 41
1
 42
1
 43
0
 50
0
 70
    1
 71
    1
 44
0
 45
0
  0
INSERT
  5
E0
100
AcDbEntity
  8
Layer 1
  6
ByLayer
 62
  256
370
   -1
100
AcDbBlockReference
  2
Block_2-2
 10
0
 20
0
 30
0
 41
1
 42
1
 43
0
 50
0
 70
    1
 71
    1
 44
0
 45
0
  0
ENDBLK
  5
7E
330
7C
100
AcDbEntity
  8
0
100
AcDbBlockEnd
  0
BLOCK
  5
80
330
7F
100
AcDbEntity
  8
0
100
AcDbBlockBegin
  2
Block_0-2
 70
    0
 10
0
 20
0
  3
Block_0-2
  1

  0
INSERT
  5
E1
100
AcDbEntity
  8
Layer 1
  6
ByLayer
 62
  256
370
   -1
100
AcDbBlockReference
  2
Block_1-2
 10
0
 20
0
 30
0
 41
1
 42
1
 43
0
 50
0
 70
    1
 71
    1
 44
0
 45
0
  0
ENDBLK
  5
81
330
7F
100
AcDbEntity
  8
0
100
AcDbBlockEnd
  0
BLOCK
  5
83
330
82
100
AcDbEntity
  8
0
100
AcDbBlockBegin
  2
Block_1-2
 70
    0
 10
0
 20
0
  3
Block_1-2
  1

  0
SPLINE
  5
E2
100
AcDbEntity
  8
Layer 1
  6
ByLayer
 62
  256
370
   -1
100
AcDbSpline
210
0
220
0
230
0
 70
   11
 71
    3
 72
   47
 73
   43
 74
    0
 42
1e-07
 43
1e-07
 40
0
 40
0
 40
0
 40
0
 40
1
 40
1
 40
1
 40
2
 40
2
 40
2
 40
3
 40
3
 40
3
 40
4
 40
4
 40
4
 40
5
 40
5
 40
5
 40
6
 40
6
 40
6
 40
7
 40
7
 40
7
 40
8
 40
8
 40
8
 40
9
 40
9
 40
9
 40
10
 40
10
 40
10
 40
11
 40
11
 40
11
 40
12
 40
12
 40
12
 40
13
 40
13
 40
13
 40
14
 40
14
 40
14
 40
14
 10
4.370405542568897
 20
-3.408856729822835
 30
0
 10
4.370405542568897
 20
-3.408856729822835
 30
0
 10
4.30783249261811
 20
-3.713148222194882
 30
0
 10
4.30783249261811
 20
-3.713148222194882
 30
0
 10
4.30783249261811
 20
-3.713148222194882
 30
0
 10
3.535944420521654
 20
-3.713148222194882
 30
0
 10
3.535944420521654
 20
-3.713148222194882
 30
0
 10
3.404800535187008
 20
-3.713148222194882
 30
0
 10
3.285594549704725
 20
-3.88185516117126
 30
0
 10
3.243879183070866
 20
-4.077686700295276
 30
0
 10
3.243879183070866
 20
-4.077686700295276
 30
0
 10
3.01140732652559
 20
-5.183355376476378
 30
0
 10
3.01140732652559
 20
-5.183355376476378
 30
0
 10
3.002468319389764
 20
-5.225532111220472
 30
0
 10
2.996508981299213
 20
-5.267708845964567
 30
0
 10
2.996508981299213
 20
-5.306867464320866
 30
0
 10
2.996508981299213
 20
-5.43943390132874
 30
0
 10
3.047182578740157
 20
-5.544875738188976
 30
0
 10
3.151490218996063
 20
-5.544875738188976
 30
0
 10
3.151490218996063
 20
-5.544875738188976
 30
0
 10
3.92337829109252
 20
-5.544875738188976
 30
0
 10
3.92337829109252
 20
-5.544875738188976
 30
0
 10
3.92337829109252
 20
-5.544875738188976
 30
0
 10
3.860786017470472
 20
-5.843130997785433
 30
0
 10
3.860786017470472
 20
-5.843130997785433
 30
0
 10
3.860786017470472
 20
-5.843130997785433
 30
0
 10
2.889221671998031
 20
-5.843130997785433
 30
0
 10
2.889221671998031
 20
-5.843130997785433
 30
0
 10
2.668687715305118
 20
-5.843130997785433
 30
0
 10
2.546482837106299
 20
-5.656334584153544
 30
0
 10
2.546482837106299
 20
-5.391220933809055
 30
0
 10
2.546482837106299
 20
-5.327955831692913
 30
0
 10
2.555421844242126
 20
-5.255655604084645
 30
0
 10
2.570339413139764
 20
-5.183355376476378
 30
0
 10
2.570339413139764
 20
-5.183355376476378
 30
0
 10
2.80279204601378
 20
-4.077686700295276
 30
0
 10
2.80279204601378
 20
-4.077686700295276
 30
0
 10
2.88326233390748
 20
-3.698076863927166
 30
0
 10
3.127633642962599
 20
-3.408856729822835
 30
0
 10
3.398841197096456
 20
-3.408856729822835
 30
0
 10
3.398841197096456
 20
-3.408856729822835
 30
0
 10
4.370405542568897
 20
-3.408856729822835
 30
0
 10
4.370405542568897
 20
-3.408856729822835
 30
0
  0
SPLINE
  5
E3
100
AcDbEntity
  8
Layer 1
  6
ByLayer
 62
  256
370
   -1
100
AcDbSpline
210
0
220
0
230
0
 70
   11
 71
    3
 72
   17
 73
   13
 74
    0
 42
1e-07
 43
1e-07
 40
0
 40
0
 40
0
 40
0
 40
1
 40
1
 40
1
 40
2
 40
2
 40
2
 40
3
 40
3
 40
3
 40
4
 40
4
 40
4
 40
4
 10
4.979661355807086
 20
-5.029700572096456
 30
0
 10
4.979661355807086
 20
-5.029700572096456
 30
0
 10
5.420748492864173
 20
-5.029700572096456
 30
0
 10
5.420748492864173
 20
-5.029700572096456
 30
0
 10
5.420748492864173
 20
-5.029700572096456
 30
0
 10
5.501218780757874
 20
-3.713148222194882
 30
0
 10
5.501218780757874
 20
-3.713148222194882
 30
0
 10
5.501218780757874
 20
-3.713148222194882
 30
0
 10
5.453524852362205
 20
-3.713148222194882
 30
0
 10
5.453524852362205
 20
-3.713148222194882
 30
0
 10
5.453524852362205
 20
-3.713148222194882
 30
0
 10
4.979661355807086
 20
-5.029700572096456
 30
0
 10
4.979661355807086
 20
-5.029700572096456
 30
0
  0
SPLINE
  5
E4
100
AcDbEntity
  8
Layer 1
  6
ByLayer
 62
  256
370
   -1
100
AcDbSpline
210
0
220
0
230
0
 70
   11
 71
    3
 72
   29
 73
   25
 74
    0
 42
1e-07
 43
1e-07
 40
0
 40
0
 40
0
 40
0
 40
1
 40
1
 40
1
 40
2
 40
2
 40
2
 40
3
 40
3
 40
3
 40
4
 40
4
 40
4
 40
5
 40
5
 40
5
 40
6
 40
6
 40
6
 40
7
 40
7
 40
7
 40
8
 40
8
 40
8
 40
8
 10
5.399871585875984
 20
-5.333992064468504
 30
0
 10
5.399871585875984
 20
-5.333992064468504
 30
0
 10
4.86939437746063
 20
-5.333992064468504
 30
0
 10
4.86939437746063
 20
-5.333992064468504
 30
0
 10
4.86939437746063
 20
-5.333992064468504
 30
0
 10
4.69355545644685
 20
-5.843130997785433
 30
0
 10
4.69355545644685
 20
-5.843130997785433
 30
0
 10
4.69355545644685
 20
-5.843130997785433
 30
0
 10
4.228630967027559
 20
-5.843130997785433
 30
0
 10
4.228630967027559
 20
-5.843130997785433
 30
0
 10
4.228630967027559
 20
-5.843130997785433
 30
0
 10
5.235970564714567
 20
-3.408856729822835
 30
0
 10
5.235970564714567
 20
-3.408856729822835
 30
0
 10
5.235970564714567
 20
-3.408856729822835
 30
0
 10
5.834999384842519
 20
-3.408856729822835
 30
0
 10
5.834999384842519
 20
-3.408856729822835
 30
0
 10
5.834999384842519
 20
-3.408856729822835
 30
0
 10
5.834999384842519
 20
-5.843130997785433
 30
0
 10
5.834999384842519
 20
-5.843130997785433
 30
0
 10
5.834999384842519
 20
-5.843130997785433
 30
0
 10
5.373054564468504
 20
-5.843130997785433
 30
0
 10
5.373054564468504
 20
-5.843130997785433
 30
0
 10
5.373054564468504
 20
-5.843130997785433
 30
0
 10
5.399871585875984
 20
-5.333992064468504
 30
0
 10
5.399871585875984
 20
-5.333992064468504
 30
0
  0
SPLINE
  5
E5
100
AcDbEntity
  8
Layer 1
  6
ByLayer
 62
  256
370
   -1
100
AcDbSpline
210
0
220
0
230
0
 70
   11
 71
    3
 72
   35
 73
   31
 74
    0
 42
1e-07
 43
1e-07
 40
0
 40
0
 40
0
 40
0
 40
1
 40
1
 40
1
 40
2
 40
2
 40
2
 40
3
 40
3
 40
3
 40
4
 40
4
 40
4
 40
5
 40
5
 40
5
 40
6
 40
6
 40
6
 40
7
 40
7
 40
7
 40
8
 40
8
 40
8
 40
9
 40
9
 40
9
 40
10
 40
10
 40
10
 40
10
 10
7.108875184547244
 20
-3.408856729822835
 30
0
 10
7.108875184547244
 20
-3.408856729822835
 30
0
 10
7.451594795767717
 20
-5.240584245816929
 30
0
 10
7.451594795767717
 20
-5.240584245816929
 30
0
 10
7.451594795767717
 20
-5.240584245816929
 30
0
 10
7.836048997293307
 20
-3.408856729822835
 30
0
 10
7.836048997293307
 20
-3.408856729822835
 30
0
 10
7.836048997293307
 20
-3.408856729822835
 30
0
 10
8.199645515501969
 20
-3.408856729822835
 30
0
 10
8.199645515501969
 20
-3.408856729822835
 30
0
 10
8.199645515501969
 20
-3.408856729822835
 30
0
 10
7.690025990403544
 20
-5.843130997785433
 30
0
 10
7.690025990403544
 20
-5.843130997785433
 30
0
 10
7.690025990403544
 20
-5.843130997785433
 30
0
 10
7.168468565452756
 20
-5.843130997785433
 30
0
 10
7.168468565452756
 20
-5.843130997785433
 30
0
 10
7.168468565452756
 20
-5.843130997785433
 30
0
 10
6.843626968503937
 20
-4.21023391363189
 30
0
 10
6.843626968503937
 20
-4.21023391363189
 30
0
 10
6.843626968503937
 20
-4.21023391363189
 30
0
 10
6.500888133612205
 20
-5.843130997785433
 30
0
 10
6.500888133612205
 20
-5.843130997785433
 30
0
 10
6.500888133612205
 20
-5.843130997785433
 30
0
 10
6.140271284448819
 20
-5.843130997785433
 30
0
 10
6.140271284448819
 20
-5.843130997785433
 30
0
 10
6.140271284448819
 20
-5.843130997785433
 30
0
 10
6.649910033218504
 20
-3.408856729822835
 30
0
 10
6.649910033218504
 20
-3.408856729822835
 30
0
 10
6.649910033218504
 20
-3.408856729822835
 30
0
 10
7.108875184547244
 20
-3.408856729822835
 30
0
 10
7.108875184547244
 20
-3.408856729822835
 30
0
  0
SPLINE
  5
E6
100
AcDbEntity
  8
Layer 1
  6
ByLayer
 62
  256
370
   -1
100
AcDbSpline
210
0
220
0
230
0
 70
   11
 71
    3
 72
   35
 73
   31
 74
    0
 42
1e-07
 43
1e-07
 40
0
 40
0
 40
0
 40
0
 40
1
 40
1
 40
1
 40
2
 40
2
 40
2
 40
3
 40
3
 40
3
 40
4
 40
4
 40
4
 40
5
 40
5
 40
5
 40
6
 40
6
 40
6
 40
7
 40
7
 40
7
 40
8
 40
8
 40
8
 40
9
 40
9
 40
9
 40
10
 40
10
 40
10
 40
10
 10
8.993679256889763
 20
-3.408856729822835
 30
0
 10
8.993679256889763
 20
-3.408856729822835
 30
0
 10
9.336398868110235
 20
-5.240584245816929
 30
0
 10
9.336398868110235
 20
-5.240584245816929
 30
0
 10
9.336398868110235
 20
-5.240584245816929
 30
0
 10
9.720853069635826
 20
-3.408856729822835
 30
0
 10
9.720853069635826
 20
-3.408856729822835
 30
0
 10
9.720853069635826
 20
-3.408856729822835
 30
0
 10
10.08446881151575
 20
-3.408856729822835
 30
0
 10
10.08446881151575
 20
-3.408856729822835
 30
0
 10
10.08446881151575
 20
-3.408856729822835
 30
0
 10
9.574830062746063
 20
-5.843130997785433
 30
0
 10
9.574830062746063
 20
-5.843130997785433
 30
0
 10
9.574830062746063
 20
-5.843130997785433
 30
0
 10
9.053272637795276
 20
-5.843130997785433
 30
0
 10
9.053272637795276
 20
-5.843130997785433
 30
0
 10
9.053272637795276
 20
-5.843130997785433
 30
0
 10
8.728431040846457
 20
-4.21023391363189
 30
0
 10
8.728431040846457
 20
-4.21023391363189
 30
0
 10
8.728431040846457
 20
-4.21023391363189
 30
0
 10
8.385692205954724
 20
-5.843130997785433
 30
0
 10
8.385692205954724
 20
-5.843130997785433
 30
0
 10
8.385692205954724
 20
-5.843130997785433
 30
0
 10
8.025075356791339
 20
-5.843130997785433
 30
0
 10
8.025075356791339
 20
-5.843130997785433
 30
0
 10
8.025075356791339
 20
-5.843130997785433
 30
0
 10
8.534714105561024
 20
-3.408856729822835
 30
0
 10
8.534714105561024
 20
-3.408856729822835
 30
0
 10
8.534714105561024
 20
-3.408856729822835
 30
0
 10
8.993679256889763
 20
-3.408856729822835
 30
0
 10
8.993679256889763
 20
-3.408856729822835
 30
0
  0
SPLINE
  5
E7
100
AcDbEntity
  8
Layer 1
  6
ByLayer
 62
  256
370
   -1
100
AcDbSpline
210
0
220
0
230
0
 70
   11
 71
    3
 72
   35
 73
   31
 74
    0
 42
1e-07
 43
1e-07
 40
0
 40
0
 40
0
 40
0
 40
1
 40
1
 40
1
 40
2
 40
2
 40
2
 40
3
 40
3
 40
3
 40
4
 40
4
 40
4
 40
5
 40
5
 40
5
 40
6
 40
6
 40
6
 40
7
 40
7
 40
7
 40
8
 40
8
 40
8
 40
9
 40
9
 40
9
 40
10
 40
10
 40
10
 40
10
 10
10.4761703371063
 20
-5.183355376476378
 30
0
 10
10.46721210629921
 20
-5.225532111220472
 30
0
 10
10.46125276820866
 20
-5.267708845964567
 30
0
 10
10.46125276820866
 20
-5.306867464320866
 30
0
 10
10.46125276820866
 20
-5.43943390132874
 30
0
 10
10.51192636564961
 20
-5.544875738188976
 30
0
 10
10.61623400590551
 20
-5.544875738188976
 30
0
 10
10.61623400590551
 20
-5.544875738188976
 30
0
 10
10.88444266732284
 20
-5.544875738188976
 30
0
 10
10.88444266732284
 20
-5.544875738188976
 30
0
 10
11.01858544537401
 20
-5.544875738188976
 30
0
 10
11.13481176181102
 20
-5.373150682824803
 30
0
 10
11.17352823572835
 20
-5.183355376476378
 30
0
 10
11.17352823572835
 20
-5.183355376476378
 30
0
 10
11.40601931594488
 20
-4.077686700295276
 30
0
 10
11.40601931594488
 20
-4.077686700295276
 30
0
 10
11.41493909940945
 20
-4.032491849163386
 30
0
 10
11.4208984375
 20
-3.987296998031496
 30
0
 10
11.4208984375
 20
-3.945120263287401
 30
0
 10
11.4208984375
 20
-3.809554933562992
 30
0
 10
11.37022484005906
 20
-3.713148222194882
 30
0
 10
11.26891609251969
 20
-3.713148222194882
 30
0
 10
11.26891609251969
 20
-3.713148222194882
 30
0
 10
11.00066898375984
 20
-3.713148222194882
 30
0
 10
11.00066898375984
 20
-3.713148222194882
 30
0
 10
10.86956354576772
 20
-3.713148222194882
 30
0
 10
10.75033833661417
 20
-3.88185516117126
 30
0
 10
10.70862296998031
 20
-4.077686700295276
 30
0
 10
10.70862296998031
 20
-4.077686700295276
 30
0
 10
10.4761703371063
 20
-5.183355376476378
 30
0
 10
10.4761703371063
 20
-5.183355376476378
 30
0
  0
SPLINE
  5
E8
100
AcDbEntity
  8
Layer 1
  6
ByLayer
 62
  256
370
   -1
100
AcDbSpline
210
0
220
0
230
0
 70
   11
 71
    3
 72
   35
 73
   31
 74
    0
 42
1e-07
 43
1e-07
 40
0
 40
0
 40
0
 40
0
 40
1
 40
1
 40
1
 40
2
 40
2
 40
2
 40
3
 40
3
 40
3
 40
4
 40
4
 40
4
 40
5
 40
5
 40
5
 40
6
 40
6
 40
6
 40
7
 40
7
 40
7
 40
8
 40
8
 40
8
 40
9
 40
9
 40
9
 40
10
 40
10
 40
10
 40
10
 10
11.52820497047244
 20
-3.408856729822835
 30
0
 10
11.74873892716535
 20
-3.408856729822835
 30
0
 10
11.87392347440945
 20
-3.595653143454724
 30
0
 10
11.87392347440945
 20
-3.863784910187008
 30
0
 10
11.87392347440945
 20
-3.930068128690945
 30
0
 10
11.86496524360236
 20
-4.002368356299213
 30
0
 10
11.85004767470472
 20
-4.077686700295276
 30
0
 10
11.85004767470472
 20
-4.077686700295276
 30
0
 10
11.61759504183071
 20
-5.183355376476378
 30
0
 10
11.61759504183071
 20
-5.183355376476378
 30
0
 10
11.54012364665354
 20
-5.544875738188976
 30
0
 10
11.30171167568898
 20
-5.843130997785433
 30
0
 10
11.01858544537401
 20
-5.843130997785433
 30
0
 10
11.01858544537401
 20
-5.843130997785433
 30
0
 10
10.35694512795276
 20
-5.843130997785433
 30
0
 10
10.35694512795276
 20
-5.843130997785433
 30
0
 10
10.13341227854331
 20
-5.843130997785433
 30
0
 10
10.00826617864173
 20
-5.653335691437007
 30
0
 10
10.00826617864173
 20
-5.38820281742126
 30
0
 10
10.00826617864173
 20
-5.324937715305118
 30
0
 10
10.0171859621063
 20
-5.255655604084645
 30
0
 10
10.03210353100394
 20
-5.183355376476378
 30
0
 10
10.03210353100394
 20
-5.183355376476378
 30
0
 10
10.26455616387795
 20
-4.077686700295276
 30
0
 10
10.26455616387795
 20
-4.077686700295276
 30
0
 10
10.34206600639764
 20
-3.70109498031496
 30
0
 10
10.58939776082677
 20
-3.408856729822835
 30
0
 10
10.86656465305118
 20
-3.408856729822835
 30
0
 10
10.86656465305118
 20
-3.408856729822835
 30
0
 10
11.52820497047244
 20
-3.408856729822835
 30
0
 10
11.52820497047244
 20
-3.408856729822835
 30
0
  0
SPLINE
  5
E9
100
AcDbEntity
  8
Layer 1
  6
ByLayer
 62
  256
370
   -1
100
AcDbSpline
210
0
220
0
230
0
 70
   11
 71
    3
 72
   35
 73
   31
 74
    0
 42
1e-07
 43
1e-07
 40
0
 40
0
 40
0
 40
0
 40
1
 40
1
 40
1
 40
2
 40
2
 40
2
 40
3
 40
3
 40
3
 40
4
 40
4
 40
4
 40
5
 40
5
 40
5
 40
6
 40
6
 40
6
 40
7
 40
7
 40
7
 40
8
 40
8
 40
8
 40
9
 40
9
 40
9
 40
10
 40
10
 40
10
 40
10
 10
12.7632874015748
 20
-3.408856729822835
 30
0
 10
12.7632874015748
 20
-3.408856729822835
 30
0
 10
13.10604546013779
 20
-5.240584245816929
 30
0
 10
13.10604546013779
 20
-5.240584245816929
 30
0
 10
13.10604546013779
 20
-5.240584245816929
 30
0
 10
13.49048043799213
 20
-3.408856729822835
 30
0
 10
13.49048043799213
 20
-3.408856729822835
 30
0
 10
13.49048043799213
 20
-3.408856729822835
 30
0
 10
13.85407695620079
 20
-3.408856729822835
 30
0
 10
13.85407695620079
 20
-3.408856729822835
 30
0
 10
13.85407695620079
 20
-3.408856729822835
 30
0
 10
13.34445743110236
 20
-5.843130997785433
 30
0
 10
13.34445743110236
 20
-5.843130997785433
 30
0
 10
13.34445743110236
 20
-5.843130997785433
 30
0
 10
12.82291922982284
 20
-5.843130997785433
 30
0
 10
12.82291922982284
 20
-5.843130997785433
 30
0
 10
12.82291922982284
 20
-5.843130997785433
 30
0
 10
12.4980391855315
 20
-4.21023391363189
 30
0
 10
12.4980391855315
 20
-4.21023391363189
 30
0
 10
12.4980391855315
 20
-4.21023391363189
 30
0
 10
12.15531957431102
 20
-5.843130997785433
 30
0
 10
12.15531957431102
 20
-5.843130997785433
 30
0
 10
12.15531957431102
 20
-5.843130997785433
 30
0
 10
11.7947219488189
 20
-5.843130997785433
 30
0
 10
11.7947219488189
 20
-5.843130997785433
 30
0
 10
11.7947219488189
 20
-5.843130997785433
 30
0
 10
12.30434147391732
 20
-3.408856729822835
 30
0
 10
12.30434147391732
 20
-3.408856729822835
 30
0
 10
12.30434147391732
 20
-3.408856729822835
 30
0
 10
12.7632874015748
 20
-3.408856729822835
 30
0
 10
12.7632874015748
 20
-3.408856729822835
 30
0
  0
SPLINE
  5
EA
100
AcDbEntity
  8
Layer 1
  6
ByLayer
 62
  256
370
   -1
100
AcDbSpline
210
0
220
0
230
0
 70
   11
 71
    3
 72
   20
 73
   16
 74
    0
 42
1e-07
 43
1e-07
 40
0
 40
0
 40
0
 40
0
 40
1
 40
1
 40
1
 40
2
 40
2
 40
2
 40
3
 40
3
 40
3
 40
4
 40
4
 40
4
 40
5
 40
5
 40
5
 40
5
 10
14.41863773375984
 20
-4.454278420275591
 30
0
 10
14.41863773375984
 20
-4.454278420275591
 30
0
 10
14.83882874015748
 20
-4.454278420275591
 30
0
 10
14.83882874015748
 20
-4.454278420275591
 30
0
 10
14.98189130167323
 20
-4.454278420275591
 30
0
 10
15.14579232283465
 20
-4.26146499753937
 30
0
 10
15.14579232283465
 20
-3.92101377952756
 30
0
 10
15.14579232283465
 20
-3.788466566190945
 30
0
 10
15.09515717273622
 20
-3.713148222194882
 30
0
 10
14.99680887057087
 20
-3.713148222194882
 30
0
 10
14.99680887057087
 20
-3.713148222194882
 30
0
 10
14.57657941683071
 20
-3.713148222194882
 30
0
 10
14.57657941683071
 20
-3.713148222194882
 30
0
 10
14.57657941683071
 20
-3.713148222194882
 30
0
 10
14.41863773375984
 20
-4.454278420275591
 30
0
 10
14.41863773375984
 20
-4.454278420275591
 30
0
  0
SPLINE
  5
EB
100
AcDbEntity
  8
Layer 1
  6
ByLayer
 62
  256
370
   -1
100
AcDbSpline
210
0
220
0
230
0
 70
   11
 71
    3
 72
   20
 73
   16
 74
    0
 42
1e-07
 43
1e-07
 40
0
 40
0
 40
0
 40
0
 40
1
 40
1
 40
1
 40
2
 40
2
 40
2
 40
3
 40
3
 40
3
 40
4
 40
4
 40
4
 40
5
 40
5
 40
5
 40
5
 10
14.19210599163386
 20
-5.544875738188976
 30
0
 10
14.19210599163386
 20
-5.544875738188976
 30
0
 10
14.65109036663386
 20
-5.544875738188976
 30
0
 10
14.65109036663386
 20
-5.544875738188976
 30
0
 10
14.78819359005906
 20
-5.544875738188976
 30
0
 10
14.96101439468504
 20
-5.309885580708661
 30
0
 10
14.96101439468504
 20
-4.999577079232283
 30
0
 10
14.96101439468504
 20
-4.857975516732283
 30
0
 10
14.91037924458661
 20
-4.758550688976378
 30
0
 10
14.81499138779528
 20
-4.758550688976378
 30
0
 10
14.81499138779528
 20
-4.758550688976378
 30
0
 10
14.35604546013779
 20
-4.758550688976378
 30
0
 10
14.35604546013779
 20
-4.758550688976378
 30
0
 10
14.35604546013779
 20
-4.758550688976378
 30
0
 10
14.19210599163386
 20
-5.544875738188976
 30
0
 10
14.19210599163386
 20
-5.544875738188976
 30
0
  0
SPLINE
  5
EC
100
AcDbEntity
  8
Layer 1
  6
ByLayer
 62
  256
370
   -1
100
AcDbSpline
210
0
220
0
230
0
 70
   11
 71
    3
 72
   26
 73
   22
 74
    0
 42
1e-07
 43
1e-07
 40
0
 40
0
 40
0
 40
0
 40
1
 40
1
 40
1
 40
2
 40
2
 40
2
 40
3
 40
3
 40
3
 40
4
 40
4
 40
4
 40
5
 40
5
 40
5
 40
6
 40
6
 40
6
 40
7
 40
7
 40
7
 40
7
 10
15.25009996309055
 20
-3.408856729822835
 30
0
 10
15.47067236712598
 20
-3.408856729822835
 30
0
 10
15.59581846702756
 20
-3.59263502706693
 30
0
 10
15.59581846702756
 20
-3.860766793799213
 30
0
 10
15.59581846702756
 20
-4.183128537155512
 30
0
 10
15.46767347440945
 20
-4.454278420275591
 30
0
 10
15.26205708661417
 20
-4.583826740895669
 30
0
 10
15.35444605068898
 20
-4.653108852116142
 30
0
 10
15.4050812007874
 20
-4.818816898375984
 30
0
 10
15.4050812007874
 20
-4.990541953740157
 30
0
 10
15.4050812007874
 20
-5.451487143208661
 30
0
 10
15.08023960383858
 20
-5.843130997785433
 30
0
 10
14.7822342519685
 20
-5.843130997785433
 30
0
 10
14.7822342519685
 20
-5.843130997785433
 30
0
 10
13.66760734498031
 20
-5.843130997785433
 30
0
 10
13.66760734498031
 20
-5.843130997785433
 30
0
 10
13.66760734498031
 20
-5.843130997785433
 30
0
 10
14.17722687007874
 20
-3.408856729822835
 30
0
 10
14.17722687007874
 20
-3.408856729822835
 30
0
 10
14.17722687007874
 20
-3.408856729822835
 30
0
 10
15.25009996309055
 20
-3.408856729822835
 30
0
 10
15.25009996309055
 20
-3.408856729822835
 30
0
  0
SPLINE
  5
ED
100
AcDbEntity
  8
Layer 1
  6
ByLayer
 62
  256
370
   -1
100
AcDbSpline
210
0
220
0
230
0
 70
   11
 71
    3
 72
   17
 73
   13
 74
    0
 42
1e-07
 43
1e-07
 40
0
 40
0
 40
0
 40
0
 40
1
 40
1
 40
1
 40
2
 40
2
 40
2
 40
3
 40
3
 40
3
 40
4
 40
4
 40
4
 40
4
 10
16.28852423720472
 20
-5.029700572096456
 30
0
 10
16.28852423720472
 20
-5.029700572096456
 30
0
 10
16.72959215059055
 20
-5.029700572096456
 30
0
 10
16.72959215059055
 20
-5.029700572096456
 30
0
 10
16.72959215059055
 20
-5.029700572096456
 30
0
 10
16.81006243848425
 20
-3.713148222194882
 30
0
 10
16.81006243848425
 20
-3.713148222194882
 30
0
 10
16.81006243848425
 20
-3.713148222194882
 30
0
 10
16.76238773375984
 20
-3.713148222194882
 30
0
 10
16.76238773375984
 20
-3.713148222194882
 30
0
 10
16.76238773375984
 20
-3.713148222194882
 30
0
 10
16.28852423720472
 20
-5.029700572096456
 30
0
 10
16.28852423720472
 20
-5.029700572096456
 30
0
  0
SPLINE
  5
EE
100
AcDbEntity
  8
Layer 1
  6
ByLayer
 62
  256
370
   -1
100
AcDbSpline
210
0
220
0
230
0
 70
   11
 71
    3
 72
   29
 73
   25
 74
    0
 42
1e-07
 43
1e-07
 40
0
 40
0
 40
0
 40
0
 40
1
 40
1
 40
1
 40
2
 40
2
 40
2
 40
3
 40
3
 40
3
 40
4
 40
4
 40
4
 40
5
 40
5
 40
5
 40
6
 40
6
 40
6
 40
7
 40
7
 40
7
 40
8
 40
8
 40
8
 40
8
 10
16.70875369094488
 20
-5.333992064468504
 30
0
 10
16.70875369094488
 20
-5.333992064468504
 30
0
 10
16.17825725885826
 20
-5.333992064468504
 30
0
 10
16.17825725885826
 20
-5.333992064468504
 30
0
 10
16.17825725885826
 20
-5.333992064468504
 30
0
 10
16.00243756151575
 20
-5.843130997785433
 30
0
 10
16.00243756151575
 20
-5.843130997785433
 30
0
 10
16.00243756151575
 20
-5.843130997785433
 30
0
 10
15.5374938484252
 20
-5.843130997785433
 30
0
 10
15.5374938484252
 20
-5.843130997785433
 30
0
 10
15.5374938484252
 20
-5.843130997785433
 30
0
 10
16.54481422244094
 20
-3.408856729822835
 30
0
 10
16.54481422244094
 20
-3.408856729822835
 30
0
 10
16.54481422244094
 20
-3.408856729822835
 30
0
 10
17.14386226624016
 20
-3.408856729822835
 30
0
 10
17.14386226624016
 20
-3.408856729822835
 30
0
 10
17.14386226624016
 20
-3.408856729822835
 30
0
 10
17.14386226624016
 20
-5.843130997785433
 30
0
 10
17.14386226624016
 20
-5.843130997785433
 30
0
 10
17.14386226624016
 20
-5.843130997785433
 30
0
 10
16.68191744586614
 20
-5.843130997785433
 30
0
 10
16.68191744586614
 20
-5.843130997785433
 30
0
 10
16.68191744586614
 20
-5.843130997785433
 30
0
 10
16.70875369094488
 20
-5.333992064468504
 30
0
 10
16.70875369094488
 20
-5.333992064468504
 30
0
  0
SPLINE
  5
EF
100
AcDbEntity
  8
Layer 1
  6
ByLayer
 62
  256
370
   -1
100
AcDbSpline
210
0
220
0
230
0
 70
   11
 71
    3
 72
   23
 73
   19
 74
    0
 42
1e-07
 43
1e-07
 40
0
 40
0
 40
0
 40
0
 40
1
 40
1
 40
1
 40
2
 40
2
 40
2
 40
3
 40
3
 40
3
 40
4
 40
4
 40
4
 40
5
 40
5
 40
5
 40
6
 40
6
 40
6
 40
6
 10
18.42961829478346
 20
-3.408856729822835
 30
0
 10
18.42961829478346
 20
-3.408856729822835
 30
0
 10
17.98259104330708
 20
-5.544875738188976
 30
0
 10
17.98259104330708
 20
-5.544875738188976
 30
0
 10
17.98259104330708
 20
-5.544875738188976
 30
0
 10
19.04954324557087
 20
-5.544875738188976
 30
0
 10
19.04954324557087
 20
-5.544875738188976
 30
0
 10
19.04954324557087
 20
-5.544875738188976
 30
0
 10
18.98695097194882
 20
-5.843130997785433
 30
0
 10
18.98695097194882
 20
-5.843130997785433
 30
0
 10
18.98695097194882
 20
-5.843130997785433
 30
0
 10
17.45805394931102
 20
-5.843130997785433
 30
0
 10
17.45805394931102
 20
-5.843130997785433
 30
0
 10
17.45805394931102
 20
-5.843130997785433
 30
0
 10
17.96767347440944
 20
-3.408856729822835
 30
0
 10
17.96767347440944
 20
-3.408856729822835
 30
0
 10
17.96767347440944
 20
-3.408856729822835
 30
0
 10
18.42961829478346
 20
-3.408856729822835
 30
0
 10
18.42961829478346
 20
-3.408856729822835
 30
0
  0
SPLINE
  5
F0
100
AcDbEntity
  8
Layer 1
  6
ByLayer
 62
  256
370
   -1
100
AcDbSpline
210
0
220
0
230
0
 70
   11
 71
    3
 72
   23
 73
   19
 74
    0
 42
1e-07
 43
1e-07
 40
0
 40
0
 40
0
 40
0
 40
1
 40
1
 40
1
 40
2
 40
2
 40
2
 40
3
 40
3
 40
3
 40
4
 40
4
 40
4
 40
5
 40
5
 40
5
 40
6
 40
6
 40
6
 40
6
 10
20.31442236712598
 20
-3.408856729822835
 30
0
 10
20.31442236712598
 20
-3.408856729822835
 30
0
 10
19.86739511564961
 20
-5.544875738188976
 30
0
 10
19.86739511564961
 20
-5.544875738188976
 30
0
 10
19.86739511564961
 20
-5.544875738188976
 30
0
 10
20.93434731791339
 20
-5.544875738188976
 30
0
 10
20.93434731791339
 20
-5.544875738188976
 30
0
 10
20.93434731791339
 20
-5.544875738188976
 30
0
 10
20.87175504429133
 20
-5.843130997785433
 30
0
 10
20.87175504429133
 20
-5.843130997785433
 30
0
 10
20.87175504429133
 20
-5.843130997785433
 30
0
 10
19.34285802165354
 20
-5.843130997785433
 30
0
 10
19.34285802165354
 20
-5.843130997785433
 30
0
 10
19.34285802165354
 20
-5.843130997785433
 30
0
 10
19.85247754675197
 20
-3.408856729822835
 30
0
 10
19.85247754675197
 20
-3.408856729822835
 30
0
 10
19.85247754675197
 20
-3.408856729822835
 30
0
 10
20.31442236712598
 20
-3.408856729822835
 30
0
 10
20.31442236712598
 20
-3.408856729822835
 30
0
  0
ENDBLK
  5
84
330
82
100
AcDbEntity
  8
0
100
AcDbBlockEnd
  0
BLOCK
  5
86
330
85
100
AcDbEntity
  8
0
100
AcDbBlockBegin
  2
Block_2-2
 70
    0
 10
0
 20
0
  3
Block_2-2
  1

  0
INSERT
  5
F1
100
AcDbEntity
  8
Layer 1
  6
ByLayer
 62
  256
370
   -1
100
AcDbBlockReference
  2
Block_3-2
 10
0
 20
0
 30
0
 41
1
 42
1
 43
0
 50
0
 70
    1
 71
    1
 44
0
 45
0
  0
ENDBLK
  5
87
330
85
100
AcDbEntity
  8
0
100
AcDbBlockEnd
  0
BLOCK
  5
89
330
88
100
AcDbEntity
  8
0
100
AcDbBlockBegin
  2
Block_3-2
 70
    0
 10
0
 20
0
  3
Block_3-2
  1

  0
SPLINE
  5
F2
100
AcDbEntity
  8
Layer 1
  6
ByLayer
 62
  256
370
   -1
100
AcDbSpline
210
0
220
0
230
0
 70
   11
 71
    3
 72
   53
 73
   49
 74
    0
 42
1e-07
 43
1e-07
 40
0
 40
0
 40
0
 40
0
 40
1
 40
1
 40
1
 40
2
 40
2
 40
2
 40
3
 40
3
 40
3
 40
4
 40
4
 40
4
 40
5
 40
5
 40
5
 40
6
 40
6
 40
6
 40
7
 40
7
 40
7
 40
8
 40
8
 40
8
 40
9
 40
9
 40
9
 40
10
 40
10
 40
10
 40
11
 40
11
 40
11
 40
12
 40
12
 40
12
 40
13
 40
13
 40
13
 40
14
 40
14
 40
14
 40
15
 40
15
 40
15
 40
16
 40
16
 40
16
 40
16
 10
5.535129336860236
 20
-6.332431102362205
 30
0
 10
5.535129336860236
 20
-6.332431102362205
 30
0
 10
5.250292199803149
 20
-7.366107129675196
 30
0
 10
5.250292199803149
 20
-7.366107129675196
 30
0
 10
5.250292199803149
 20
-7.366107129675196
 30
0
 10
5.266670767716535
 20
-7.366107129675196
 30
0
 10
5.266670767716535
 20
-7.366107129675196
 30
0
 10
5.266670767716535
 20
-7.366107129675196
 30
0
 10
5.744667353592519
 20
-6.672670859990157
 30
0
 10
5.744667353592519
 20
-6.672670859990157
 30
0
 10
5.744667353592519
 20
-6.672670859990157
 30
0
 10
6.052438330462598
 20
-6.672670859990157
 30
0
 10
6.052438330462598
 20
-6.672670859990157
 30
0
 10
6.052438330462598
 20
-6.672670859990157
 30
0
 10
5.928022730068897
 20
-7.36935593011811
 30
0
 10
5.928022730068897
 20
-7.36935593011811
 30
0
 10
5.928022730068897
 20
-7.36935593011811
 30
0
 10
5.947669322096456
 20
-7.36935593011811
 30
0
 10
5.947669322096456
 20
-7.36935593011811
 30
0
 10
5.947669322096456
 20
-7.36935593011811
 30
0
 10
6.546813484251969
 20
-6.332431102362205
 30
0
 10
6.546813484251969
 20
-6.332431102362205
 30
0
 10
6.546813484251969
 20
-6.332431102362205
 30
0
 10
7.014986774114173
 20
-6.332431102362205
 30
0
 10
7.014986774114173
 20
-6.332431102362205
 30
0
 10
7.014986774114173
 20
-6.332431102362205
 30
0
 10
6.189945250984252
 20
-7.64154389148622
 30
0
 10
6.189945250984252
 20
-7.64154389148622
 30
0
 10
6.189945250984252
 20
-7.64154389148622
 30
0
 10
5.656276913139764
 20
-7.64154389148622
 30
0
 10
5.656276913139764
 20
-7.64154389148622
 30
0
 10
5.656276913139764
 20
-7.64154389148622
 30
0
 10
5.718484713336614
 20
-7.102012333907481
 30
0
 10
5.718484713336614
 20
-7.102012333907481
 30
0
 10
5.718484713336614
 20
-7.102012333907481
 30
0
 10
5.702106145423229
 20
-7.102012333907481
 30
0
 10
5.702106145423229
 20
-7.102012333907481
 30
0
 10
5.702106145423229
 20
-7.102012333907481
 30
0
 10
5.3125
 20
-7.64154389148622
 30
0
 10
5.3125
 20
-7.64154389148622
 30
0
 10
5.3125
 20
-7.64154389148622
 30
0
 10
4.775563638041339
 20
-7.64154389148622
 30
0
 10
4.775563638041339
 20
-7.64154389148622
 30
0
 10
4.775563638041339
 20
-7.64154389148622
 30
0
 10
5.066956046998031
 20
-6.332431102362205
 30
0
 10
5.066956046998031
 20
-6.332431102362205
 30
0
 10
5.066956046998031
 20
-6.332431102362205
 30
0
 10
5.535129336860236
 20
-6.332431102362205
 30
0
 10
5.535129336860236
 20
-6.332431102362205
 30
0
  0
SPLINE
  5
F3
100
AcDbEntity
  8
Layer 1
  6
ByLayer
 62
  256
370
   -1
100
AcDbSpline
210
0
220
0
230
0
 70
   11
 71
    3
 72
   41
 73
   37
 74
    0
 42
1e-07
 43
1e-07
 40
0
 40
0
 40
0
 40
0
 40
1
 40
1
 40
1
 40
2
 40
2
 40
2
 40
3
 40
3
 40
3
 40
4
 40
4
 40
4
 40
5
 40
5
 40
5
 40
6
 40
6
 40
6
 40
7
 40
7
 40
7
 40
8
 40
8
 40
8
 40
9
 40
9
 40
9
 40
10
 40
10
 40
10
 40
11
 40
11
 40
11
 40
12
 40
12
 40
12
 40
12
 10
8.897522453248031
 20
-6.332431102362205
 30
0
 10
8.897522453248031
 20
-6.332431102362205
 30
0
 10
8.828759381151574
 20
-6.496062992125984
 30
0
 10
8.828759381151574
 20
-6.496062992125984
 30
0
 10
8.828759381151574
 20
-6.496062992125984
 30
0
 10
7.72214874507874
 20
-6.496062992125984
 30
0
 10
7.72214874507874
 20
-6.496062992125984
 30
0
 10
7.72214874507874
 20
-6.496062992125984
 30
0
 10
7.545348640501969
 20
-6.90435454601378
 30
0
 10
7.545348640501969
 20
-6.90435454601378
 30
0
 10
7.545348640501969
 20
-6.90435454601378
 30
0
 10
8.350762795275591
 20
-6.90435454601378
 30
0
 10
8.350762795275591
 20
-6.90435454601378
 30
0
 10
8.350762795275591
 20
-6.90435454601378
 30
0
 10
8.281999723179133
 20
-7.064756859005906
 30
0
 10
8.281999723179133
 20
-7.064756859005906
 30
0
 10
8.281999723179133
 20
-7.064756859005906
 30
0
 10
7.476585568405512
 20
-7.064756859005906
 30
0
 10
7.476585568405512
 20
-7.064756859005906
 30
0
 10
7.476585568405512
 20
-7.064756859005906
 30
0
 10
7.29978546382874
 20
-7.481141578494094
 30
0
 10
7.29978546382874
 20
-7.481141578494094
 30
0
 10
7.29978546382874
 20
-7.481141578494094
 30
0
 10
8.406415323572835
 20
-7.481141578494094
 30
0
 10
8.406415323572835
 20
-7.481141578494094
 30
0
 10
8.406415323572835
 20
-7.481141578494094
 30
0
 10
8.337652251476378
 20
-7.64154389148622
 30
0
 10
8.337652251476378
 20
-7.64154389148622
 30
0
 10
8.337652251476378
 20
-7.64154389148622
 30
0
 10
6.717019869586614
 20
-7.64154389148622
 30
0
 10
6.717019869586614
 20
-7.64154389148622
 30
0
 10
6.717019869586614
 20
-7.64154389148622
 30
0
 10
7.276870847687007
 20
-6.332431102362205
 30
0
 10
7.276870847687007
 20
-6.332431102362205
 30
0
 10
7.276870847687007
 20
-6.332431102362205
 30
0
 10
8.897522453248031
 20
-6.332431102362205
 30
0
 10
8.897522453248031
 20
-6.332431102362205
 30
0
  0
SPLINE
  5
F4
100
AcDbEntity
  8
Layer 1
  6
ByLayer
 62
  256
370
   -1
100
AcDbSpline
210
0
220
0
230
0
 70
   11
 71
    3
 72
   23
 73
   19
 74
    0
 42
1e-07
 43
1e-07
 40
0
 40
0
 40
0
 40
0
 40
1
 40
1
 40
1
 40
2
 40
2
 40
2
 40
3
 40
3
 40
3
 40
4
 40
4
 40
4
 40
5
 40
5
 40
5
 40
6
 40
6
 40
6
 40
6
 10
9.797843873031496
 20
-6.332431102362205
 30
0
 10
9.797843873031496
 20
-6.332431102362205
 30
0
 10
9.306755967027559
 20
-7.481141578494094
 30
0
 10
9.306755967027559
 20
-7.481141578494094
 30
0
 10
9.306755967027559
 20
-7.481141578494094
 30
0
 10
10.47886165108268
 20
-7.481141578494094
 30
0
 10
10.47886165108268
 20
-7.481141578494094
 30
0
 10
10.47886165108268
 20
-7.481141578494094
 30
0
 10
10.41009857898622
 20
-7.64154389148622
 30
0
 10
10.41009857898622
 20
-7.64154389148622
 30
0
 10
10.41009857898622
 20
-7.64154389148622
 30
0
 10
8.73052642101378
 20
-7.64154389148622
 30
0
 10
8.73052642101378
 20
-7.64154389148622
 30
0
 10
8.73052642101378
 20
-7.64154389148622
 30
0
 10
9.290377399114172
 20
-6.332431102362205
 30
0
 10
9.290377399114172
 20
-6.332431102362205
 30
0
 10
9.290377399114172
 20
-6.332431102362205
 30
0
 10
9.797843873031496
 20
-6.332431102362205
 30
0
 10
9.797843873031496
 20
-6.332431102362205
 30
0
  0
SPLINE
  5
F5
100
AcDbEntity
  8
Layer 1
  6
ByLayer
 62
  256
370
   -1
100
AcDbSpline
210
0
220
0
230
0
 70
   11
 71
    3
 72
   26
 73
   22
 74
    0
 42
1e-07
 43
1e-07
 40
0
 40
0
 40
0
 40
0
 40
1
 40
1
 40
1
 40
2
 40
2
 40
2
 40
3
 40
3
 40
3
 40
4
 40
4
 40
4
 40
5
 40
5
 40
5
 40
6
 40
6
 40
6
 40
7
 40
7
 40
7
 40
7
 10
11.35298120693898
 20
-7.481141578494094
 30
0
 10
11.35298120693898
 20
-7.481141578494094
 30
0
 10
11.81790569635827
 20
-7.481141578494094
 30
0
 10
11.81790569635827
 20
-7.481141578494094
 30
0
 10
11.96196788877953
 20
-7.481141578494094
 30
0
 10
12.09291953740157
 20
-7.385561484990157
 30
0
 10
12.13548074557087
 20
-7.286713367372047
 30
0
 10
12.13548074557087
 20
-7.286713367372047
 30
0
 10
12.39084799458661
 20
-6.692105991633858
 30
0
 10
12.39084799458661
 20
-6.692105991633858
 30
0
 10
12.40069051427165
 20
-6.667807271161418
 30
0
 10
12.4072265625
 20
-6.643508550688976
 30
0
 10
12.4072265625
 20
-6.620824618602362
 30
0
 10
12.4072265625
 20
-6.549524021899606
 30
0
 10
12.3515548105315
 20
-6.496062992125984
 30
0
 10
12.24024975393701
 20
-6.496062992125984
 30
0
 10
12.24024975393701
 20
-6.496062992125984
 30
0
 10
11.77534448818898
 20
-6.496062992125984
 30
0
 10
11.77534448818898
 20
-6.496062992125984
 30
0
 10
11.77534448818898
 20
-6.496062992125984
 30
0
 10
11.35298120693898
 20
-7.481141578494094
 30
0
 10
11.35298120693898
 20
-7.481141578494094
 30
0
  0
SPLINE
  5
F6
100
AcDbEntity
  8
Layer 1
  6
ByLayer
 62
  256
370
   -1
100
AcDbSpline
210
0
220
0
230
0
 70
   11
 71
    3
 72
   26
 73
   22
 74
    0
 42
1e-07
 43
1e-07
 40
0
 40
0
 40
0
 40
0
 40
1
 40
1
 40
1
 40
2
 40
2
 40
2
 40
3
 40
3
 40
3
 40
4
 40
4
 40
4
 40
5
 40
5
 40
5
 40
6
 40
6
 40
6
 40
7
 40
7
 40
7
 40
7
 10
12.52506766732284
 20
-6.332431102362205
 30
0
 10
12.76082677165354
 20
-6.332431102362205
 30
0
 10
12.89831446850394
 20
-6.432874784694881
 30
0
 10
12.89831446850394
 20
-6.57707154281496
 30
0
 10
12.89831446850394
 20
-6.612712229330708
 30
0
 10
12.88851039616142
 20
-6.65160171628937
 30
0
 10
12.87213182824803
 20
-6.692105991633858
 30
0
 10
12.87213182824803
 20
-6.692105991633858
 30
0
 10
12.61676457923228
 20
-7.286713367372047
 30
0
 10
12.61676457923228
 20
-7.286713367372047
 30
0
 10
12.5316421628937
 20
-7.484390378937007
 30
0
 10
12.26643239419291
 20
-7.64154389148622
 30
0
 10
11.9652359128937
 20
-7.64154389148622
 30
0
 10
11.9652359128937
 20
-7.64154389148622
 30
0
 10
10.7767516609252
 20
-7.64154389148622
 30
0
 10
10.7767516609252
 20
-7.64154389148622
 30
0
 10
10.7767516609252
 20
-7.64154389148622
 30
0
 10
11.33660263902559
 20
-6.332431102362205
 30
0
 10
11.33660263902559
 20
-6.332431102362205
 30
0
 10
11.33660263902559
 20
-6.332431102362205
 30
0
 10
12.52506766732284
 20
-6.332431102362205
 30
0
 10
12.52506766732284
 20
-6.332431102362205
 30
0
  0
SPLINE
  5
F7
100
AcDbEntity
  8
Layer 1
  6
ByLayer
 62
  256
370
   -1
100
AcDbSpline
210
0
220
0
230
0
 70
   11
 71
    3
 72
   41
 73
   37
 74
    0
 42
1e-07
 43
1e-07
 40
0
 40
0
 40
0
 40
0
 40
1
 40
1
 40
1
 40
2
 40
2
 40
2
 40
3
 40
3
 40
3
 40
4
 40
4
 40
4
 40
5
 40
5
 40
5
 40
6
 40
6
 40
6
 40
7
 40
7
 40
7
 40
8
 40
8
 40
8
 40
9
 40
9
 40
9
 40
10
 40
10
 40
10
 40
11
 40
11
 40
11
 40
12
 40
12
 40
12
 40
12
 10
15.03621739665354
 20
-6.332431102362205
 30
0
 10
15.03621739665354
 20
-6.332431102362205
 30
0
 10
14.96747354822835
 20
-6.496062992125984
 30
0
 10
14.96747354822835
 20
-6.496062992125984
 30
0
 10
14.96747354822835
 20
-6.496062992125984
 30
0
 10
14.41417784202756
 20
-6.496062992125984
 30
0
 10
14.41417784202756
 20
-6.496062992125984
 30
0
 10
14.41417784202756
 20
-6.496062992125984
 30
0
 10
13.99183378444882
 20
-7.481141578494094
 30
0
 10
13.99183378444882
 20
-7.481141578494094
 30
0
 10
13.99183378444882
 20
-7.481141578494094
 30
0
 10
14.54512949064961
 20
-7.481141578494094
 30
0
 10
14.54512949064961
 20
-7.481141578494094
 30
0
 10
14.54512949064961
 20
-7.481141578494094
 30
0
 10
14.47638564222441
 20
-7.64154389148622
 30
0
 10
14.47638564222441
 20
-7.64154389148622
 30
0
 10
14.47638564222441
 20
-7.64154389148622
 30
0
 10
12.85244678887795
 20
-7.64154389148622
 30
0
 10
12.85244678887795
 20
-7.64154389148622
 30
0
 10
12.85244678887795
 20
-7.64154389148622
 30
0
 10
12.92119063730315
 20
-7.481141578494094
 30
0
 10
12.92119063730315
 20
-7.481141578494094
 30
0
 10
12.92119063730315
 20
-7.481141578494094
 30
0
 10
13.4810608390748
 20
-7.481141578494094
 30
0
 10
13.4810608390748
 20
-7.481141578494094
 30
0
 10
13.4810608390748
 20
-7.481141578494094
 30
0
 10
13.90340489665354
 20
-6.496062992125984
 30
0
 10
13.90340489665354
 20
-6.496062992125984
 30
0
 10
13.90340489665354
 20
-6.496062992125984
 30
0
 10
13.34357314222441
 20
-6.496062992125984
 30
0
 10
13.34357314222441
 20
-6.496062992125984
 30
0
 10
13.34357314222441
 20
-6.496062992125984
 30
0
 10
13.41231699064961
 20
-6.332431102362205
 30
0
 10
13.41231699064961
 20
-6.332431102362205
 30
0
 10
13.41231699064961
 20
-6.332431102362205
 30
0
 10
15.03621739665354
 20
-6.332431102362205
 30
0
 10
15.03621739665354
 20
-6.332431102362205
 30
0
  0
SPLINE
  5
F8
100
AcDbEntity
  8
Layer 1
  6
ByLayer
 62
  256
370
   -1
100
AcDbSpline
210
0
220
0
230
0
 70
   11
 71
    3
 72
   35
 73
   31
 74
    0
 42
1e-07
 43
1e-07
 40
0
 40
0
 40
0
 40
0
 40
1
 40
1
 40
1
 40
2
 40
2
 40
2
 40
3
 40
3
 40
3
 40
4
 40
4
 40
4
 40
5
 40
5
 40
5
 40
6
 40
6
 40
6
 40
7
 40
7
 40
7
 40
8
 40
8
 40
8
 40
9
 40
9
 40
9
 40
10
 40
10
 40
10
 40
10
 10
15.92346671998031
 20
-6.332431102362205
 30
0
 10
15.92346671998031
 20
-6.332431102362205
 30
0
 10
16.29998154527559
 20
-7.317509688730315
 30
0
 10
16.29998154527559
 20
-7.317509688730315
 30
0
 10
16.29998154527559
 20
-7.317509688730315
 30
0
 10
16.72232560285433
 20
-6.332431102362205
 30
0
 10
16.72232560285433
 20
-6.332431102362205
 30
0
 10
16.72232560285433
 20
-6.332431102362205
 30
0
 10
17.12175504429134
 20
-6.332431102362205
 30
0
 10
17.12175504429134
 20
-6.332431102362205
 30
0
 10
17.12175504429134
 20
-6.332431102362205
 30
0
 10
16.5619232898622
 20
-7.64154389148622
 30
0
 10
16.5619232898622
 20
-7.64154389148622
 30
0
 10
16.5619232898622
 20
-7.64154389148622
 30
0
 10
15.98894254429133
 20
-7.64154389148622
 30
0
 10
15.98894254429133
 20
-7.64154389148622
 30
0
 10
15.98894254429133
 20
-7.64154389148622
 30
0
 10
15.63207431102362
 20
-6.763406588336614
 30
0
 10
15.63207431102362
 20
-6.763406588336614
 30
0
 10
15.63207431102362
 20
-6.763406588336614
 30
0
 10
15.25555948572835
 20
-7.64154389148622
 30
0
 10
15.25555948572835
 20
-7.64154389148622
 30
0
 10
15.25555948572835
 20
-7.64154389148622
 30
0
 10
14.85939806840551
 20
-7.64154389148622
 30
0
 10
14.85939806840551
 20
-7.64154389148622
 30
0
 10
14.85939806840551
 20
-7.64154389148622
 30
0
 10
15.41926827017716
 20
-6.332431102362205
 30
0
 10
15.41926827017716
 20
-6.332431102362205
 30
0
 10
15.41926827017716
 20
-6.332431102362205
 30
0
 10
15.92346671998031
 20
-6.332431102362205
 30
0
 10
15.92346671998031
 20
-6.332431102362205
 30
0
  0
SPLINE
  5
F9
100
AcDbEntity
  8
Layer 1
  6
ByLayer
 62
  256
370
   -1
100
AcDbSpline
210
0
220
0
230
0
 70
   11
 71
    3
 72
   59
 73
   55
 74
    0
 42
1e-07
 43
1e-07
 40
0
 40
0
 40
0
 40
0
 40
1
 40
1
 40
1
 40
2
 40
2
 40
2
 40
3
 40
3
 40
3
 40
4
 40
4
 40
4
 40
5
 40
5
 40
5
 40
6
 40
6
 40
6
 40
7
 40
7
 40
7
 40
8
 40
8
 40
8
 40
9
 40
9
 40
9
 40
10
 40
10
 40
10
 40
11
 40
11
 40
11
 40
12
 40
12
 40
12
 40
13
 40
13
 40
13
 40
14
 40
14
 40
14
 40
15
 40
15
 40
15
 40
16
 40
16
 40
16
 40
17
 40
17
 40
17
 40
18
 40
18
 40
18
 40
18
 10
19.0992172121063
 20
-6.332431102362205
 30
0
 10
19.0992172121063
 20
-6.332431102362205
 30
0
 10
19.0304733636811
 20
-6.496062992125984
 30
0
 10
19.0304733636811
 20
-6.496062992125984
 30
0
 10
19.0304733636811
 20
-6.496062992125984
 30
0
 10
18.13991756889763
 20
-6.496062992125984
 30
0
 10
18.13991756889763
 20
-6.496062992125984
 30
0
 10
18.00242987204724
 20
-6.496062992125984
 30
0
 10
17.86490372785433
 20
-6.586798720472441
 30
0
 10
17.81907449557087
 20
-6.692105991633858
 30
0
 10
17.81907449557087
 20
-6.692105991633858
 30
0
 10
17.56370724655512
 20
-7.286713367372047
 30
0
 10
17.56370724655512
 20
-7.286713367372047
 30
0
 10
17.55386472687008
 20
-7.309397299458661
 30
0
 10
17.5505967027559
 20
-7.330466443159449
 30
0
 10
17.5505967027559
 20
-7.349901574803149
 30
0
 10
17.5505967027559
 20
-7.422816959891732
 30
0
 10
17.6062684547244
 20
-7.481141578494094
 30
0
 10
17.7175735113189
 20
-7.481141578494094
 30
0
 10
17.7175735113189
 20
-7.481141578494094
 30
0
 10
18.17921075295276
 20
-7.481141578494094
 30
0
 10
18.17921075295276
 20
-7.481141578494094
 30
0
 10
18.17921075295276
 20
-7.481141578494094
 30
0
 10
18.35603008120078
 20
-7.064756859005906
 30
0
 10
18.35603008120078
 20
-7.064756859005906
 30
0
 10
18.35603008120078
 20
-7.064756859005906
 30
0
 10
17.91730745570866
 20
-7.064756859005906
 30
0
 10
17.91730745570866
 20
-7.064756859005906
 30
0
 10
17.91730745570866
 20
-7.064756859005906
 30
0
 10
17.98605130413386
 20
-6.902739757627953
 30
0
 10
17.98605130413386
 20
-6.902739757627953
 30
0
 10
17.98605130413386
 20
-6.902739757627953
 30
0
 10
18.89294721948819
 20
-6.902739757627953
 30
0
 10
18.89294721948819
 20
-6.902739757627953
 30
0
 10
18.89294721948819
 20
-6.902739757627953
 30
0
 10
18.57864019438976
 20
-7.64154389148622
 30
0
 10
18.57864019438976
 20
-7.64154389148622
 30
0
 10
18.57864019438976
 20
-7.64154389148622
 30
0
 10
17.43602362204724
 20
-7.64154389148622
 30
0
 10
17.43602362204724
 20
-7.64154389148622
 30
0
 10
17.19046044537401
 20
-7.64154389148622
 30
0
 10
17.0562407726378
 20
-7.541100209153544
 30
0
 10
17.0562407726378
 20
-7.400133027805118
 30
0
 10
17.0562407726378
 20
-7.36449234128937
 30
0
 10
17.06604484498031
 20
-7.327217642716535
 30
0
 10
17.0824234128937
 20
-7.286713367372047
 30
0
 10
17.0824234128937
 20
-7.286713367372047
 30
0
 10
17.33779066190944
 20
-6.692105991633858
 30
0
 10
17.33779066190944
 20
-6.692105991633858
 30
0
 10
17.4261811023622
 20
-6.487969826525591
 30
0
 10
17.69792691929133
 20
-6.332431102362205
 30
0
 10
17.99585537647638
 20
-6.332431102362205
 30
0
 10
17.99585537647638
 20
-6.332431102362205
 30
0
 10
19.0992172121063
 20
-6.332431102362205
 30
0
 10
19.0992172121063
 20
-6.332431102362205
 30
0
  0
ENDBLK
  5
8A
330
88
100
AcDbEntity
  8
0
100
AcDbBlockEnd
  0
BLOCK
  5
8C
330
8B
100
AcDbEntity
  8
0
100
AcDbBlockBegin
  2
Cannonball Text (for ball)_2
 70
    0
 10
0
 20
0
  3
Cannonball Text (for ball)_2
  1

  0
LWPOLYLINE
  5
FA
100
AcDbEntity
  8
R2V
  6
ByLayer
 62
    0
370
   -1
100
AcDbPolyline
 90
    6
 70
    0
 43
0
 10
5.64186
 20
0.293023
 10
5.665116
 20
0.390698
 10
5.786047
 20
0.665116
 10
5.795349
 20
0.7395350000000001
 10
5.739535
 20
0.795349
 10
5.497674
 20
0.795349
  0
LWPOLYLINE
  5
FB
100
AcDbEntity
  8
R2V
  6
ByLayer
 62
    0
370
   -1
100
AcDbPolyline
 90
    5
 70
    0
 43
0
 10
5.64186
 20
0.293023
 10
5.646512
 20
0.293023
 10
5.706977
 20
0.232558
 10
5.953488
 20
0.237209
 10
6.009302
 20
0.269767
  0
LWPOLYLINE
  5
FC
100
AcDbEntity
  8
R2V
  6
ByLayer
 62
    0
370
   -1
100
AcDbPolyline
 90
    3
 70
    0
 43
0
 10
5.64186
 20
0.293023
 10
5.530233
 20
0.232558
 10
5.251163
 20
0.232558
  0
LWPOLYLINE
  5
FD
100
AcDbEntity
  8
R2V
  6
ByLayer
 62
    0
370
   -1
100
AcDbPolyline
 90
    2
 70
    0
 43
0
 10
5.64186
 20
0.293023
 10
5.646512
 20
0.288372
  0
LWPOLYLINE
  5
FE
100
AcDbEntity
  8
R2V
  6
ByLayer
 62
    0
370
   -1
100
AcDbPolyline
 90
    2
 70
    0
 43
0
 10
1.716279
 20
0.534884
 10
1.739535
 20
0.604651
  0
LWPOLYLINE
  5
FF
100
AcDbEntity
  8
R2V
  6
ByLayer
 62
    0
370
   -1
100
AcDbPolyline
 90
    7
 70
    0
 43
0
 10
1.716279
 20
0.534884
 10
1.72093
 20
0.534884
 10
1.72093
 20
0.418605
 10
1.711628
 20
0.260465
 10
1.84186
 20
0.265116
 10
2.144186
 20
0.767442
 10
2.297674
 20
0.837209
  0
LWPOLYLINE
  5
100
100
AcDbEntity
  8
R2V
  6
ByLayer
 62
    0
370
   -1
100
AcDbPolyline
 90
    9
 70
    0
 43
0
 10
1.716279
 20
0.534884
 10
1.613953
 20
0.488372
 10
1.47907
 20
0.297674
 10
1.4
 20
0.265116
 10
1.35814
 20
0.269767
 10
1.339535
 20
0.293023
 10
1.35814
 20
0.446512
 10
1.437209
 20
0.748837
 10
1.572093
 20
0.837209
  0
LWPOLYLINE
  5
101
100
AcDbEntity
  8
R2V
  6
ByLayer
 62
    0
370
   -1
100
AcDbPolyline
 90
    2
 70
    0
 43
0
 10
1.716279
 20
0.534884
 10
1.72093
 20
0.530233
  0
LWPOLYLINE
  5
102
100
AcDbEntity
  8
R2V
  6
ByLayer
 62
    0
370
   -1
100
AcDbPolyline
 90
    5
 70
    0
 43
0
 10
2.469767
 20
0.576744
 10
2.488372
 20
0.669767
 10
2.530233
 20
0.753488
 10
2.609302
 20
0.795349
 10
3.15814
 20
0.795349
  0
LWPOLYLINE
  5
103
100
AcDbEntity
  8
R2V
  6
ByLayer
 62
    0
370
   -1
100
AcDbPolyline
 90
    5
 70
    0
 43
0
 10
2.469767
 20
0.576744
 10
2.474419
 20
0.576744
 10
2.534884
 20
0.516279
 10
2.902326
 20
0.52093
 10
2.95814
 20
0.553488
  0
LWPOLYLINE
  5
104
100
AcDbEntity
  8
R2V
  6
ByLayer
 62
    0
370
   -1
100
AcDbPolyline
 90
    7
 70
    0
 43
0
 10
2.469767
 20
0.576744
 10
2.44186
 20
0.562791
 10
2.35814
 20
0.362791
 10
2.348837
 20
0.293023
 10
2.409302
 20
0.232558
 10
2.930233
 20
0.237209
 10
2.986047
 20
0.269767
  0
LWPOLYLINE
  5
105
100
AcDbEntity
  8
R2V
  6
ByLayer
 62
    0
370
   -1
100
AcDbPolyline
 90
    2
 70
    0
 43
0
 10
2.469767
 20
0.576744
 10
2.474419
 20
0.572093
  0
LWPOLYLINE
  5
106
100
AcDbEntity
  8
R2V
  6
ByLayer
 62
    0
370
   -1
100
AcDbPolyline
 90
    3
 70
    0
 43
0
 10
5.795349
 20
0.7395350000000001
 10
5.902326
 20
0.795349
 10
6.181395
 20
0.795349
  0
LWPOLYLINE
  5
107
100
AcDbEntity
  8
R2V
  6
ByLayer
 62
    0
370
   -1
100
AcDbPolyline
 90
    2
 70
    0
 43
0
 10
5.795349
 20
0.7395350000000001
 10
5.790698
 20
0.7395350000000001
  0
LWPOLYLINE
  5
108
100
AcDbEntity
  8
R2V
  6
ByLayer
 62
    0
370
   -1
100
AcDbPolyline
 90
    6
 70
    0
 43
0
 10
2.511628
 20
1.255814
 10
2.511628
 20
1.24186
 10
2.506977
 20
1.237209
 10
2.506977
 20
1.227907
 10
2.511628
 20
1.223256
 10
2.511628
 20
1.213953
  0
LWPOLYLINE
  5
109
100
AcDbEntity
  8
R2V
  6
ByLayer
 62
    0
370
   -1
100
AcDbPolyline
 90
    8
 70
    0
 43
0
 10
2.511628
 20
1.255814
 10
2.465116
 20
1.283721
 10
2.432558
 20
1.311628
 10
2.306977
 20
1.953488
 10
2.24186
 20
2
 10
2.2
 20
1.976744
 10
2.139535
 20
1.930233
 10
1.981395
 20
1.15814
  0
LWPOLYLINE
  5
10A
100
AcDbEntity
  8
R2V
  6
ByLayer
 62
    0
370
   -1
100
AcDbPolyline
 90
    3
 70
    0
 43
0
 10
2.511628
 20
1.255814
 10
2.6
 20
1.316279
 10
2.781395
 20
2.2
  0
LWPOLYLINE
  5
10B
100
AcDbEntity
  8
R2V
  6
ByLayer
 62
    0
370
   -1
100
AcDbPolyline
 90
    6
 70
    0
 43
0
 10
3.437209
 20
1.255814
 10
3.437209
 20
1.24186
 10
3.432558
 20
1.237209
 10
3.432558
 20
1.227907
 10
3.437209
 20
1.223256
 10
3.437209
 20
1.213953
  0
LWPOLYLINE
  5
10C
100
AcDbEntity
  8
R2V
  6
ByLayer
 62
    0
370
   -1
100
AcDbPolyline
 90
    8
 70
    0
 43
0
 10
3.437209
 20
1.255814
 10
3.390698
 20
1.283721
 10
3.35814
 20
1.311628
 10
3.232558
 20
1.953488
 10
3.167442
 20
2
 10
3.125581
 20
1.976744
 10
3.065116
 20
1.930233
 10
2.906977
 20
1.15814
  0
LWPOLYLINE
  5
10D
100
AcDbEntity
  8
R2V
  6
ByLayer
 62
    0
370
   -1
100
AcDbPolyline
 90
    3
 70
    0
 43
0
 10
3.437209
 20
1.255814
 10
3.525581
 20
1.316279
 10
3.706977
 20
2.2
  0
LWPOLYLINE
  5
10E
100
AcDbEntity
  8
R2V
  6
ByLayer
 62
    0
370
   -1
100
AcDbPolyline
 90
    6
 70
    0
 43
0
 10
5.293023
 20
1.255814
 10
5.293023
 20
1.24186
 10
5.288372
 20
1.237209
 10
5.288372
 20
1.227907
 10
5.293023
 20
1.223256
 10
5.293023
 20
1.213953
  0
LWPOLYLINE
  5
10F
100
AcDbEntity
  8
R2V
  6
ByLayer
 62
    0
370
   -1
100
AcDbPolyline
 90
    8
 70
    0
 43
0
 10
5.293023
 20
1.255814
 10
5.246512
 20
1.283721
 10
5.213953
 20
1.311628
 10
5.088372
 20
1.953488
 10
5.023256
 20
2
 10
4.981395
 20
1.976744
 10
4.92093
 20
1.930233
 10
4.762791
 20
1.15814
  0
LWPOLYLINE
  5
110
100
AcDbEntity
  8
R2V
  6
ByLayer
 62
    0
370
   -1
100
AcDbPolyline
 90
    3
 70
    0
 43
0
 10
5.293023
 20
1.255814
 10
5.381395
 20
1.316279
 10
5.562791
 20
2.2
  0
LWPOLYLINE
  5
111
100
AcDbEntity
  8
R2V
  6
ByLayer
 62
    0
370
   -1
100
AcDbPolyline
 90
   11
 70
    0
 43
0
 10
1.613953
 20
1.372093
 10
1.623256
 20
1.432558
 10
1.637209
 20
2.195349
 10
1.493023
 20
2.195349
 10
1.469767
 20
2.176744
 10
1.232558
 20
1.562791
 10
1.209302
 20
1.418605
 10
1.227907
 20
1.4
 10
1.581395
 20
1.4
 10
1.613953
 20
1.367442
 10
1.613953
 20
1.186047
  0
LWPOLYLINE
  5
112
100
AcDbEntity
  8
R2V
  6
ByLayer
 62
    0
370
   -1
100
AcDbPolyline
 90
   11
 70
    0
 43
0
 10
7.181395
 20
1.372093
 10
7.190698
 20
1.432558
 10
7.204651
 20
2.195349
 10
7.060465
 20
2.195349
 10
7.037209
 20
2.176744
 10
6.8
 20
1.562791
 10
6.776744
 20
1.418605
 10
6.795349
 20
1.4
 10
7.148837
 20
1.4
 10
7.181395
 20
1.367442
 10
7.181395
 20
1.186047
  0
LWPOLYLINE
  5
113
100
AcDbEntity
  8
R2V
  6
ByLayer
 62
    0
370
   -1
100
AcDbPolyline
 90
    2
 70
    0
 43
0
 10
1.209302
 20
1.418605
 10
1.213953
 20
1.418605
  0
LWPOLYLINE
  5
114
100
AcDbEntity
  8
R2V
  6
ByLayer
 62
    0
370
   -1
100
AcDbPolyline
 90
    3
 70
    0
 43
0
 10
1.209302
 20
1.418605
 10
1.172093
 20
1.4
 10
1.083721
 20
1.162791
  0
LWPOLYLINE
  5
115
100
AcDbEntity
  8
R2V
  6
ByLayer
 62
    0
370
   -1
100
AcDbPolyline
 90
    2
 70
    0
 43
0
 10
6.776744
 20
1.418605
 10
6.781395
 20
1.418605
  0
LWPOLYLINE
  5
116
100
AcDbEntity
  8
R2V
  6
ByLayer
 62
    0
370
   -1
100
AcDbPolyline
 90
    3
 70
    0
 43
0
 10
6.776744
 20
1.418605
 10
6.739535
 20
1.4
 10
6.651163
 20
1.162791
  0
LWPOLYLINE
  5
117
100
AcDbEntity
  8
R2V
  6
ByLayer
 62
    0
370
   -1
100
AcDbPolyline
 90
   27
 70
    0
 43
0
 10
6.283721
 20
1.67907
 10
6.32093
 20
1.772093
 10
6.362791
 20
1.827907
 10
6.390698
 20
1.897674
 10
6.413953
 20
2.055814
 10
6.390698
 20
2.144186
 10
6.348837
 20
2.190698
 10
6.325581
 20
2.2
 10
5.948837
 20
2.195349
 10
5.925581
 20
2.181395
 10
5.855814
 20
1.851163
 10
5.846512
 20
1.711628
 10
5.874419
 20
1.683721
 10
6.255814
 20
1.683721
 10
6.283721
 20
1.67907
 10
6.302326
 20
1.581395
 10
6.32093
 20
1.502326
 10
6.306977
 20
1.395349
 10
6.27907
 20
1.306977
 10
6.24186
 20
1.237209
 10
6.167442
 20
1.167442
 10
6.130233
 20
1.153488
 10
5.762791
 20
1.153488
 10
5.734884
 20
1.181395
 10
5.748837
 20
1.344186
 10
5.827907
 20
1.702326
 10
5.846512
 20
1.711628
  0
LWPOLYLINE
  5
118
100
AcDbEntity
  8
R2V
  6
ByLayer
 62
    0
370
   -1
100
AcDbPolyline
 90
    2
 70
    0
 43
0
 10
5.846512
 20
1.711628
 10
5.851163
 20
1.711628
  0
LWPOLYLINE
  5
119
100
AcDbEntity
  8
R2V
  6
ByLayer
 62
    0
370
   -1
100
AcDbPolyline
 90
    2
 70
    0
 43
0
 10
2.237209
 20
2
 10
2.237209
 20
2.15814
  0
LWPOLYLINE
  5
11A
100
AcDbEntity
  8
R2V
  6
ByLayer
 62
    0
370
   -1
100
AcDbPolyline
 90
    2
 70
    0
 43
0
 10
3.162791
 20
2
 10
3.162791
 20
2.15814
  0
LWPOLYLINE
  5
11B
100
AcDbEntity
  8
R2V
  6
ByLayer
 62
    0
370
   -1
100
AcDbPolyline
 90
    2
 70
    0
 43
0
 10
5.018605
 20
2
 10
5.018605
 20
2.15814
  0
LWPOLYLINE
  5
11C
100
AcDbEntity
  8
R2V
  6
ByLayer
 62
    0
370
   -1
100
AcDbPolyline
 90
    4
 70
    0
 43
0
 10
3.395349
 20
0.232558
 10
3.339535
 20
0.288372
 10
3.353488
 20
0.376744
 10
3.511628
 20
0.748837
  0
LWPOLYLINE
  5
11D
100
AcDbEntity
  8
R2V
  6
ByLayer
 62
    0
370
   -1
100
AcDbPolyline
 90
    3
 70
    0
 43
0
 10
3.395349
 20
0.232558
 10
3.953488
 20
0.237209
 10
4.009302
 20
0.269767
  0
LWPOLYLINE
  5
11E
100
AcDbEntity
  8
R2V
  6
ByLayer
 62
    0
370
   -1
100
AcDbPolyline
 90
    2
 70
    0
 43
0
 10
3.395349
 20
0.232558
 10
3.390698
 20
0.237209
  0
LWPOLYLINE
  5
11F
100
AcDbEntity
  8
R2V
  6
ByLayer
 62
    0
370
   -1
100
AcDbPolyline
 90
   14
 70
    0
 43
0
 10
4.404651
 20
0.232558
 10
4.344186
 20
0.297674
 10
4.362791
 20
0.386047
 10
4.525581
 20
0.753488
 10
4.604651
 20
0.795349
 10
4.95814
 20
0.795349
 10
5.018605
 20
0.772093
 10
5.060465
 20
0.702326
 10
5.037209
 20
0.581395
 10
4.948837
 20
0.390698
 10
4.883721
 20
0.302326
 10
4.827907
 20
0.260465
 10
4.748837
 20
0.232558
 10
4.4
 20
0.237209
  0
LWPOLYLINE
  5
120
100
AcDbEntity
  8
R2V
  6
ByLayer
 62
    0
370
   -1
100
AcDbPolyline
 90
    7
 70
    0
 43
0
 10
7.497674
 20
0.232558
 10
7.851163
 20
0.237209
 10
7.92093
 20
0.27907
 10
7.972093
 20
0.409302
 10
7.972093
 20
0.474419
 10
7.930233
 20
0.516279
 10
7.748837
 20
0.516279
  0
LWPOLYLINE
  5
121
100
AcDbEntity
  8
R2V
  6
ByLayer
 62
    0
370
   -1
100
AcDbPolyline
 90
    9
 70
    0
 43
0
 10
7.497674
 20
0.232558
 10
7.432558
 20
0.255814
 10
7.390698
 20
0.339535
 10
7.413953
 20
0.451163
 10
7.497674
 20
0.632558
 10
7.55814
 20
0.716279
 10
7.609302
 20
0.75814
 10
7.688372
 20
0.790698
 10
8.181395
 20
0.795349
  0
LWPOLYLINE
  5
122
100
AcDbEntity
  8
R2V
  6
ByLayer
 62
    0
370
   -1
100
AcDbPolyline
 90
   11
 70
    0
 43
0
 10
6.293023
 20
0.260465
 10
6.474419
 20
0.688372
 10
6.544186
 20
0.725581
 10
6.586047
 20
0.725581
 10
6.632558
 20
0.6930229999999999
 10
6.795349
 20
0.283721
 10
6.8
 20
0.283721
 10
6.925581
 20
0.27907
 10
6.948837
 20
0.293023
 10
7.153488
 20
0.767442
 10
7.274419
 20
0.837209
  0
LWPOLYLINE
  5
123
100
AcDbEntity
  8
R2V
  6
ByLayer
 62
    0
370
   -1
100
AcDbPolyline
 90
    3
 70
    0
 43
0
 10
0.316279
 20
1.148837
 10
0.683721
 20
1.153488
 10
0.781395
 20
1.223256
  0
LWPOLYLINE
  5
124
100
AcDbEntity
  8
R2V
  6
ByLayer
 62
    0
370
   -1
100
AcDbPolyline
 90
   11
 70
    0
 43
0
 10
0.316279
 20
1.148837
 10
0.274419
 20
1.172093
 10
0.246512
 20
1.209302
 10
0.223256
 20
1.283721
 10
0.237209
 20
1.460465
 10
0.344186
 20
1.953488
 10
0.381395
 20
2.055814
 10
0.432558
 20
2.139535
 10
0.493023
 20
2.186047
 10
0.562791
 20
2.2
 10
0.893023
 20
2.2
  0
LWPOLYLINE
  5
125
100
AcDbEntity
  8
R2V
  6
ByLayer
 62
    0
370
   -1
100
AcDbPolyline
 90
   21
 70
    0
 43
0
 10
3.990698
 20
1.148837
 10
4.27907
 20
1.153488
 10
4.344186
 20
1.186047
 10
4.4
 20
1.251163
 10
4.451163
 20
1.367442
 10
4.525581
 20
1.693023
 10
4.572093
 20
1.92093
 10
4.581395
 20
2.060465
 10
4.553488
 20
2.153488
 10
4.506977
 20
2.195349
 10
4.2
 20
2.195349
 10
4.144186
 20
2.172093
 10
4.097674
 20
2.125581
 10
4.046512
 20
2.037209
 10
3.995349
 20
1.869767
 10
3.906977
 20
1.437209
 10
3.897674
 20
1.283721
 10
3.92093
 20
1.209302
 10
3.953488
 20
1.167442
 10
3.95814
 20
1.167442
 10
3.990698
 20
1.148837
  0
LWPOLYLINE
  5
126
100
AcDbEntity
  8
R2V
  6
ByLayer
 62
    0
370
   -1
100
AcDbPolyline
 90
    3
 70
    0
 43
0
 10
7.637209
 20
1.148837
 10
8.130233
 20
1.153488
 10
8.227907
 20
1.223256
  0
LWPOLYLINE
  5
127
100
AcDbEntity
  8
R2V
  6
ByLayer
 62
    0
370
   -1
100
AcDbPolyline
 90
    4
 70
    0
 43
0
 10
7.637209
 20
1.148837
 10
7.6
 20
1.181395
 10
7.613953
 20
1.339535
 10
7.790698
 20
2.181395
  0
LWPOLYLINE
  5
128
100
AcDbEntity
  8
R2V
  6
ByLayer
 62
    0
370
   -1
100
AcDbPolyline
 90
    3
 70
    0
 43
0
 10
8.562791000000001
 20
1.148837
 10
9.055814
 20
1.153488
 10
9.153487999999999
 20
1.223256
  0
LWPOLYLINE
  5
129
100
AcDbEntity
  8
R2V
  6
ByLayer
 62
    0
370
   -1
100
AcDbPolyline
 90
    4
 70
    0
 43
0
 10
8.562791000000001
 20
1.148837
 10
8.525581000000001
 20
1.181395
 10
8.539535000000001
 20
1.339535
 10
8.716279
 20
2.181395
  0
ENDBLK
  5
8D
330
8B
100
AcDbEntity
  8
0
100
AcDbBlockEnd
  0
ENDSEC
  0
SECTION
  2
ENTITIES
  0
INSERT
  5
12A
100
AcDbEntity
  8
0
  6
ByLayer
 62
  256
370
   -1
100
AcDbBlockReference
  2
Cannonball Text (for ball)-0
 10
4.776173741153571
 20
27.86101349006245
 30
0
 41
1
 42
1
 43
0
 50
0
 70
    1
 71
    1
 44
0
 45
0
  0
ARC
  5
12B
100
AcDbEntity
  8
0
  6
ByLayer
 62
  256
370
   -1
100
AcDbCircle
 10
16.52957201890564
 20
22.49246046751364
 40
10.71512708588958
100
AcDbArc
 50
76.69931322574816
 51
43.30068677425181
  0
LINE
  5
12C
100
AcDbEntity
  8
0
  6
ByLayer
 62
  256
370
   -1
100
AcDbLine
 10
18.99470918053083
 20
32.92016621907464
 11
20.63041808646835
 21
35.7532971505513
  0
LINE
  5
12D
100
AcDbEntity
  8
0
  6
ByLayer
 62
  256
370
   -1
100
AcDbLine
 10
25.96337042807147
 20
32.67431568055133
 11
24.32766152213395
 21
29.84118474907461
  0
ARC
  5
12E
100
AcDbEntity
  8
0
  6
ByLayer
 62
  256
370
   -1
100
AcDbCircle
 10
25.46340614604617
 20
32.96297019336379
 40
0.577309025625
100
AcDbArc
 50
329.9999999999999
 51
59.99999999999983
  0
ARC
  5
12F
100
AcDbEntity
  8
0
  6
ByLayer
 62
  256
370
   -1
100
AcDbCircle
 10
21.13038236849366
 20
35.46464263773879
 40
0.577309025625
100
AcDbArc
 50
59.99999999999993
 51
149.9999999999999
  0
LINE
  5
130
100
AcDbEntity
  8
0
  6
ByLayer
 62
  256
370
   -1
100
AcDbLine
 10
24.1594134791215
 20
34.43146828952121
 11
25.75206065885868
 21
33.46293447538909
  0
ARC
  5
131
100
AcDbEntity
  8
0
  6
ByLayer
 62
  256
370
   -1
100
AcDbCircle
 10
12.8028316308766
 20
40.96848126900875
 40
11.86428742348122
100
AcDbArc
 50
329.8107118789409
 51
355.1151469605899
  0
ARC
  5
132
100
AcDbEntity
  8
0
  6
ByLayer
 62
  256
370
   -1
100
AcDbCircle
 10
13.90429323738948
 20
40.39752434814091
 40
11.86428742348122
100
AcDbArc
 50
329.8107118789409
 51
355.1151469605899
  0
LINE
  5
133
100
AcDbEntity
  8
0
  6
ByLayer
 62
  256
370
   -1
100
AcDbLine
 10
21.41903688130617
 20
35.96460691976409
 11
23.05795187260867
 21
35.00242521038911
  0
LINE
  5
134
100
AcDbEntity
  8
0
  6
ByLayer
 62
  256
370
   -1
100
AcDbLine
 10
24.62402609454722
 20
39.95819540893859
 11
21.13524393149817
 21
38.01759829063462
  0
LINE
  5
135
100
AcDbEntity
  8
0
  6
ByLayer
 62
  256
370
   -1
100
AcDbLine
 10
28.94241252589148
 20
36.82578612145659
 11
25.7254877010601
 21
39.38723848807075
  0
LINE
  5
136
100
AcDbEntity
  8
0
  6
ByLayer
 62
  256
370
   -1
100
AcDbLine
 10
26.54982724048267
 20
41.06565015166069
 11
28.94241252589148
 21
36.82578612145659
  0
LINE
  5
137
100
AcDbEntity
  8
0
  6
ByLayer
 62
  256
370
   -1
100
AcDbLine
 10
26.91192745216108
 20
43.99347779477006
 11
31.69263105546793
 21
44.92969891708481
  0
LINE
  5
138
100
AcDbEntity
  8
0
  6
ByLayer
 62
  256
370
   -1
100
AcDbLine
 10
31.69263105546793
 20
44.92969891708481
 11
27.34364962029417
 21
42.72945147286549
  0
LINE
  5
139
100
AcDbEntity
  8
0
  6
ByLayer
 62
  256
370
   -1
100
AcDbLine
 10
31.51946998703647
 20
40.61718555332857
 11
26.54982724048267
 21
41.06565015166069
  0
LINE
  5
13A
100
AcDbEntity
  8
0
  6
ByLayer
 62
  256
370
   -1
100
AcDbLine
 10
27.34364962029417
 20
42.72945147286549
 11
31.51946998703647
 21
40.61718555332857
  0
LINE
  5
13B
100
AcDbEntity
  8
0
  6
ByLayer
 62
  256
370
   -1
100
AcDbLine
 10
27.79280059366789
 20
48.69093967393798
 11
26.91192745216108
 21
43.99347779477006
  0
LINE
  5
13C
100
AcDbEntity
  8
0
  6
ByLayer
 62
  256
370
   -1
100
AcDbLine
 10
21.13524393149817
 20
38.01759829063462
 11
23.79630307468994
 21
41.70431755272131
  0
LINE
  5
13D
100
AcDbEntity
  8
0
  6
ByLayer
 62
  256
370
   -1
100
AcDbLine
 10
23.79630307468994
 20
41.70431755272131
 11
19.13153567962297
 21
41.91911959217998
  0
LINE
  5
13E
100
AcDbEntity
  8
0
  6
ByLayer
 62
  256
370
   -1
100
AcDbLine
 10
19.13153567962297
 20
41.91911959217998
 11
24.11338324117924
 21
43.17647546856455
  0
LINE
  5
13F
100
AcDbEntity
  8
0
  6
ByLayer
 62
  256
370
   -1
100
AcDbLine
 10
24.11338324117924
 20
43.17647546856455
 11
20.34278313853486
 21
47.02906980946443
  0
LINE
  5
140
100
AcDbEntity
  8
0
  6
ByLayer
 62
  256
370
   -1
100
AcDbLine
 10
20.34278313853486
 20
47.02906980946443
 11
25.26365461494743
 21
44.13185304653774
  0
LINE
  5
141
100
AcDbEntity
  8
0
  6
ByLayer
 62
  256
370
   -1
100
AcDbLine
 10
25.26365461494743
 20
44.13185304653774
 11
27.79280059366789
 21
48.69093967393798
  0
ENDSEC
  0
SECTION
  2
OBJECTS
  0
DICTIONARY
  5
C
330
0
100
AcDbDictionary
281
    1
  3
ACAD_GROUP
350
D
  0
DICTIONARY
  5
D
330
C
100
AcDbDictionary
281
    1
  0
ENDSEC
  0
EOF
