  0
SECTION
  2
HEADER
  9
$ACADVER
  1
AC1009
  9
$INSUNITS
 70
4
  9
$DIMEXE
 40
1.25
  9
$TEXTSTYLE
  7
Standard
  9
$LIMMIN
 10
0.0
 20
0.0
  0
ENDSEC
  0
SECTION
  2
TABLES
  0
TABLE
  2
VPORT
 70
1
  0
VPORT
  2
*Active
 70
0
 10
0.0
 20
0.0
 11
1.0
 21
1.0
 12
286.3055555555554861
 22
148.5
 13
0.0
 23
0.0
 14
10.0
 24
10.0
 15
10.0
 25
10.0
 16
0.0
 26
0.0
 36
1.0
 17
0.0
 27
0.0
 37
0.0
 40
297.0
 41
1.92798353909465
 42
50.0
 43
0.0
 44
0.0
 50
0.0
 51
0.0
 71
0
 72
100
 73
1
 74
3
 75
1
 76
1
 77
0
 78
0
  0
ENDTAB
  0
TABLE
  2
LTYPE
 70
25
  0
LTYPE
  2
CONTINUOUS
 70
0
  3
Solid line
 72
65
 73
0
 40
0.0
  0
LTYPE
  2
ACAD_ISO02W100
 70
0
  3
ISO Dashed __ __ __ __ __ __ __ __ __ __ _
 72
65
 73
2
 40
15.0
 49
12.0
 49
-3.0
  0
LTYPE
  2
ACAD_ISO03W100
 70
0
  3
ISO Dashed with Distance __    __    __    _
 72
65
 73
2
 40
30.0
 49
12.0
 49
-18.0
  0
LTYPE
  2
ACAD_ISO04W100
 70
0
  3
ISO Long Dashed Dotted ____ . ____ . __
 72
65
 73
4
 40
30.0
 49
24.0
 49
-3.0
 49
0.0
 49
-3.0
  0
LTYPE
  2
ACAD_ISO05W100
 70
0
  3
ISO Long Dashed Double Dotted ____ .. __
 72
65
 73
6
 40
33.0
 49
24.0
 49
-3.0
 49
0.0
 49
-3.0
 49
0.0
 49
-3.0
  0
LTYPE
  2
BORDER
 70
0
  3
Border __ __ . __ __ . __ __ . __ __ . __ __ .
 72
65
 73
6
 40
44.4500000000000028
 49
12.6999999999999993
 49
-6.3499999999999996
 49
12.6999999999999993
 49
-6.3499999999999996
 49
0.0
 49
-6.3499999999999996
  0
LTYPE
  2
BORDER2
 70
0
  3
Border (.5x) __.__.__.__.__.__.__.__.__.__.__.
 72
65
 73
6
 40
22.2250000000000014
 49
6.3499999999999996
 49
-3.1749999999999998
 49
6.3499999999999996
 49
-3.1749999999999998
 49
0.0
 49
-3.1749999999999998
  0
LTYPE
  2
BORDERX2
 70
0
  3
Border (2x) ____  ____  .  ____  ____  .  ___
 72
65
 73
6
 40
88.9000000000000057
 49
25.3999999999999986
 49
-12.6999999999999993
 49
25.3999999999999986
 49
-12.6999999999999993
 49
0.0
 49
-12.6999999999999993
  0
LTYPE
  2
CENTER
 70
0
  3
Center ____ _ ____ _ ____ _ ____ _ ____ _ ____
 72
65
 73
4
 40
50.7999999999999972
 49
31.75
 49
-6.3499999999999996
 49
6.3499999999999996
 49
-6.3499999999999996
  0
LTYPE
  2
CENTER2
 70
0
  3
Center (.5x) ___ _ ___ _ ___ _ ___ _ ___ _ ___
 72
65
 73
4
 40
28.5749999999999993
 49
19.0500000000000007
 49
-3.1749999999999998
 49
3.1749999999999998
 49
-3.1749999999999998
  0
LTYPE
  2
CENTERX2
 70
0
  3
Center (2x) ________  __  ________  __  _____
 72
65
 73
4
 40
101.5999999999999943
 49
63.5
 49
-12.6999999999999993
 49
12.6999999999999993
 49
-12.6999999999999993
  0
LTYPE
  2
DASHDOT
 70
0
  3
Dash dot __ . __ . __ . __ . __ . __ . __ . __
 72
65
 73
4
 40
25.3999999999999986
 49
12.6999999999999993
 49
-6.3499999999999996
 49
0.0
 49
-6.3499999999999996
  0
LTYPE
  2
DASHDOT2
 70
0
  3
Dash dot (.5x) _._._._._._._._._._._._._._._.
 72
65
 73
4
 40
12.6999999999999993
 49
6.3499999999999996
 49
-3.1749999999999998
 49
0.0
 49
-3.1749999999999998
  0
LTYPE
  2
DASHDOTX2
 70
0
  3
Dash dot (2x) ____  .  ____  .  ____  .  ___
 72
65
 73
4
 40
50.7999999999999972
 49
25.3999999999999986
 49
-12.6999999999999993
 49
0.0
 49
-12.6999999999999993
  0
LTYPE
  2
DASHED
 70
0
  3
Dashed __ __ __ __ __ __ __ __ __ __ __ __ __ _
 72
65
 73
2
 40
19.0500000000000007
 49
12.6999999999999993
 49
-6.3499999999999996
  0
LTYPE
  2
DASHED2
 70
0
  3
Dashed (.5x) _ _ _ _ _ _ _ _ _ _ _ _ _ _ _ _ _
 72
65
 73
2
 40
9.5250000000000004
 49
6.3499999999999996
 49
-3.1749999999999998
  0
LTYPE
  2
DASHEDX2
 70
0
  3
Dashed (2x) ____  ____  ____  ____  ____  ___
 72
65
 73
2
 40
38.1000000000000014
 49
25.3999999999999986
 49
-12.6999999999999993
  0
LTYPE
  2
DIVIDE
 70
0
  3
Divide ____ . . ____ . . ____ . . ____ . . ____
 72
65
 73
6
 40
31.75
 49
12.6999999999999993
 49
-6.3499999999999996
 49
0.0
 49
-6.3499999999999996
 49
0.0
 49
-6.3499999999999996
  0
LTYPE
  2
DIVIDE2
 70
0
  3
Divide (.5x) __..__..__..__..__..__..__..__.._
 72
65
 73
6
 40
15.875
 49
6.3499999999999996
 49
-3.1749999999999998
 49
0.0
 49
-3.1749999999999998
 49
0.0
 49
-3.1749999999999998
  0
LTYPE
  2
DIVIDEX2
 70
0
  3
Divide (2x) ________  .  .  ________  .  .  _
 72
65
 73
6
 40
63.5
 49
25.3999999999999986
 49
-12.6999999999999993
 49
0.0
 49
-12.6999999999999993
 49
0.0
 49
-12.6999999999999993
  0
LTYPE
  2
DOT
 70
0
  3
Dot . . . . . . . . . . . . . . . . . . . . . .
 72
65
 73
2
 40
6.3499999999999996
 49
0.0
 49
-6.3499999999999996
  0
LTYPE
  2
DOT2
 70
0
  3
Dot (.5x) .....................................
 72
65
 73
2
 40
3.1749999999999998
 49
0.0
 49
-3.1749999999999998
  0
LTYPE
  2
DOTX2
 70
0
  3
Dot (2x) .  .  .  .  .  .  .  .  .  .  .  .  .
 72
65
 73
2
 40
12.6999999999999993
 49
0.0
 49
-12.6999999999999993
  0
ENDTAB
  0
TABLE
  2
LAYER
 70
3
  0
LAYER
  2
base
 70
0
 62
7
  6
BYLAYER
  0
LAYER
  2
TREE_1
 70
0
 62
7
  6
BYLAYER
  0
LAYER
  2
PROFILES
 70
0
 62
7
  6
BYLAYER
  0
ENDTAB
  0
TABLE
  2
STYLE
 70
1
  0
STYLE
  2
Standard
 70
0
 40
0.0
 41
0.75
 50
0.0
 71
0
 42
2.5
  3
txt
  4

  0
ENDTAB
  0
TABLE
  2
VIEW
 70
0
  0
ENDTAB
  0
TABLE
  2
UCS
 70
0
  0
ENDTAB
  0
TABLE
  2
APPID
 70
1
  0
APPID
  2
ACAD
 70
0
  0
ENDTAB
  0
TABLE
  2
DIMSTYLE
 70
1
  0
DIMSTYLE
  2
Standard
  3

  4

  5

  6

  7

 40
1.0
 41
1.0
 42
1.0
 43
3.75
 44
1.0
 45
0.0
 46
0.0
 47
0.0
 48
0.0
 70
0
 71
0
 72
0
 73
0
 74
0
 75
0
 76
0
 77
1
 78
8
140
1.0
141
2.5
142
0.0
143
0.03937007874016
144
1.0
145
0.0
146
1.0
147
1.0
170
0
171
3
172
1
173
0
174
0
175
0
176
0
177
0
178
0
  0
ENDTAB
  0
ENDSEC
  0
SECTION
  2
BLOCKS
  0
BLOCK
  2
$MODEL_SPACE
 70
0
 10
0.0
 20
0.0
 30
0.0
  3
$MODEL_SPACE
  1

  0
ENDBLK
  0
BLOCK
  2
$PAPER_SPACE
 70
0
 10
0.0
 20
0.0
 30
0.0
  3
$PAPER_SPACE
  1

  0
ENDBLK
  0
BLOCK
  2
base
 70
0
 10
0.0
 20
0.0
 30
0.0
  3
base
  1

  0
LINE
  8
base
 62
0
  6
CONTINUOUS
 10
0.0
 20
0.0
 30
0.0
 11
10.0
 21
0.0
 31
0.0
  0
LINE
  8
base
 62
0
  6
CONTINUOUS
 10
0.0
 20
0.0
 30
0.0
 11
0.0
 21
10.0
 31
0.0
  0
LINE
  8
base
 62
0
  6
CONTINUOUS
 10
420.0
 20
0.0
 30
0.0
 11
410.0
 21
0.0
 31
0.0
  0
LINE
  8
base
 62
0
  6
CONTINUOUS
 10
420.0
 20
0.0
 30
0.0
 11
420.0
 21
10.0
 31
0.0
  0
LINE
  8
base
 62
0
  6
CONTINUOUS
 10
420.0
 20
287.0
 30
0.0
 11
420.0
 21
297.0
 31
0.0
  0
LINE
  8
base
 62
0
  6
CONTINUOUS
 10
420.0
 20
297.0
 30
0.0
 11
410.0
 21
297.0
 31
0.0
  0
LINE
  8
base
 62
0
  6
CONTINUOUS
 10
10.0
 20
297.0
 30
0.0
 11
0.0
 21
297.0
 31
0.0
  0
LINE
  8
base
 62
0
  6
CONTINUOUS
 10
0.0
 20
297.0
 30
0.0
 11
0.0
 21
287.0
 31
0.0
  0
LINE
  8
base
 62
0
  6
CONTINUOUS
 10
10.0
 20
10.0
 30
0.0
 11
410.0
 21
10.0
 31
0.0
  0
LINE
  8
base
 62
0
  6
CONTINUOUS
 10
410.0
 20
10.0
 30
0.0
 11
410.0
 21
287.0
 31
0.0
  0
LINE
  8
base
 62
0
  6
CONTINUOUS
 10
410.0
 20
287.0
 30
0.0
 11
10.0
 21
287.0
 31
0.0
  0
LINE
  8
base
 62
0
  6
CONTINUOUS
 10
10.0
 20
287.0
 30
0.0
 11
10.0
 21
10.0
 31
0.0
  0
LINE
  8
base
 62
0
  6
CONTINUOUS
 10
210.0
 20
10.0
 30
0.0
 11
210.0
 21
5.0
 31
0.0
  0
LINE
  8
base
 62
0
  6
CONTINUOUS
 10
160.0
 20
5.0
 30
0.0
 11
260.0
 21
5.0
 31
0.0
  0
LINE
  8
base
 62
0
  6
CONTINUOUS
 10
160.0
 20
5.0
 30
0.0
 11
160.0
 21
10.0
 31
0.0
  0
LINE
  8
base
 62
0
  6
CONTINUOUS
 10
260.0
 20
5.0
 30
0.0
 11
260.0
 21
10.0
 31
0.0
  0
LINE
  8
base
 62
0
  6
CONTINUOUS
 10
170.0
 20
5.0
 30
0.0
 11
170.0
 21
10.0
 31
0.0
  0
LINE
  8
base
 62
0
  6
CONTINUOUS
 10
180.0
 20
5.0
 30
0.0
 11
180.0
 21
10.0
 31
0.0
  0
LINE
  8
base
 62
0
  6
CONTINUOUS
 10
190.0
 20
5.0
 30
0.0
 11
190.0
 21
10.0
 31
0.0
  0
LINE
  8
base
 62
0
  6
CONTINUOUS
 10
200.0
 20
5.0
 30
0.0
 11
200.0
 21
10.0
 31
0.0
  0
LINE
  8
base
 62
0
  6
CONTINUOUS
 10
220.0
 20
5.0
 30
0.0
 11
220.0
 21
10.0
 31
0.0
  0
LINE
  8
base
 62
0
  6
CONTINUOUS
 10
230.0
 20
5.0
 30
0.0
 11
230.0
 21
10.0
 31
0.0
  0
LINE
  8
base
 62
0
  6
CONTINUOUS
 10
240.0
 20
5.0
 30
0.0
 11
240.0
 21
10.0
 31
0.0
  0
LINE
  8
base
 62
0
  6
CONTINUOUS
 10
250.0
 20
5.0
 30
0.0
 11
250.0
 21
10.0
 31
0.0
  0
LINE
  8
base
 62
0
  6
CONTINUOUS
 10
5.0
 20
148.5
 30
0.0
 11
15.0
 21
148.5
 31
0.0
  0
LINE
  8
base
 62
0
  6
CONTINUOUS
 10
405.0
 20
148.5
 30
0.0
 11
415.0
 21
148.5
 31
0.0
  0
LINE
  8
base
 62
0
  6
CONTINUOUS
 10
210.0
 20
282.0
 30
0.0
 11
210.0
 21
292.0
 31
0.0
  0
LINE
  8
base
 62
0
  6
CONTINUOUS
 10
210.0
 20
10.0
 30
0.0
 11
210.0
 21
15.0
 31
0.0
  0
LINE
  8
base
 62
0
  6
CONTINUOUS
 10
12.5
 20
151.0
 30
0.0
 11
12.5
 21
146.0
 31
0.0
  0
LINE
  8
base
 62
0
  6
CONTINUOUS
 10
12.5
 20
146.0
 30
0.0
 11
7.5
 21
148.5
 31
0.0
  0
LINE
  8
base
 62
0
  6
CONTINUOUS
 10
7.5
 20
148.5
 30
0.0
 11
12.5
 21
151.0
 31
0.0
  0
LINE
  8
base
 62
0
  6
CONTINUOUS
 10
210.0
 20
7.5
 30
0.0
 11
207.5
 21
12.5
 31
0.0
  0
LINE
  8
base
 62
0
  6
CONTINUOUS
 10
207.5
 20
12.5
 30
0.0
 11
212.5
 21
12.5
 31
0.0
  0
LINE
  8
base
 62
0
  6
CONTINUOUS
 10
212.5
 20
12.5
 30
0.0
 11
210.0
 21
7.5
 31
0.0
  0
LINE
  8
base
 62
0
  6
CONTINUOUS
 10
10.0
 20
194.5
 30
0.0
 11
5.0
 21
194.5
 31
0.0
  0
LINE
  8
base
 62
0
  6
CONTINUOUS
 10
10.0
 20
240.5
 30
0.0
 11
5.0
 21
240.5
 31
0.0
  0
LINE
  8
base
 62
0
  6
CONTINUOUS
 10
10.0
 20
102.5
 30
0.0
 11
5.0
 21
102.5
 31
0.0
  0
LINE
  8
base
 62
0
  6
CONTINUOUS
 10
10.0
 20
56.5
 30
0.0
 11
5.0
 21
56.5
 31
0.0
  0
LINE
  8
base
 62
0
  6
CONTINUOUS
 10
415.0
 20
240.5
 30
0.0
 11
410.0
 21
240.5
 31
0.0
  0
LINE
  8
base
 62
0
  6
CONTINUOUS
 10
415.0
 20
194.5
 30
0.0
 11
410.0
 21
194.5
 31
0.0
  0
LINE
  8
base
 62
0
  6
CONTINUOUS
 10
415.0
 20
102.5
 30
0.0
 11
410.0
 21
102.5
 31
0.0
  0
LINE
  8
base
 62
0
  6
CONTINUOUS
 10
415.0
 20
56.5
 30
0.0
 11
410.0
 21
56.5
 31
0.0
  0
LINE
  8
base
 62
0
  6
CONTINUOUS
 10
240.0
 20
30.0
 30
0.0
 11
410.0
 21
30.0
 31
0.0
  0
LINE
  8
base
 62
0
  6
CONTINUOUS
 10
240.0
 20
40.0
 30
0.0
 11
410.0
 21
40.0
 31
0.0
  0
LINE
  8
base
 62
0
  6
CONTINUOUS
 10
240.0
 20
10.0
 30
0.0
 11
240.0
 21
40.0
 31
0.0
  0
LINE
  8
base
 62
0
  6
CONTINUOUS
 10
297.0003600000000006
 20
9.9963280000000001
 30
0.0
 11
297.0003600000000006
 21
29.9963279999999983
 31
0.0
  0
LINE
  8
base
 62
0
  6
CONTINUOUS
 10
297.0
 20
30.0
 30
0.0
 11
297.0
 21
40.0
 31
0.0
  0
LINE
  8
base
 62
0
  6
CONTINUOUS
 10
240.0
 20
46.0
 30
0.0
 11
410.0
 21
46.0
 31
0.0
  0
LINE
  8
base
 62
0
  6
CONTINUOUS
 10
259.6199240000000259
 20
39.9947850000000003
 30
0.0
 11
259.6199240000000259
 21
45.9947850000000003
 31
0.0
  0
LINE
  8
base
 62
0
  6
CONTINUOUS
 10
240.0
 20
40.0
 30
0.0
 11
240.0
 21
46.0
 31
0.0
  0
LINE
  8
base
 62
0
  6
CONTINUOUS
 10
368.9510099999999966
 20
40.0
 30
0.0
 11
368.9510099999999966
 21
46.0
 31
0.0
  0
LINE
  8
base
 62
0
  6
CONTINUOUS
 10
390.3850899999999911
 20
40.0
 30
0.0
 11
390.3850899999999911
 21
46.0
 31
0.0
  0
LINE
  8
base
 62
0
  6
CONTINUOUS
 10
240.0
 20
281.0
 30
0.0
 11
240.0
 21
287.0
 31
0.0
  0
LINE
  8
base
 62
0
  6
CONTINUOUS
 10
240.0
 20
281.0
 30
0.0
 11
410.0
 21
281.0
 31
0.0
  0
LINE
  8
base
 62
0
  6
CONTINUOUS
 10
252.0
 20
281.0
 30
0.0
 11
252.0
 21
287.0
 31
0.0
  0
LINE
  8
base
 62
0
  6
CONTINUOUS
 10
361.0
 20
281.0
 30
0.0
 11
361.0
 21
287.0
 31
0.0
  0
LINE
  8
base
 62
0
  6
CONTINUOUS
 10
381.0
 20
281.0
 30
0.0
 11
381.0
 21
287.0
 31
0.0
  0
LINE
  8
base
 62
0
  6
CONTINUOUS
 10
396.0
 20
281.0
 30
0.0
 11
396.0
 21
287.0
 31
0.0
  0
LINE
  8
base
 62
0
  6
CONTINUOUS
 10
110.0
 20
287.0
 30
0.0
 11
110.0
 21
292.0
 31
0.0
  0
LINE
  8
base
 62
0
  6
CONTINUOUS
 10
160.0
 20
287.0
 30
0.0
 11
160.0
 21
292.0
 31
0.0
  0
LINE
  8
base
 62
0
  6
CONTINUOUS
 10
60.0
 20
287.0
 30
0.0
 11
60.0
 21
292.0
 31
0.0
  0
LINE
  8
base
 62
0
  6
CONTINUOUS
 10
260.0
 20
287.0
 30
0.0
 11
260.0
 21
292.0
 31
0.0
  0
LINE
  8
base
 62
0
  6
CONTINUOUS
 10
310.0
 20
287.0
 30
0.0
 11
310.0
 21
292.0
 31
0.0
  0
LINE
  8
base
 62
0
  6
CONTINUOUS
 10
360.0
 20
287.0
 30
0.0
 11
360.0
 21
292.0
 31
0.0
  0
LINE
  8
base
 62
0
  6
CONTINUOUS
 10
60.0
 20
5.0
 30
0.0
 11
60.0
 21
10.0
 31
0.0
  0
LINE
  8
base
 62
0
  6
CONTINUOUS
 10
110.0
 20
5.0
 30
0.0
 11
110.0
 21
10.0
 31
0.0
  0
LINE
  8
base
 62
0
  6
CONTINUOUS
 10
310.0
 20
5.0
 30
0.0
 11
310.0
 21
10.0
 31
0.0
  0
LINE
  8
base
 62
0
  6
CONTINUOUS
 10
360.0
 20
5.0
 30
0.0
 11
360.0
 21
10.0
 31
0.0
  0
LINE
  8
base
 62
0
  6
CONTINUOUS
 10
241.0194679999999892
 20
44.862681000000002
 30
0.0
 11
258.2571639999999888
 21
41.3567090000000022
 31
0.0
  0
LINE
  8
base
 62
0
  6
CONTINUOUS
 10
260.8866429999999923
 20
44.862681000000002
 30
0.0
 11
367.8187869999999862
 21
41.2106270000000023
 31
0.0
  0
LINE
  8
base
 62
0
  6
CONTINUOUS
 10
370.0100199999999973
 20
45.0087630000000019
 30
0.0
 11
389.0007009999999923
 21
41.2106270000000023
 31
0.0
  0
LINE
  8
base
 62
0
  6
CONTINUOUS
 10
391.3380159999999819
 20
44.862681000000002
 30
0.0
 11
408.8678750000000264
 21
41.0645450000000025
 31
0.0
  0
LINE
  8
base
 62
0
  6
CONTINUOUS
 10
241.1655509999999936
 20
38.8733119999999985
 30
0.0
 11
295.8002799999999866
 21
31.2770399999999995
 31
0.0
  0
LINE
  8
base
 62
0
  6
CONTINUOUS
 10
298.2836770000000115
 20
38.8733119999999985
 30
0.0
 11
408.721792999999991
 21
31.2770399999999995
 31
0.0
  0
LINE
  8
base
 62
0
  6
CONTINUOUS
 10
241.1655509999999936
 20
28.6475609999999996
 30
0.0
 11
295.8002799999999866
 21
11.2637830000000001
 31
0.0
  0
LINE
  8
base
 62
0
  6
CONTINUOUS
 10
298.1375949999999762
 20
28.7936429999999994
 30
0.0
 11
408.8678750000000264
 21
11.2637830000000001
 31
0.0
  0
ENDBLK
  0
BLOCK
  2
TREE_1
 70
0
 10
0.0
 20
0.0
 30
0.0
  3
TREE_1
  1

  0
LINE
  8
TREE_1
 62
0
  6
CONTINUOUS
 10
50.6375000000000028
 20
171.4987318840579746
 30
0.0
 11
50.6375000000000028
 21
271.4987318840579746
 31
0.0
  0
LINE
  8
TREE_1
 62
0
  6
CONTINUOUS
 10
50.6375000000000028
 20
271.4987318840579746
 30
0.0
 11
52.6375000000000028
 21
269.4987318840579746
 31
0.0
  0
LINE
  8
TREE_1
 62
0
  6
CONTINUOUS
 10
52.6375000000000028
 20
269.4987318840579746
 30
0.0
 11
52.6375000000000028
 21
173.4987318840579746
 31
0.0
  0
LINE
  8
TREE_1
 62
0
  6
CONTINUOUS
 10
52.6375000000000028
 20
173.4987318840579746
 30
0.0
 11
50.6375000000000028
 21
171.4987318840579746
 31
0.0
  0
LINE
  8
TREE_1
 62
0
  6
CONTINUOUS
 10
50.6375000000000028
 20
271.4987318840579746
 30
0.0
 11
150.6374999999999886
 21
271.4987318840579746
 31
0.0
  0
LINE
  8
TREE_1
 62
0
  6
CONTINUOUS
 10
150.6374999999999886
 20
271.4987318840579746
 30
0.0
 11
148.6374999999999886
 21
269.4987318840579746
 31
0.0
  0
LINE
  8
TREE_1
 62
0
  6
CONTINUOUS
 10
148.6374999999999886
 20
269.4987318840579746
 30
0.0
 11
52.6375000000000028
 21
269.4987318840579746
 31
0.0
  0
LINE
  8
TREE_1
 62
0
  6
CONTINUOUS
 10
52.6375000000000028
 20
269.4987318840579746
 30
0.0
 11
50.6375000000000028
 21
271.4987318840579746
 31
0.0
  0
LINE
  8
TREE_1
 62
0
  6
CONTINUOUS
 10
150.6374999999999886
 20
271.4987318840579746
 30
0.0
 11
150.6374999999999886
 21
171.4987318840579746
 31
0.0
  0
LINE
  8
TREE_1
 62
0
  6
CONTINUOUS
 10
150.6374999999999886
 20
171.4987318840579746
 30
0.0
 11
148.6374999999999886
 21
173.4987318840579746
 31
0.0
  0
LINE
  8
TREE_1
 62
0
  6
CONTINUOUS
 10
148.6374999999999886
 20
173.4987318840579746
 30
0.0
 11
148.6374999999999886
 21
269.4987318840579746
 31
0.0
  0
LINE
  8
TREE_1
 62
0
  6
CONTINUOUS
 10
148.6374999999999886
 20
269.4987318840579746
 30
0.0
 11
150.6374999999999886
 21
271.4987318840579746
 31
0.0
  0
LINE
  8
TREE_1
 62
0
  6
CONTINUOUS
 10
150.6374999999999886
 20
171.4987318840579746
 30
0.0
 11
50.6375000000000028
 21
171.4987318840579746
 31
0.0
  0
LINE
  8
TREE_1
 62
0
  6
CONTINUOUS
 10
50.6375000000000028
 20
171.4987318840579746
 30
0.0
 11
52.6375000000000028
 21
173.4987318840579746
 31
0.0
  0
LINE
  8
TREE_1
 62
0
  6
CONTINUOUS
 10
52.6375000000000028
 20
173.4987318840579746
 30
0.0
 11
148.6374999999999886
 21
173.4987318840579746
 31
0.0
  0
LINE
  8
TREE_1
 62
0
  6
CONTINUOUS
 10
148.6374999999999886
 20
173.4987318840579746
 30
0.0
 11
150.6374999999999886
 21
171.4987318840579746
 31
0.0
  0
LINE
  8
TREE_1
 62
0
  6
CONTINUOUS
 10
49.8875000000000028
 20
173.9987318840579746
 30
0.0
 11
50.6375000000000028
 21
173.9987318840579746
 31
0.0
  0
LINE
  8
TREE_1
 62
0
  6
CONTINUOUS
 10
50.6375000000000028
 20
173.9987318840579746
 30
0.0
 11
50.6375000000000028
 21
178.9987318840579746
 31
0.0
  0
LINE
  8
TREE_1
 62
0
  6
CONTINUOUS
 10
50.6375000000000028
 20
178.9987318840579746
 30
0.0
 11
49.8875000000000028
 21
178.9987318840579746
 31
0.0
  0
LINE
  8
TREE_1
 62
0
  6
CONTINUOUS
 10
49.8875000000000028
 20
178.9987318840579746
 30
0.0
 11
49.8875000000000028
 21
173.9987318840579746
 31
0.0
  0
LINE
  8
TREE_1
 62
0
  6
CONTINUOUS
 10
49.8875000000000028
 20
268.9987318840579746
 30
0.0
 11
49.8875000000000028
 21
263.9987318840579746
 31
0.0
  0
LINE
  8
TREE_1
 62
0
  6
CONTINUOUS
 10
50.6375000000000028
 20
268.9987318840579746
 30
0.0
 11
49.8875000000000028
 21
268.9987318840579746
 31
0.0
  0
LINE
  8
TREE_1
 62
0
  6
CONTINUOUS
 10
50.6375000000000028
 20
263.9987318840579746
 30
0.0
 11
50.6375000000000028
 21
268.9987318840579746
 31
0.0
  0
LINE
  8
TREE_1
 62
0
  6
CONTINUOUS
 10
49.8875000000000028
 20
263.9987318840579746
 30
0.0
 11
50.6375000000000028
 21
263.9987318840579746
 31
0.0
  0
LINE
  8
TREE_1
 62
0
  6
DOT2
 10
50.6375000000000028
 20
171.4987318840579746
 30
0.0
 11
140.6374999999999886
 21
161.4987318840579746
 31
0.0
  0
LINE
  8
TREE_1
 62
0
  6
DOT2
 10
140.6374999999999886
 20
161.4987318840579746
 30
0.0
 11
140.6374999999999886
 21
281.4987318840579746
 31
0.0
  0
LINE
  8
TREE_1
 62
0
  6
DOT2
 10
140.6374999999999886
 20
281.4987318840579746
 30
0.0
 11
50.6375000000000028
 21
271.4987318840579746
 31
0.0
  0
LINE
  8
TREE_1
 62
0
  6
CONTINUOUS
 10
149.0124999999999886
 20
209.4987318840579746
 30
0.0
 11
150.2624999999999886
 21
209.4987318840579746
 31
0.0
  0
LINE
  8
TREE_1
 62
0
  6
CONTINUOUS
 10
150.2624999999999886
 20
209.4987318840579746
 30
0.0
 11
150.2624999999999886
 21
213.4987318840579746
 31
0.0
  0
LINE
  8
TREE_1
 62
0
  6
CONTINUOUS
 10
150.2624999999999886
 20
213.4987318840579746
 30
0.0
 11
149.0124999999999886
 21
213.4987318840579746
 31
0.0
  0
LINE
  8
TREE_1
 62
0
  6
CONTINUOUS
 10
149.0124999999999886
 20
213.4987318840579746
 30
0.0
 11
149.0124999999999886
 21
209.4987318840579746
 31
0.0
  0
ARC
  8
TREE_1
 62
0
 10
149.6374999999999886
 20
209.4987318840579746
 30
0.0
 40
0.625
 50
180.0
 51
360.0
  0
ARC
  8
TREE_1
 62
0
 10
149.6374999999999886
 20
209.4987318840579746
 30
0.0
 40
0.625
 50
360.0
 51
180.0
  0
ARC
  8
TREE_1
 62
0
 10
149.6374999999999886
 20
213.4987318840579746
 30
0.0
 40
0.625
 50
180.0
 51
360.0
  0
ARC
  8
TREE_1
 62
0
 10
149.6374999999999886
 20
213.4987318840579746
 30
0.0
 40
0.625
 50
360.0
 51
180.0
  0
LINE
  8
TREE_1
 62
0
  6
CONTINUOUS
 10
149.2624999999999886
 20
206.298731884057986
 30
0.0
 11
150.0124999999999886
 21
206.298731884057986
 31
0.0
  0
LINE
  8
TREE_1
 62
0
  6
CONTINUOUS
 10
150.0124999999999886
 20
206.298731884057986
 30
0.0
 11
150.0124999999999886
 21
210.298731884057986
 31
0.0
  0
LINE
  8
TREE_1
 62
0
  6
CONTINUOUS
 10
150.0124999999999886
 20
210.298731884057986
 30
0.0
 11
149.2624999999999886
 21
210.298731884057986
 31
0.0
  0
LINE
  8
TREE_1
 62
0
  6
CONTINUOUS
 10
149.2624999999999886
 20
210.298731884057986
 30
0.0
 11
149.2624999999999886
 21
206.298731884057986
 31
0.0
  0
ARC
  8
TREE_1
 62
0
 10
149.6374999999999886
 20
206.298731884057986
 30
0.0
 40
0.375
 50
180.0
 51
360.0
  0
ARC
  8
TREE_1
 62
0
 10
149.6374999999999886
 20
206.298731884057986
 30
0.0
 40
0.375
 50
360.0
 51
180.0
  0
LINE
  8
TREE_1
 62
0
  6
CONTINUOUS
 10
50.6375000000000028
 20
171.4987318840579746
 30
0.0
 11
50.6375000000000028
 21
159.2233695652173822
 31
0.0
  0
LINE
  8
TREE_1
 62
0
  6
CONTINUOUS
 10
150.6374999999999886
 20
171.4987318840579746
 30
0.0
 11
150.6374999999999886
 21
159.2233695652173822
 31
0.0
  0
LINE
  8
TREE_1
 62
0
  6
CONTINUOUS
 10
50.6375000000000028
 20
159.2233695652173822
 30
0.0
 11
53.6375000000000028
 21
158.4733695652173822
 31
0.0
  0
LINE
  8
TREE_1
 62
0
  6
CONTINUOUS
 10
50.6375000000000028
 20
159.2233695652173822
 30
0.0
 11
53.6375000000000028
 21
159.9733695652173822
 31
0.0
  0
LINE
  8
TREE_1
 62
0
  6
CONTINUOUS
 10
53.6375000000000028
 20
158.4733695652173822
 30
0.0
 11
53.6375000000000028
 21
159.9733695652173822
 31
0.0
  0
LINE
  8
TREE_1
 62
0
  6
CONTINUOUS
 10
53.6375000000000028
 20
159.2233695652173822
 30
0.0
 11
147.6374999999999886
 21
159.2233695652173822
 31
0.0
  0
LINE
  8
TREE_1
 62
0
  6
CONTINUOUS
 10
150.6374999999999886
 20
159.2233695652173822
 30
0.0
 11
147.6374999999999886
 21
158.4733695652173822
 31
0.0
  0
LINE
  8
TREE_1
 62
0
  6
CONTINUOUS
 10
150.6374999999999886
 20
159.2233695652173822
 30
0.0
 11
147.6374999999999886
 21
159.9733695652173822
 31
0.0
  0
LINE
  8
TREE_1
 62
0
  6
CONTINUOUS
 10
147.6374999999999886
 20
158.4733695652173822
 30
0.0
 11
147.6374999999999886
 21
159.9733695652173822
 31
0.0
  0
TEXT
  8
TREE_1
 62
0
 10
100.6375000000000028
 20
159.2733695652173935
 30
0.0
 40
3.5
  1
2000.0
 50
0.0
 41
1.0
  7
USER1
 71
0
 72
1
 11
100.6375000000000028
 21
159.2733695652173935
 31
0.0
 73
1
  0
LINE
  8
TREE_1
 62
0
  6
CONTINUOUS
 10
150.6374999999999886
 20
171.4987318840579746
 30
0.0
 11
173.173731884057986
 21
171.4987318840579746
 31
0.0
  0
LINE
  8
TREE_1
 62
0
  6
CONTINUOUS
 10
150.6374999999999886
 20
271.4987318840579746
 30
0.0
 11
173.173731884057986
 21
271.4987318840579746
 31
0.0
  0
LINE
  8
TREE_1
 62
0
  6
CONTINUOUS
 10
173.173731884057986
 20
171.4987318840579746
 30
0.0
 11
172.423731884057986
 21
174.4987318840579746
 31
0.0
  0
LINE
  8
TREE_1
 62
0
  6
CONTINUOUS
 10
173.173731884057986
 20
171.4987318840579746
 30
0.0
 11
173.923731884057986
 21
174.4987318840579746
 31
0.0
  0
LINE
  8
TREE_1
 62
0
  6
CONTINUOUS
 10
172.423731884057986
 20
174.4987318840579746
 30
0.0
 11
173.923731884057986
 21
174.4987318840579746
 31
0.0
  0
LINE
  8
TREE_1
 62
0
  6
CONTINUOUS
 10
173.173731884057986
 20
174.4987318840579746
 30
0.0
 11
173.173731884057986
 21
268.4987318840579746
 31
0.0
  0
LINE
  8
TREE_1
 62
0
  6
CONTINUOUS
 10
173.173731884057986
 20
271.4987318840579746
 30
0.0
 11
172.423731884057986
 21
268.4987318840579746
 31
0.0
  0
LINE
  8
TREE_1
 62
0
  6
CONTINUOUS
 10
173.173731884057986
 20
271.4987318840579746
 30
0.0
 11
173.923731884057986
 21
268.4987318840579746
 31
0.0
  0
LINE
  8
TREE_1
 62
0
  6
CONTINUOUS
 10
172.423731884057986
 20
268.4987318840579746
 30
0.0
 11
173.923731884057986
 21
268.4987318840579746
 31
0.0
  0
TEXT
  8
TREE_1
 62
0
 10
173.2237318840579974
 20
221.4987318840579746
 30
0.0
 40
3.5
  1
2000.0
 50
270.0
 41
1.0
  7
USER1
 71
0
 72
1
 11
173.2237318840579974
 21
221.4987318840579746
 31
0.0
 73
1
  0
ENDBLK
  0
BLOCK
  2
BLKID1
 70
0
 10
0.0
 20
0.0
 30
0.0
  3
BLKID1
  1

  0
LINE
  8
PROFILES
  6
CONTINUOUS
 10
61.0375000000000085
 20
129.9721014492753568
 30
0.0
 11
60.8875000000000028
 21
129.8221014492753795
 31
0.0
  0
LINE
  8
PROFILES
  6
CONTINUOUS
 10
60.8875000000000028
 20
130.1221014492753625
 30
0.0
 11
61.0375000000000085
 21
129.9721014492753568
 31
0.0
  0
LINE
  8
PROFILES
  6
CONTINUOUS
 10
61.4875000000000114
 20
124.9721014492753568
 30
0.0
 11
61.4875000000000114
 21
127.9471014492753795
 31
0.0
  0
LINE
  8
PROFILES
  6
CONTINUOUS
 10
61.4875000000000114
 20
127.9471014492753795
 30
0.0
 11
62.2625000000000028
 21
128.7221014492753568
 31
0.0
  0
LINE
  8
PROFILES
  6
CONTINUOUS
 10
62.2625000000000028
 20
128.7221014492753568
 30
0.0
 11
62.2625000000000028
 21
131.2221014492753568
 31
0.0
  0
LINE
  8
PROFILES
  6
CONTINUOUS
 10
62.2625000000000028
 20
131.2221014492753568
 30
0.0
 11
61.4875000000000114
 21
131.9971014492753625
 31
0.0
  0
LINE
  8
PROFILES
  6
CONTINUOUS
 10
61.4875000000000114
 20
131.9971014492753625
 30
0.0
 11
61.4875000000000114
 21
134.9721014492753568
 31
0.0
  0
LINE
  8
PROFILES
  6
CONTINUOUS
 10
61.4875000000000114
 20
134.9721014492753568
 30
0.0
 11
62.2625000000000028
 21
134.9721014492753568
 31
0.0
  0
LINE
  8
PROFILES
  6
CONTINUOUS
 10
62.2625000000000028
 20
134.9721014492753568
 30
0.0
 11
62.2625000000000028
 21
142.3721014492753625
 31
0.0
  0
LINE
  8
PROFILES
  6
CONTINUOUS
 10
62.2625000000000028
 20
142.3721014492753625
 30
0.0
 11
69.5375000000000085
 21
142.3721014492753625
 31
0.0
  0
LINE
  8
PROFILES
  6
CONTINUOUS
 10
69.5375000000000085
 20
142.3721014492753625
 30
0.0
 11
69.5375000000000085
 21
139.9221014492753739
 31
0.0
  0
LINE
  8
PROFILES
  6
CONTINUOUS
 10
69.5375000000000085
 20
139.9221014492753739
 30
0.0
 11
68.5375000000000085
 21
139.9221014492753739
 31
0.0
  0
LINE
  8
PROFILES
  6
CONTINUOUS
 10
68.5375000000000085
 20
139.9221014492753739
 30
0.0
 11
68.5375000000000085
 21
139.3221014492753795
 31
0.0
  0
LINE
  8
PROFILES
  6
CONTINUOUS
 10
68.5375000000000085
 20
139.3221014492753795
 30
0.0
 11
69.5375000000000085
 21
139.3221014492753795
 31
0.0
  0
LINE
  8
PROFILES
  6
CONTINUOUS
 10
69.5375000000000085
 20
139.3221014492753795
 30
0.0
 11
69.5375000000000085
 21
130.4971014492753625
 31
0.0
  0
LINE
  8
PROFILES
  6
CONTINUOUS
 10
69.5375000000000085
 20
130.4971014492753625
 30
0.0
 11
70.5375000000000085
 21
130.4971014492753625
 31
0.0
  0
LINE
  8
PROFILES
  6
CONTINUOUS
 10
70.5375000000000085
 20
130.4971014492753625
 30
0.0
 11
70.5375000000000085
 21
121.8221014492753795
 31
0.0
  0
LINE
  8
PROFILES
  6
CONTINUOUS
 10
70.5375000000000085
 20
121.8221014492753795
 30
0.0
 11
69.5375000000000085
 21
121.8221014492753795
 31
0.0
  0
LINE
  8
PROFILES
  6
CONTINUOUS
 10
69.5375000000000085
 20
121.8221014492753795
 30
0.0
 11
69.5375000000000085
 21
121.2221014492753568
 31
0.0
  0
LINE
  8
PROFILES
  6
CONTINUOUS
 10
69.5375000000000085
 20
121.2221014492753568
 30
0.0
 11
62.2625000000000028
 21
121.2221014492753568
 31
0.0
  0
LINE
  8
PROFILES
  6
CONTINUOUS
 10
62.2625000000000028
 20
121.2221014492753568
 30
0.0
 11
62.2625000000000028
 21
124.9721014492753568
 31
0.0
  0
LINE
  8
PROFILES
  6
CONTINUOUS
 10
62.2625000000000028
 20
124.9721014492753568
 30
0.0
 11
61.4875000000000114
 21
124.9721014492753568
 31
0.0
  0
LINE
  8
PROFILES
  6
CONTINUOUS
 10
60.8875000000000028
 20
129.8221014492753795
 30
0.0
 11
60.8875000000000028
 21
124.9721014492753568
 31
0.0
  0
LINE
  8
PROFILES
  6
CONTINUOUS
 10
60.8875000000000028
 20
124.9721014492753568
 30
0.0
 11
59.4625000000000057
 21
124.9721014492753568
 31
0.0
  0
LINE
  8
PROFILES
  6
CONTINUOUS
 10
59.4625000000000057
 20
124.9721014492753568
 30
0.0
 11
59.4625000000000057
 21
126.2221014492753568
 31
0.0
  0
LINE
  8
PROFILES
  6
CONTINUOUS
 10
59.4625000000000057
 20
126.2221014492753568
 30
0.0
 11
58.6375000000000028
 21
126.0010429492753588
 31
0.0
  0
LINE
  8
PROFILES
  6
CONTINUOUS
 10
58.6375000000000028
 20
126.0010429492753588
 30
0.0
 11
58.6375000000000028
 21
124.2221014492753568
 31
0.0
  0
LINE
  8
PROFILES
  6
CONTINUOUS
 10
58.6375000000000028
 20
124.2221014492753568
 30
0.0
 11
61.6625000000000085
 21
124.2221014492753568
 31
0.0
  0
LINE
  8
PROFILES
  6
CONTINUOUS
 10
61.6625000000000085
 20
124.2221014492753568
 30
0.0
 11
61.6625000000000085
 21
121.8157119492753679
 31
0.0
  0
ARC
  8
PROFILES
 10
61.1625000000000085
 20
121.8157119492753679
 30
0.0
 40
0.5
 50
270.0
 51
360.0
  0
LINE
  8
PROFILES
  6
CONTINUOUS
 10
61.1689300000000031
 20
121.3157529492753781
 30
0.0
 11
53.8875000000000028
 21
121.2221014492753568
 31
0.0
  0
LINE
  8
PROFILES
  6
CONTINUOUS
 10
53.8875000000000028
 20
121.2221014492753568
 30
0.0
 11
53.8875000000000028
 21
122.1221014492753625
 31
0.0
  0
LINE
  8
PROFILES
  6
CONTINUOUS
 10
53.3875000000000028
 20
122.6221014492753625
 30
0.0
 11
52.7714744999999965
 21
122.6221014492753625
 31
0.0
  0
LINE
  8
PROFILES
  6
CONTINUOUS
 10
52.7714744999999965
 20
122.6221014492753625
 30
0.0
 11
52.6375000000000028
 21
122.1221014492753625
 31
0.0
  0
LINE
  8
PROFILES
  6
CONTINUOUS
 10
52.6375000000000028
 20
122.1221014492753625
 30
0.0
 11
53.3875000000000028
 21
122.1221014492753625
 31
0.0
  0
LINE
  8
PROFILES
  6
CONTINUOUS
 10
53.3875000000000028
 20
122.1221014492753625
 30
0.0
 11
53.3875000000000028
 21
121.1221014492753625
 31
0.0
  0
LINE
  8
PROFILES
  6
CONTINUOUS
 10
53.3875000000000028
 20
121.1221014492753625
 30
0.0
 11
50.3875000000000028
 21
121.1221014492753625
 31
0.0
  0
LINE
  8
PROFILES
  6
CONTINUOUS
 10
50.3875000000000028
 20
121.1221014492753625
 30
0.0
 11
50.3875000000000028
 21
122.1221014492753625
 31
0.0
  0
LINE
  8
PROFILES
  6
CONTINUOUS
 10
50.3875000000000028
 20
122.1221014492753625
 30
0.0
 11
51.1375000000000028
 21
122.1221014492753625
 31
0.0
  0
LINE
  8
PROFILES
  6
CONTINUOUS
 10
51.1375000000000028
 20
122.1221014492753625
 30
0.0
 11
51.0035250000000104
 21
122.6221014492753625
 31
0.0
  0
LINE
  8
PROFILES
  6
CONTINUOUS
 10
51.0035250000000104
 20
122.6221014492753625
 30
0.0
 11
50.3875000000000028
 21
122.6221014492753625
 31
0.0
  0
LINE
  8
PROFILES
  6
CONTINUOUS
 10
49.8875000000000028
 20
122.1221014492753625
 30
0.0
 11
49.8875000000000028
 21
121.1221014492753625
 31
0.0
  0
LINE
  8
PROFILES
  6
CONTINUOUS
 10
50.3875000000000028
 20
120.6221014492753625
 30
0.0
 11
73.6375000000000028
 21
120.6221014492753625
 31
0.0
  0
LINE
  8
PROFILES
  6
CONTINUOUS
 10
73.6375000000000028
 20
120.6221014492753625
 30
0.0
 11
73.6375000000000028
 21
122.2260429492753815
 31
0.0
  0
LINE
  8
PROFILES
  6
CONTINUOUS
 10
73.6375000000000028
 20
122.2260429492753815
 30
0.0
 11
72.8125000000000142
 21
122.4471014492753795
 31
0.0
  0
LINE
  8
PROFILES
  6
CONTINUOUS
 10
72.8125000000000142
 20
122.4471014492753795
 30
0.0
 11
72.8125000000000142
 21
121.4471014492753795
 31
0.0
  0
LINE
  8
PROFILES
  6
CONTINUOUS
 10
72.8125000000000142
 20
121.4471014492753795
 30
0.0
 11
71.1375000000000028
 21
121.4471014492753795
 31
0.0
  0
LINE
  8
PROFILES
  6
CONTINUOUS
 10
71.1375000000000028
 20
121.4471014492753795
 30
0.0
 11
71.1375000000000028
 21
130.4971014492753625
 31
0.0
  0
LINE
  8
PROFILES
  6
CONTINUOUS
 10
71.1375000000000028
 20
130.4971014492753625
 30
0.0
 11
72.8125000000000142
 21
130.4971014492753625
 31
0.0
  0
LINE
  8
PROFILES
  6
CONTINUOUS
 10
72.8125000000000142
 20
130.4971014492753625
 30
0.0
 11
72.8125000000000142
 21
129.4971014492753625
 31
0.0
  0
LINE
  8
PROFILES
  6
CONTINUOUS
 10
72.8125000000000142
 20
129.4971014492753625
 30
0.0
 11
73.6375000000000028
 21
129.7181594492753618
 31
0.0
  0
LINE
  8
PROFILES
  6
CONTINUOUS
 10
73.6375000000000028
 20
129.7181594492753618
 30
0.0
 11
73.6375000000000028
 21
131.2471014492753625
 31
0.0
  0
LINE
  8
PROFILES
  6
CONTINUOUS
 10
73.6375000000000028
 20
131.2471014492753625
 30
0.0
 11
70.1375000000000028
 21
131.2471014492753625
 31
0.0
  0
LINE
  8
PROFILES
  6
CONTINUOUS
 10
70.1375000000000028
 20
131.2471014492753625
 30
0.0
 11
70.1375000000000028
 21
141.7783124492753757
 31
0.0
  0
ARC
  8
PROFILES
 10
70.6375000000000028
 20
141.7783124492753757
 30
0.0
 40
0.5
 50
90.0
 51
180.0
  0
LINE
  8
PROFILES
  6
CONTINUOUS
 10
70.6312505000000073
 20
142.2782729492753617
 30
0.0
 11
78.1375000000000028
 21
142.3721014492753625
 31
0.0
  0
LINE
  8
PROFILES
  6
CONTINUOUS
 10
78.1375000000000028
 20
142.3721014492753625
 30
0.0
 11
78.1375000000000028
 21
141.4721014492753568
 31
0.0
  0
LINE
  8
PROFILES
  6
CONTINUOUS
 10
78.6375000000000028
 20
140.9721014492753568
 30
0.0
 11
79.2535250000000104
 21
140.9721014492753568
 31
0.0
  0
LINE
  8
PROFILES
  6
CONTINUOUS
 10
79.2535250000000104
 20
140.9721014492753568
 30
0.0
 11
79.3875000000000028
 21
141.4721014492753568
 31
0.0
  0
LINE
  8
PROFILES
  6
CONTINUOUS
 10
79.3875000000000028
 20
141.4721014492753568
 30
0.0
 11
78.6375000000000028
 21
141.4721014492753568
 31
0.0
  0
LINE
  8
PROFILES
  6
CONTINUOUS
 10
78.6375000000000028
 20
141.4721014492753568
 30
0.0
 11
78.6375000000000028
 21
142.4721014492753568
 31
0.0
  0
LINE
  8
PROFILES
  6
CONTINUOUS
 10
78.6375000000000028
 20
142.4721014492753568
 30
0.0
 11
81.6375000000000028
 21
142.4721014492753568
 31
0.0
  0
LINE
  8
PROFILES
  6
CONTINUOUS
 10
81.6375000000000028
 20
142.4721014492753568
 30
0.0
 11
81.6375000000000028
 21
141.4721014492753568
 31
0.0
  0
LINE
  8
PROFILES
  6
CONTINUOUS
 10
81.6375000000000028
 20
141.4721014492753568
 30
0.0
 11
80.8875000000000028
 21
141.4721014492753568
 31
0.0
  0
LINE
  8
PROFILES
  6
CONTINUOUS
 10
80.8875000000000028
 20
141.4721014492753568
 30
0.0
 11
81.0214745000000107
 21
140.9721014492753568
 31
0.0
  0
LINE
  8
PROFILES
  6
CONTINUOUS
 10
81.0214745000000107
 20
140.9721014492753568
 30
0.0
 11
81.6375000000000028
 21
140.9721014492753568
 31
0.0
  0
LINE
  8
PROFILES
  6
CONTINUOUS
 10
82.1375000000000028
 20
141.4721014492753568
 30
0.0
 11
82.1375000000000028
 21
142.4721014492753568
 31
0.0
  0
LINE
  8
PROFILES
  6
CONTINUOUS
 10
81.6375000000000028
 20
142.9721014492753568
 30
0.0
 11
58.6375000000000028
 21
142.9721014492753568
 31
0.0
  0
LINE
  8
PROFILES
  6
CONTINUOUS
 10
58.6375000000000028
 20
142.9721014492753568
 30
0.0
 11
58.6375000000000028
 21
141.9060759492753618
 31
0.0
  0
LINE
  8
PROFILES
  6
CONTINUOUS
 10
58.6375000000000028
 20
141.9060759492753618
 30
0.0
 11
59.1375000000000028
 21
141.7721014492753682
 31
0.0
  0
LINE
  8
PROFILES
  6
CONTINUOUS
 10
59.1375000000000028
 20
141.7721014492753682
 30
0.0
 11
59.1375000000000028
 21
142.3721014492753625
 31
0.0
  0
LINE
  8
PROFILES
  6
CONTINUOUS
 10
59.1375000000000028
 20
142.3721014492753625
 30
0.0
 11
61.6625000000000085
 21
142.3721014492753625
 31
0.0
  0
LINE
  8
PROFILES
  6
CONTINUOUS
 10
61.6625000000000085
 20
142.3721014492753625
 30
0.0
 11
61.6625000000000085
 21
135.7221014492753568
 31
0.0
  0
LINE
  8
PROFILES
  6
CONTINUOUS
 10
61.6625000000000085
 20
135.7221014492753568
 30
0.0
 11
58.6375000000000028
 21
135.7221014492753568
 31
0.0
  0
LINE
  8
PROFILES
  6
CONTINUOUS
 10
58.6375000000000028
 20
135.7221014492753568
 30
0.0
 11
58.6375000000000028
 21
133.9431594492753561
 31
0.0
  0
LINE
  8
PROFILES
  6
CONTINUOUS
 10
58.6375000000000028
 20
133.9431594492753561
 30
0.0
 11
59.4625000000000057
 21
133.7221014492753568
 31
0.0
  0
LINE
  8
PROFILES
  6
CONTINUOUS
 10
59.4625000000000057
 20
133.7221014492753568
 30
0.0
 11
59.4625000000000057
 21
134.9721014492753568
 31
0.0
  0
LINE
  8
PROFILES
  6
CONTINUOUS
 10
59.4625000000000057
 20
134.9721014492753568
 30
0.0
 11
60.8875000000000028
 21
134.9721014492753568
 31
0.0
  0
LINE
  8
PROFILES
  6
CONTINUOUS
 10
60.8875000000000028
 20
134.9721014492753568
 30
0.0
 11
60.8875000000000028
 21
130.1221014492753625
 31
0.0
  0
ARC
  8
PROFILES
 10
53.3875000000000028
 20
122.1221014492753625
 30
0.0
 40
0.5
 50
360.0
 51
90.0
  0
ARC
  8
PROFILES
 10
50.3875000000000028
 20
122.1221014492753625
 30
0.0
 40
0.5
 50
90.0
 51
180.0
  0
ARC
  8
PROFILES
 10
50.3875000000000028
 20
121.1221014492753625
 30
0.0
 40
0.5
 50
180.0
 51
270.0
  0
ARC
  8
PROFILES
 10
78.6375000000000028
 20
141.4721014492753568
 30
0.0
 40
0.5
 50
180.0
 51
270.0
  0
ARC
  8
PROFILES
 10
81.6375000000000028
 20
141.4721014492753568
 30
0.0
 40
0.5
 50
270.0
 51
360.0
  0
ARC
  8
PROFILES
 10
81.6375000000000028
 20
142.4721014492753568
 30
0.0
 40
0.5
 50
360.0
 51
90.0
  0
ENDBLK
  0
BLOCK
  2
BLKID2
 70
0
 10
0.0
 20
0.0
 30
0.0
  3
BLKID2
  1

  0
LINE
  8
PROFILES
  6
CONTINUOUS
 10
1050.7374999999999545
 20
129.9721014492753568
 30
0.0
 11
1050.8875000000000455
 21
129.8221014492753795
 31
0.0
  0
LINE
  8
PROFILES
  6
CONTINUOUS
 10
1050.8875000000000455
 20
130.1221014492753625
 30
0.0
 11
1050.7374999999999545
 21
129.9721014492753568
 31
0.0
  0
LINE
  8
PROFILES
  6
CONTINUOUS
 10
1050.2874999999999091
 20
124.9721014492753568
 30
0.0
 11
1050.2874999999999091
 21
127.9471014492753795
 31
0.0
  0
LINE
  8
PROFILES
  6
CONTINUOUS
 10
1050.2874999999999091
 20
127.9471014492753795
 30
0.0
 11
1049.5125000000000455
 21
128.7221014492753568
 31
0.0
  0
LINE
  8
PROFILES
  6
CONTINUOUS
 10
1049.5125000000000455
 20
128.7221014492753568
 30
0.0
 11
1049.5125000000000455
 21
131.2221014492753568
 31
0.0
  0
LINE
  8
PROFILES
  6
CONTINUOUS
 10
1049.5125000000000455
 20
131.2221014492753568
 30
0.0
 11
1050.2874999999999091
 21
131.9971014492753625
 31
0.0
  0
LINE
  8
PROFILES
  6
CONTINUOUS
 10
1050.2874999999999091
 20
131.9971014492753625
 30
0.0
 11
1050.2874999999999091
 21
134.9721014492753568
 31
0.0
  0
LINE
  8
PROFILES
  6
CONTINUOUS
 10
1050.2874999999999091
 20
134.9721014492753568
 30
0.0
 11
1049.5125000000000455
 21
134.9721014492753568
 31
0.0
  0
LINE
  8
PROFILES
  6
CONTINUOUS
 10
1049.5125000000000455
 20
134.9721014492753568
 30
0.0
 11
1049.5125000000000455
 21
142.3721014492753625
 31
0.0
  0
LINE
  8
PROFILES
  6
CONTINUOUS
 10
1049.5125000000000455
 20
142.3721014492753625
 30
0.0
 11
1042.2374999999999545
 21
142.3721014492753625
 31
0.0
  0
LINE
  8
PROFILES
  6
CONTINUOUS
 10
1042.2374999999999545
 20
142.3721014492753625
 30
0.0
 11
1042.2374999999999545
 21
139.9221014492753739
 31
0.0
  0
LINE
  8
PROFILES
  6
CONTINUOUS
 10
1042.2374999999999545
 20
139.9221014492753739
 30
0.0
 11
1043.2374999999999545
 21
139.9221014492753739
 31
0.0
  0
LINE
  8
PROFILES
  6
CONTINUOUS
 10
1043.2374999999999545
 20
139.9221014492753739
 30
0.0
 11
1043.2374999999999545
 21
139.3221014492753795
 31
0.0
  0
LINE
  8
PROFILES
  6
CONTINUOUS
 10
1043.2374999999999545
 20
139.3221014492753795
 30
0.0
 11
1042.2374999999999545
 21
139.3221014492753795
 31
0.0
  0
LINE
  8
PROFILES
  6
CONTINUOUS
 10
1042.2374999999999545
 20
139.3221014492753795
 30
0.0
 11
1042.2374999999999545
 21
130.4971014492753625
 31
0.0
  0
LINE
  8
PROFILES
  6
CONTINUOUS
 10
1042.2374999999999545
 20
130.4971014492753625
 30
0.0
 11
1041.2374999999999545
 21
130.4971014492753625
 31
0.0
  0
LINE
  8
PROFILES
  6
CONTINUOUS
 10
1041.2374999999999545
 20
130.4971014492753625
 30
0.0
 11
1041.2374999999999545
 21
121.8221014492753795
 31
0.0
  0
LINE
  8
PROFILES
  6
CONTINUOUS
 10
1041.2374999999999545
 20
121.8221014492753795
 30
0.0
 11
1042.2374999999999545
 21
121.8221014492753795
 31
0.0
  0
LINE
  8
PROFILES
  6
CONTINUOUS
 10
1042.2374999999999545
 20
121.8221014492753795
 30
0.0
 11
1042.2374999999999545
 21
121.2221014492753568
 31
0.0
  0
LINE
  8
PROFILES
  6
CONTINUOUS
 10
1042.2374999999999545
 20
121.2221014492753568
 30
0.0
 11
1049.5125000000000455
 21
121.2221014492753568
 31
0.0
  0
LINE
  8
PROFILES
  6
CONTINUOUS
 10
1049.5125000000000455
 20
121.2221014492753568
 30
0.0
 11
1049.5125000000000455
 21
124.9721014492753568
 31
0.0
  0
LINE
  8
PROFILES
  6
CONTINUOUS
 10
1049.5125000000000455
 20
124.9721014492753568
 30
0.0
 11
1050.2874999999999091
 21
124.9721014492753568
 31
0.0
  0
LINE
  8
PROFILES
  6
CONTINUOUS
 10
1050.8875000000000455
 20
129.8221014492753795
 30
0.0
 11
1050.8875000000000455
 21
124.9721014492753568
 31
0.0
  0
LINE
  8
PROFILES
  6
CONTINUOUS
 10
1050.8875000000000455
 20
124.9721014492753568
 30
0.0
 11
1052.3125
 21
124.9721014492753568
 31
0.0
  0
LINE
  8
PROFILES
  6
CONTINUOUS
 10
1052.3125
 20
124.9721014492753568
 30
0.0
 11
1052.3125
 21
126.2221014492753568
 31
0.0
  0
LINE
  8
PROFILES
  6
CONTINUOUS
 10
1052.3125
 20
126.2221014492753568
 30
0.0
 11
1053.1375000000000455
 21
126.0010429492753588
 31
0.0
  0
LINE
  8
PROFILES
  6
CONTINUOUS
 10
1053.1375000000000455
 20
126.0010429492753588
 30
0.0
 11
1053.1375000000000455
 21
124.2221014492753568
 31
0.0
  0
LINE
  8
PROFILES
  6
CONTINUOUS
 10
1053.1375000000000455
 20
124.2221014492753568
 30
0.0
 11
1050.1124999999999545
 21
124.2221014492753568
 31
0.0
  0
LINE
  8
PROFILES
  6
CONTINUOUS
 10
1050.1124999999999545
 20
124.2221014492753568
 30
0.0
 11
1050.1124999999999545
 21
121.8157119492753679
 31
0.0
  0
ARC
  8
PROFILES
 10
1050.6124999999999545
 20
121.8157119492753679
 30
0.0
 40
0.5
 50
180.0
 51
270.0
  0
LINE
  8
PROFILES
  6
CONTINUOUS
 10
1050.6060700000000452
 20
121.3157529492753781
 30
0.0
 11
1057.8875000000000455
 21
121.2221014492753568
 31
0.0
  0
LINE
  8
PROFILES
  6
CONTINUOUS
 10
1057.8875000000000455
 20
121.2221014492753568
 30
0.0
 11
1057.8875000000000455
 21
122.1221014492753625
 31
0.0
  0
LINE
  8
PROFILES
  6
CONTINUOUS
 10
1058.3875000000000455
 20
122.6221014492753625
 30
0.0
 11
1059.0035255000000234
 21
122.6221014492753625
 31
0.0
  0
LINE
  8
PROFILES
  6
CONTINUOUS
 10
1059.0035255000000234
 20
122.6221014492753625
 30
0.0
 11
1059.1375000000000455
 21
122.1221014492753625
 31
0.0
  0
LINE
  8
PROFILES
  6
CONTINUOUS
 10
1059.1375000000000455
 20
122.1221014492753625
 30
0.0
 11
1058.3875000000000455
 21
122.1221014492753625
 31
0.0
  0
LINE
  8
PROFILES
  6
CONTINUOUS
 10
1058.3875000000000455
 20
122.1221014492753625
 30
0.0
 11
1058.3875000000000455
 21
121.1221014492753625
 31
0.0
  0
LINE
  8
PROFILES
  6
CONTINUOUS
 10
1058.3875000000000455
 20
121.1221014492753625
 30
0.0
 11
1061.3875000000000455
 21
121.1221014492753625
 31
0.0
  0
LINE
  8
PROFILES
  6
CONTINUOUS
 10
1061.3875000000000455
 20
121.1221014492753625
 30
0.0
 11
1061.3875000000000455
 21
122.1221014492753625
 31
0.0
  0
LINE
  8
PROFILES
  6
CONTINUOUS
 10
1061.3875000000000455
 20
122.1221014492753625
 30
0.0
 11
1060.6375000000000455
 21
122.1221014492753625
 31
0.0
  0
LINE
  8
PROFILES
  6
CONTINUOUS
 10
1060.6375000000000455
 20
122.1221014492753625
 30
0.0
 11
1060.7714750000000095
 21
122.6221014492753625
 31
0.0
  0
LINE
  8
PROFILES
  6
CONTINUOUS
 10
1060.7714750000000095
 20
122.6221014492753625
 30
0.0
 11
1061.3875000000000455
 21
122.6221014492753625
 31
0.0
  0
LINE
  8
PROFILES
  6
CONTINUOUS
 10
1061.8875000000000455
 20
122.1221014492753625
 30
0.0
 11
1061.8875000000000455
 21
121.1221014492753625
 31
0.0
  0
LINE
  8
PROFILES
  6
CONTINUOUS
 10
1061.3875000000000455
 20
120.6221014492753625
 30
0.0
 11
1038.1375000000000455
 21
120.6221014492753625
 31
0.0
  0
LINE
  8
PROFILES
  6
CONTINUOUS
 10
1038.1375000000000455
 20
120.6221014492753625
 30
0.0
 11
1038.1375000000000455
 21
122.2260429492753815
 31
0.0
  0
LINE
  8
PROFILES
  6
CONTINUOUS
 10
1038.1375000000000455
 20
122.2260429492753815
 30
0.0
 11
1038.9625000000000909
 21
122.4471014492753795
 31
0.0
  0
LINE
  8
PROFILES
  6
CONTINUOUS
 10
1038.9625000000000909
 20
122.4471014492753795
 30
0.0
 11
1038.9625000000000909
 21
121.4471014492753795
 31
0.0
  0
LINE
  8
PROFILES
  6
CONTINUOUS
 10
1038.9625000000000909
 20
121.4471014492753795
 30
0.0
 11
1040.6375000000000455
 21
121.4471014492753795
 31
0.0
  0
LINE
  8
PROFILES
  6
CONTINUOUS
 10
1040.6375000000000455
 20
121.4471014492753795
 30
0.0
 11
1040.6375000000000455
 21
130.4971014492753625
 31
0.0
  0
LINE
  8
PROFILES
  6
CONTINUOUS
 10
1040.6375000000000455
 20
130.4971014492753625
 30
0.0
 11
1038.9625000000000909
 21
130.4971014492753625
 31
0.0
  0
LINE
  8
PROFILES
  6
CONTINUOUS
 10
1038.9625000000000909
 20
130.4971014492753625
 30
0.0
 11
1038.9625000000000909
 21
129.4971014492753625
 31
0.0
  0
LINE
  8
PROFILES
  6
CONTINUOUS
 10
1038.9625000000000909
 20
129.4971014492753625
 30
0.0
 11
1038.1375000000000455
 21
129.7181594492753618
 31
0.0
  0
LINE
  8
PROFILES
  6
CONTINUOUS
 10
1038.1375000000000455
 20
129.7181594492753618
 30
0.0
 11
1038.1375000000000455
 21
131.2471014492753625
 31
0.0
  0
LINE
  8
PROFILES
  6
CONTINUOUS
 10
1038.1375000000000455
 20
131.2471014492753625
 30
0.0
 11
1041.6375000000000455
 21
131.2471014492753625
 31
0.0
  0
LINE
  8
PROFILES
  6
CONTINUOUS
 10
1041.6375000000000455
 20
131.2471014492753625
 30
0.0
 11
1041.6375000000000455
 21
141.7783124492753757
 31
0.0
  0
ARC
  8
PROFILES
 10
1041.1375000000000455
 20
141.7783124492753757
 30
0.0
 40
0.5
 50
360.0
 51
90.0
  0
LINE
  8
PROFILES
  6
CONTINUOUS
 10
1041.1437495000000126
 20
142.2782729492753617
 30
0.0
 11
1033.6375000000000455
 21
142.3721014492753625
 31
0.0
  0
LINE
  8
PROFILES
  6
CONTINUOUS
 10
1033.6375000000000455
 20
142.3721014492753625
 30
0.0
 11
1033.6375000000000455
 21
141.4721014492753568
 31
0.0
  0
LINE
  8
PROFILES
  6
CONTINUOUS
 10
1033.1375000000000455
 20
140.9721014492753568
 30
0.0
 11
1032.5214750000000095
 21
140.9721014492753568
 31
0.0
  0
LINE
  8
PROFILES
  6
CONTINUOUS
 10
1032.5214750000000095
 20
140.9721014492753568
 30
0.0
 11
1032.3875000000000455
 21
141.4721014492753568
 31
0.0
  0
LINE
  8
PROFILES
  6
CONTINUOUS
 10
1032.3875000000000455
 20
141.4721014492753568
 30
0.0
 11
1033.1375000000000455
 21
141.4721014492753568
 31
0.0
  0
LINE
  8
PROFILES
  6
CONTINUOUS
 10
1033.1375000000000455
 20
141.4721014492753568
 30
0.0
 11
1033.1375000000000455
 21
142.4721014492753568
 31
0.0
  0
LINE
  8
PROFILES
  6
CONTINUOUS
 10
1033.1375000000000455
 20
142.4721014492753568
 30
0.0
 11
1030.1375000000000455
 21
142.4721014492753568
 31
0.0
  0
LINE
  8
PROFILES
  6
CONTINUOUS
 10
1030.1375000000000455
 20
142.4721014492753568
 30
0.0
 11
1030.1375000000000455
 21
141.4721014492753568
 31
0.0
  0
LINE
  8
PROFILES
  6
CONTINUOUS
 10
1030.1375000000000455
 20
141.4721014492753568
 30
0.0
 11
1030.8875000000000455
 21
141.4721014492753568
 31
0.0
  0
LINE
  8
PROFILES
  6
CONTINUOUS
 10
1030.8875000000000455
 20
141.4721014492753568
 30
0.0
 11
1030.7535255000000234
 21
140.9721014492753568
 31
0.0
  0
LINE
  8
PROFILES
  6
CONTINUOUS
 10
1030.7535255000000234
 20
140.9721014492753568
 30
0.0
 11
1030.1375000000000455
 21
140.9721014492753568
 31
0.0
  0
LINE
  8
PROFILES
  6
CONTINUOUS
 10
1029.6375000000000455
 20
141.4721014492753568
 30
0.0
 11
1029.6375000000000455
 21
142.4721014492753568
 31
0.0
  0
LINE
  8
PROFILES
  6
CONTINUOUS
 10
1030.1375000000000455
 20
142.9721014492753568
 30
0.0
 11
1053.1375000000000455
 21
142.9721014492753568
 31
0.0
  0
LINE
  8
PROFILES
  6
CONTINUOUS
 10
1053.1375000000000455
 20
142.9721014492753568
 30
0.0
 11
1053.1375000000000455
 21
141.9060759492753618
 31
0.0
  0
LINE
  8
PROFILES
  6
CONTINUOUS
 10
1053.1375000000000455
 20
141.9060759492753618
 30
0.0
 11
1052.6375000000000455
 21
141.7721014492753682
 31
0.0
  0
LINE
  8
PROFILES
  6
CONTINUOUS
 10
1052.6375000000000455
 20
141.7721014492753682
 30
0.0
 11
1052.6375000000000455
 21
142.3721014492753625
 31
0.0
  0
LINE
  8
PROFILES
  6
CONTINUOUS
 10
1052.6375000000000455
 20
142.3721014492753625
 30
0.0
 11
1050.1124999999999545
 21
142.3721014492753625
 31
0.0
  0
LINE
  8
PROFILES
  6
CONTINUOUS
 10
1050.1124999999999545
 20
142.3721014492753625
 30
0.0
 11
1050.1124999999999545
 21
135.7221014492753568
 31
0.0
  0
LINE
  8
PROFILES
  6
CONTINUOUS
 10
1050.1124999999999545
 20
135.7221014492753568
 30
0.0
 11
1053.1375000000000455
 21
135.7221014492753568
 31
0.0
  0
LINE
  8
PROFILES
  6
CONTINUOUS
 10
1053.1375000000000455
 20
135.7221014492753568
 30
0.0
 11
1053.1375000000000455
 21
133.9431594492753561
 31
0.0
  0
LINE
  8
PROFILES
  6
CONTINUOUS
 10
1053.1375000000000455
 20
133.9431594492753561
 30
0.0
 11
1052.3125
 21
133.7221014492753568
 31
0.0
  0
LINE
  8
PROFILES
  6
CONTINUOUS
 10
1052.3125
 20
133.7221014492753568
 30
0.0
 11
1052.3125
 21
134.9721014492753568
 31
0.0
  0
LINE
  8
PROFILES
  6
CONTINUOUS
 10
1052.3125
 20
134.9721014492753568
 30
0.0
 11
1050.8875000000000455
 21
134.9721014492753568
 31
0.0
  0
LINE
  8
PROFILES
  6
CONTINUOUS
 10
1050.8875000000000455
 20
134.9721014492753568
 30
0.0
 11
1050.8875000000000455
 21
130.1221014492753625
 31
0.0
  0
ARC
  8
PROFILES
 10
1058.3875000000000455
 20
122.1221014492753625
 30
0.0
 40
0.5
 50
90.0
 51
180.0
  0
ARC
  8
PROFILES
 10
1061.3875000000000455
 20
122.1221014492753625
 30
0.0
 40
0.5
 50
360.0
 51
90.0
  0
ARC
  8
PROFILES
 10
1061.3875000000000455
 20
121.1221014492753625
 30
0.0
 40
0.5
 50
270.0
 51
360.0
  0
ARC
  8
PROFILES
 10
1033.1375000000000455
 20
141.4721014492753568
 30
0.0
 40
0.5
 50
270.0
 51
360.0
  0
ARC
  8
PROFILES
 10
1030.1375000000000455
 20
141.4721014492753568
 30
0.0
 40
0.5
 50
180.0
 51
270.0
  0
ARC
  8
PROFILES
 10
1030.1375000000000455
 20
142.4721014492753568
 30
0.0
 40
0.5
 50
90.0
 51
180.0
  0
ENDBLK
  0
ENDSEC
  0
SECTION
  2
ENTITIES
  0
INSERT
  8
0
 62
0
  2
base
 10
0.0
 20
0.0
 30
0.0
 70
0
 71
0
  0
INSERT
  8
0
 62
0
  2
TREE_1
 10
0.0
 20
0.0
 30
0.0
 70
0
 71
0
  0
INSERT
  8
0
 62
0
  2
BLKID1
 10
0.0
 20
0.0
 30
0.0
 70
0
 71
0
  0
INSERT
  8
0
 62
0
  2
BLKID2
 10
0.0
 20
0.0
 30
0.0
 70
0
 71
0
  0
ENDSEC
  0
SECTION
  2
OBJECTS
  0
DICTIONARY
  5
C
100
AcDbDictionary
280
0
281
1
  3
ACAD_GROUP
350
D
  3
ACAD_LAYOUT
350
1A
  3
ACAD_MLINESTYLE
350
17
  3
ACAD_PLOTSETTINGS
350
19
  3
ACAD_PLOTSTYLENAME
350
E
  3
AcDbVariableDictionary
350
30
  0
DICTIONARY
  5
D
100
AcDbDictionary
280
0
281
1
  0
ACDBDICTIONARYWDFLT
  5
E
100
AcDbDictionary
281
1
  3
Normal
350
F
100
AcDbDictionaryWithDefault
340
F
  0
ACDBPLACEHOLDER
  5
F
  0
DICTIONARY
  5
17
100
AcDbDictionary
280
0
281
1
  3
Standard
350
18
  0
MLINESTYLE
  5
18
100
AcDbMlineStyle
  2
STANDARD
 70
0
  3

 62
256
 51
90.0
 52
90.0
 71
2
 49
0.5
 62
256
  6
BYLAYER
 49
-0.5
 62
256
  6
BYLAYER
  0
DICTIONARY
  5
19
100
AcDbDictionary
280
0
281
1
  0
DICTIONARY
  5
1A
100
AcDbDictionary
281
1
  3
Layout1
350
1E
  3
Layout2
350
26
  3
Model
350
22
  0
LAYOUT
  5
1E
100
AcDbPlotSettings
  1

  2
C:\Program Files\AutoCAD 2002\plotters\DWF ePlot (optimized for plotting).pc3
  4

  6

 40
0.0
 41
0.0
 42
0.0
 43
0.0
 44
0.0
 45
0.0
 46
0.0
 47
0.0
 48
0.0
 49
0.0
140
0.0
141
0.0
142
1.0
143
1.0
 70
688
 72
0
 73
0
 74
5
  7

 75
16
147
1.0
148
0.0
149
0.0
100
AcDbLayout
  1
Layout1
 70
1
 71
1
 10
0.0
 20
0.0
 11
420.0
 21
297.0
 12
0.0
 22
0.0
 32
0.0
 14
100000000000000000000.0
 24
100000000000000000000.0
 34
100000000000000000000.0
 15
-100000000000000000000.0
 25
-100000000000000000000.0
 35
-100000000000000000000.0
146
0.0
 13
0.0
 23
0.0
 33
0.0
 16
1.0
 26
0.0
 36
0.0
 17
0.0
 27
1.0
 37
0.0
 76
0
330
1B
  0
LAYOUT
  5
22
100
AcDbPlotSettings
  1

  2
C:\Program Files\AutoCAD 2002\plotters\DWF ePlot (optimized for plotting).pc3
  4

  6

 40
0.0
 41
0.0
 42
0.0
 43
0.0
 44
0.0
 45
0.0
 46
0.0
 47
0.0
 48
0.0
 49
0.0
140
0.0
141
0.0
142
1.0
143
1.0
 70
1712
 72
0
 73
0
 74
0
  7

 75
0
147
1.0
148
0.0
149
0.0
100
AcDbLayout
  1
Model
 70
1
 71
0
 10
0.0
 20
0.0
 11
12.0
 21
9.0
 12
0.0
 22
0.0
 32
0.0
 14
0.0
 24
0.0
 34
0.0
 15
0.0
 25
0.0
 35
0.0
146
0.0
 13
0.0
 23
0.0
 33
0.0
 16
1.0
 26
0.0
 36
0.0
 17
0.0
 27
1.0
 37
0.0
 76
0
330
1F
  0
LAYOUT
  5
26
100
AcDbPlotSettings
  1

  2
C:\Program Files\AutoCAD 2002\plotters\DWF ePlot (optimized for plotting).pc3
  4

  6

 40
0.0
 41
0.0
 42
0.0
 43
0.0
 44
0.0
 45
0.0
 46
0.0
 47
0.0
 48
0.0
 49
0.0
140
0.0
141
0.0
142
1.0
143
1.0
 70
688
 72
0
 73
0
 74
5
  7

 75
16
147
1.0
148
0.0
149
0.0
100
AcDbLayout
  1
Layout2
 70
1
 71
2
 10
0.0
 20
0.0
 11
12.0
 21
9.0
 12
0.0
 22
0.0
 32
0.0
 14
0.0
 24
0.0
 34
0.0
 15
0.0
 25
0.0
 35
0.0
146
0.0
 13
0.0
 23
0.0
 33
0.0
 16
1.0
 26
0.0
 36
0.0
 17
0.0
 27
1.0
 37
0.0
 76
0
330
23
  0
DICTIONARY
  5
30
100
AcDbDictionary
281
1
  3
DIMASSOC
350
32
  3
HIDETEXT
350
31
  0
DICTIONARYVAR
  5
31
100
DictionaryVariables
280
0
  1
2
  0
DICTIONARYVAR
  5
32
100
DictionaryVariables
280
0
  1
1
  0
ENDSEC
  0
EOF
