999
dxfrw 0.6.3
  0
SECTION
  2
HEADER
  9
$ACADVER
  1
AC1021
  9
$DWGCODEPAGE
  3
ANSI_1252
  9
$INSBASE
 10
0
 20
0
 30
0
  9
$EXTMIN
 10
-3.5
 20
-3
 30
0
  9
$EXTMAX
 10
27.2105528
 20
46.3081784
 30
0
  9
$LIMMIN
 10
0
 20
0
  9
$LIMMAX
 10
420
 20
297
  9
$ORTHOMODE
 70
    0
  9
$REGENMODE
 70
    1
  9
$FILLMODE
 70
    1
  9
$QTEXTMODE
 70
    0
  9
$MIRRTEXT
 70
    0
  9
$LTSCALE
 40
1
  9
$ATTMODE
 70
    0
  9
$TEXTSIZE
 40
2.5
  9
$TRACEWID
 40
15.68
  9
$TEXTSTYLE
  7
STANDARD
  9
$CLAYER
  8
Race
  9
$CELTYPE
  6
BYLAYER
  9
$CECOLOR
 62
  256
  9
$CELTSCALE
 40
1
  9
$DISPSILH
 70
    0
  9
$DIMSCALE
 40
1
  9
$DIMASZ
 40
2.5
  9
$DIMEXO
 40
0.000625
  9
$DIMDLI
 40
3.75
  9
$DIMRND
 40
0
  9
$DIMDLE
 40
0
  9
$DIMEXE
 40
0.00125
  9
$DIMTP
 40
0
  9
$DIMTM
 40
0
  9
$DIMTXT
 40
2.5
  9
$DIMCEN
 40
2.5
  9
$DIMTSZ
 40
0
  9
$DIMTOL
 70
    0
  9
$DIMLIM
 70
    0
  9
$DIMTIH
 70
    0
  9
$DIMTOH
 70
    0
  9
$DIMSE1
 70
    0
  9
$DIMSE2
 70
    0
  9
$DIMTAD
 70
    1
  9
$DIMZIN
 70
    1
  9
$DIMBLK
  1

  9
$DIMASO
 70
    1
  9
$DIMSHO
 70
    1
  9
$DIMPOST
  1

  9
$DIMAPOST
  1

  9
$DIMALT
 70
    0
  9
$DIMALTD
 70
    3
  9
$DIMALTF
 40
0.03937
  9
$DIMLFAC
 40
1
  9
$DIMTOFL
 70
    1
  9
$DIMTVP
 40
0
  9
$DIMTIX
 70
    0
  9
$DIMSOXD
 70
    0
  9
$DIMSAH
 70
    0
  9
$DIMBLK1
  1

  9
$DIMBLK2
  1

  9
$DIMSTYLE
  2
STANDARD
  9
$DIMCLRD
 70
    0
  9
$DIMCLRE
 70
    0
  9
$DIMCLRT
 70
    0
  9
$DIMTFAC
 40
1
  9
$DIMGAP
 40
0.000625
  9
$DIMJUST
 70
    0
  9
$DIMSD1
 70
    0
  9
$DIMSD2
 70
    0
  9
$DIMTOLJ
 70
    0
  9
$DIMTZIN
 70
    8
  9
$DIMALTZ
 70
    0
  9
$DIMALTTZ
 70
    0
  9
$DIMUPT
 70
    0
  9
$DIMDEC
 70
    4
  9
$DIMTDEC
 70
    2
  9
$DIMALTU
 70
    2
  9
$DIMALTTD
 70
    3
  9
$DIMTXSTY
  7
standard
  9
$DIMAUNIT
 70
    0
  9
$DIMADEC
 70
    2
  9
$DIMALTRND
 40
0
  9
$DIMAZIN
 70
    0
  9
$DIMDSEP
 70
    0
  9
$DIMATFIT
 70
    3
  9
$DIMFRAC
 70
    0
  9
$DIMLDRBLK
  1
STANDARD
  9
$DIMLUNIT
 70
    2
  9
$DIMLWD
 70
   -2
  9
$DIMLWE
 70
   -2
  9
$DIMTMOVE
 70
    0
  9
$DIMFXL
 40
0.001
  9
$DIMFXLON
 70
    0
  9
$DIMJOGANG
 40
0.7854
  9
$DIMTFILL
 70
    0
  9
$DIMTFILLCLR
 70
    0
  9
$DIMARCSYM
 70
    0
  9
$DIMLTYPE
  6

  9
$DIMLTEX1
  6

  9
$DIMLTEX2
  6

  9
$LUNITS
 70
    2
  9
$LUPREC
 70
    4
  9
$SKETCHINC
 40
1
  9
$FILLETRAD
 40
0
  9
$AUNITS
 70
    0
  9
$AUPREC
 70
    2
  9
$MENU
  1
.
  9
$ELEVATION
 40
0
  9
$PELEVATION
 40
0
  9
$THICKNESS
 40
0
  9
$LIMCHECK
 70
    0
  9
$CHAMFERA
 40
0
  9
$CHAMFERB
 40
0
  9
$CHAMFERC
 40
0
  9
$CHAMFERD
 40
0
  9
$SKPOLY
 70
    0
  9
$USRTIMER
 70
    1
  9
$ANGBASE
 50
0
  9
$ANGDIR
 70
    0
  9
$PDMODE
 70
   34
  9
$PDSIZE
 40
0
  9
$PLINEWID
 40
0
  9
$SPLFRAME
 70
    0
  9
$SPLINETYPE
 70
    2
  9
$SPLINESEGS
 70
    8
  9
$HANDSEED
  5
20000
  9
$SURFTAB1
 70
    6
  9
$SURFTAB2
 70
    6
  9
$SURFTYPE
 70
    6
  9
$SURFU
 70
    6
  9
$SURFV
 70
    6
  9
$UCSBASE
  2

  9
$UCSNAME
  2

  9
$UCSORG
 10
0
 20
0
 30
0
  9
$UCSXDIR
 10
1
 20
0
 30
0
  9
$UCSYDIR
 10
0
 20
1
 30
0
  9
$UCSORTHOREF
  2

  9
$UCSORTHOVIEW
 70
    0
  9
$UCSORGTOP
 10
0
 20
0
 30
0
  9
$UCSORGBOTTOM
 10
0
 20
0
 30
0
  9
$UCSORGLEFT
 10
0
 20
0
 30
0
  9
$UCSORGRIGHT
 10
0
 20
0
 30
0
  9
$UCSORGFRONT
 10
0
 20
0
 30
0
  9
$UCSORGBACK
 10
0
 20
0
 30
0
  9
$PUCSBASE
  2

  9
$PUCSNAME
  2

  9
$PUCSORG
 10
0
 20
0
 30
0
  9
$PUCSXDIR
 10
1
 20
0
 30
0
  9
$PUCSYDIR
 10
0
 20
1
 30
0
  9
$PUCSORTHOREF
  2

  9
$PUCSORTHOVIEW
 70
    0
  9
$PUCSORGTOP
 10
0
 20
0
 30
0
  9
$PUCSORGBOTTOM
 10
0
 20
0
 30
0
  9
$PUCSORGLEFT
 10
0
 20
0
 30
0
  9
$PUCSORGRIGHT
 10
0
 20
0
 30
0
  9
$PUCSORGFRONT
 10
0
 20
0
 30
0
  9
$PUCSORGBACK
 10
0
 20
0
 30
0
  9
$USERI1
 70
    0
  9
$USERI2
 70
    0
  9
$USERI3
 70
    0
  9
$USERI4
 70
    0
  9
$USERI5
 70
    0
  9
$USERR1
 40
0
  9
$USERR2
 40
0
  9
$USERR3
 40
0
  9
$USERR4
 40
0
  9
$USERR5
 40
0
  9
$WORLDVIEW
 70
    1
  9
$SHADEDGE
 70
    3
  9
$SHADEDIF
 70
   70
  9
$TILEMODE
 70
    1
  9
$MAXACTVP
 70
   64
  9
$PINSBASE
 10
0
 20
0
 30
0
  9
$PLIMCHECK
 70
    0
  9
$PEXTMIN
 10
0
 20
0
 30
0
  9
$PEXTMAX
 10
0
 20
0
 30
0
  9
$GRIDMODE
 70
    1
  9
$SNAPSTYLE
 70
    0
  9
$GRIDUNIT
 10
0
 20
0
  9
$PLIMMIN
 10
0
 20
0
  9
$PLIMMAX
 10
297
 20
210
  9
$UNITMODE
 70
    0
  9
$VISRETAIN
 70
    1
  9
$PLINEGEN
 70
    0
  9
$PSLTSCALE
 70
    1
  9
$TREEDEPTH
 70
 3020
  9
$CMLSTYLE
  2
Standard
  9
$CMLJUST
 70
    0
  9
$CMLSCALE
 40
20
  9
$PROXYGRAPHICS
 70
    1
  9
$MEASUREMENT
 70
    1
  9
$CELWEIGHT
370
   -1
  9
$ENDCAPS
280
    0
  9
$JOINSTYLE
280
    0
  9
$LWDISPLAY
290
    0
  9
$INSUNITS
 70
    0
  9
$HYPERLINKBASE
  1

  9
$STYLESHEET
  1

  9
$XEDIT
290
    1
  9
$CEPSNTYPE
380
    0
  9
$PSTYLEMODE
290
    1
  9
$EXTNAMES
290
    1
  9
$PSVPSCALE
 40
1
  9
$OLESTARTUP
290
    0
  9
$SORTENTS
280
  127
  9
$INDEXCTL
280
    0
  9
$HIDETEXT
280
    1
  9
$XCLIPFRAME
290
    0
  9
$HALOGAP
280
    0
  9
$OBSCOLOR
 70
  257
  9
$OBSLTYPE
280
    0
  9
$INTERSECTIONDISPLAY
280
    0
  9
$INTERSECTIONCOLOR
 70
  257
  9
$DIMASSOC
280
    1
  9
$PROJECTNAME
  1

  9
$CAMERADISPLAY
290
    0
  9
$LENSLENGTH
 40
50
  9
$CAMERAHEIGHT
 40
0
  9
$STEPSPERSEC
 40
2
  9
$STEPSIZE
 40
50
  9
$3DDWFPREC
 40
2
  9
$PSOLWIDTH
 40
5
  9
$PSOLHEIGHT
 40
80
  9
$LOFTANG1
 40
1.570796326794897
  9
$LOFTANG2
 40
1.570796326794897
  9
$LOFTMAG1
 40
0
  9
$LOFTMAG2
 40
0
  9
$LOFTPARAM
 70
    7
  9
$LOFTNORMALS
280
    1
  9
$LATITUDE
 40
1
  9
$LONGITUDE
 40
1
  9
$NORTHDIRECTION
 40
0
  9
$TIMEZONE
 70
-8000
  9
$LIGHTGLYPHDISPLAY
280
    1
  9
$TILEMODELIGHTSYNCH
280
    1
  9
$SOLIDHIST
280
    1
  9
$SHOWHIST
280
    1
  9
$DWFFRAME
280
    2
  9
$DGNFRAME
280
    0
  9
$REALWORLDSCALE
290
    1
  9
$INTERFERECOLOR
 62
    1
  9
$CSHADOW
280
    0
  9
$SHADOWPLANELOCATION
 40
0
  0
ENDSEC
  0
SECTION
  2
CLASSES
  0
ENDSEC
  0
SECTION
  2
TABLES
  0
TABLE
  2
VPORT
  5
8
330
0
100
AcDbSymbolTable
 70
    1
  0
VPORT
  5
31
330
2
100
AcDbSymbolTableRecord
100
AcDbViewportTableRecord
  2
*ACTIVE
 70
    0
 10
0
 20
0
 11
1
 21
1
 12
14.94097212963855
 22
23.46594032289157
 13
0
 23
0
 14
10
 24
10
 15
10
 25
10
 16
0
 26
0
 36
1
 17
0
 27
0
 37
0
 40
50.49632727710843
 41
0.711764705882353
 42
50
 43
0
 44
0
 50
0
 51
0
 71
    0
 72
  100
 73
    1
 74
    3
 75
    0
 76
    1
 77
    0
 78
    0
281
    0
 65
    1
110
0
120
0
130
0
111
1
121
0
131
0
112
0
122
1
132
0
 79
    0
146
0
348
10020
 60
    7
 61
    5
292
1
282
    1
141
0
142
0
 63
  250
421
3358443
  0
ENDTAB
  0
TABLE
  2
LTYPE
  5
5
330
0
100
AcDbSymbolTable
 70
    4
  0
LTYPE
  5
14
330
5
100
AcDbSymbolTableRecord
100
AcDbLinetypeTableRecord
  2
ByBlock
 70
    0
  3

 72
   65
 73
    0
 40
0
  0
LTYPE
  5
15
330
5
100
AcDbSymbolTableRecord
100
AcDbLinetypeTableRecord
  2
ByLayer
 70
    0
  3

 72
   65
 73
    0
 40
0
  0
LTYPE
  5
16
330
5
100
AcDbSymbolTableRecord
100
AcDbLinetypeTableRecord
  2
Continuous
 70
    0
  3
Solid line
 72
   65
 73
    0
 40
0
  0
LTYPE
  5
32
330
5
100
AcDbSymbolTableRecord
100
AcDbLinetypeTableRecord
  2
DOT
 70
    0
  3
Dot . . . . . . . . . . . . . . . . . . . . . .
 72
   65
 73
    2
 40
6.35
 49
0
 74
    0
 49
-6.35
 74
    0
  0
LTYPE
  5
33
330
5
100
AcDbSymbolTableRecord
100
AcDbLinetypeTableRecord
  2
DOTTINY
 70
    0
  3
Dot (.15x) .....................................
 72
   65
 73
    2
 40
0.9525
 49
0
 74
    0
 49
-0.9525
 74
    0
  0
LTYPE
  5
34
330
5
100
AcDbSymbolTableRecord
100
AcDbLinetypeTableRecord
  2
DOT2
 70
    0
  3
Dot (.5x) .....................................
 72
   65
 73
    2
 40
3.175
 49
0
 74
    0
 49
-3.175
 74
    0
  0
LTYPE
  5
35
330
5
100
AcDbSymbolTableRecord
100
AcDbLinetypeTableRecord
  2
DOTX2
 70
    0
  3
Dot (2x) .  .  .  .  .  .  .  .  .  .  .  .  .
 72
   65
 73
    2
 40
12.7
 49
0
 74
    0
 49
-12.7
 74
    0
  0
LTYPE
  5
36
330
5
100
AcDbSymbolTableRecord
100
AcDbLinetypeTableRecord
  2
DASHED
 70
    0
  3
Dashed _ _ _ _ _ _ _ _ _ _ _ _ _ _ _ _ _
 72
   65
 73
    2
 40
19.05
 49
12.7
 74
    0
 49
-6.35
 74
    0
  0
LTYPE
  5
37
330
5
100
AcDbSymbolTableRecord
100
AcDbLinetypeTableRecord
  2
DASHEDTINY
 70
    0
  3
Dashed (.15x) _ _ _ _ _ _ _ _ _ _ _ _ _ _ _ _ _
 72
   65
 73
    2
 40
2.8575
 49
1.905
 74
    0
 49
-0.9525
 74
    0
  0
LTYPE
  5
38
330
5
100
AcDbSymbolTableRecord
100
AcDbLinetypeTableRecord
  2
DASHED2
 70
    0
  3
Dashed (.5x) _ _ _ _ _ _ _ _ _ _ _ _ _ _ _ _ _
 72
   65
 73
    2
 40
9.524999999999999
 49
6.35
 74
    0
 49
-3.175
 74
    0
  0
LTYPE
  5
39
330
5
100
AcDbSymbolTableRecord
100
AcDbLinetypeTableRecord
  2
DASHEDX2
 70
    0
  3
Dashed (2x) ____  ____  ____  ____  ____  ___
 72
   65
 73
    2
 40
38.09999999999999
 49
25.4
 74
    0
 49
-12.7
 74
    0
  0
LTYPE
  5
3A
330
5
100
AcDbSymbolTableRecord
100
AcDbLinetypeTableRecord
  2
DASHDOT
 70
    0
  3
Dash dot __ . __ . __ . __ . __ . __ . __ . __
 72
   65
 73
    4
 40
25.4
 49
12.7
 74
    0
 49
-6.35
 74
    0
 49
0
 74
    0
 49
-6.35
 74
    0
  0
LTYPE
  5
3B
330
5
100
AcDbSymbolTableRecord
100
AcDbLinetypeTableRecord
  2
DASHDOTTINY
 70
    0
  3
Dash dot (.15x) _._._._._._._._._._._._._._._.
 72
   65
 73
    4
 40
3.81
 49
1.905
 74
    0
 49
-0.9525
 74
    0
 49
0
 74
    0
 49
-0.9525
 74
    0
  0
LTYPE
  5
3C
330
5
100
AcDbSymbolTableRecord
100
AcDbLinetypeTableRecord
  2
DASHDOT2
 70
    0
  3
Dash dot (.5x) _._._._._._._._._._._._._._._.
 72
   65
 73
    4
 40
12.7
 49
6.35
 74
    0
 49
-3.175
 74
    0
 49
0
 74
    0
 49
-3.175
 74
    0
  0
LTYPE
  5
3D
330
5
100
AcDbSymbolTableRecord
100
AcDbLinetypeTableRecord
  2
DASHDOTX2
 70
    0
  3
Dash dot (2x) ____  .  ____  .  ____  .  ___
 72
   65
 73
    4
 40
50.8
 49
25.4
 74
    0
 49
-12.7
 74
    0
 49
0
 74
    0
 49
-12.7
 74
    0
  0
LTYPE
  5
3E
330
5
100
AcDbSymbolTableRecord
100
AcDbLinetypeTableRecord
  2
DIVIDE
 70
    0
  3
Divide ____ . . ____ . . ____ . . ____ . . ____
 72
   65
 73
    6
 40
31.75
 49
12.7
 74
    0
 49
-6.35
 74
    0
 49
0
 74
    0
 49
-6.35
 74
    0
 49
0
 74
    0
 49
-6.35
 74
    0
  0
LTYPE
  5
3F
330
5
100
AcDbSymbolTableRecord
100
AcDbLinetypeTableRecord
  2
DIVIDETINY
 70
    0
  3
Divide (.15x) __..__..__..__..__..__..__..__.._
 72
   65
 73
    6
 40
4.7625
 49
1.905
 74
    0
 49
-0.9525
 74
    0
 49
0
 74
    0
 49
-0.9525
 74
    0
 49
0
 74
    0
 49
-0.9525
 74
    0
  0
LTYPE
  5
40
330
5
100
AcDbSymbolTableRecord
100
AcDbLinetypeTableRecord
  2
DIVIDE2
 70
    0
  3
Divide (.5x) __..__..__..__..__..__..__..__.._
 72
   65
 73
    6
 40
15.875
 49
6.35
 74
    0
 49
-3.175
 74
    0
 49
0
 74
    0
 49
-3.175
 74
    0
 49
0
 74
    0
 49
-3.175
 74
    0
  0
LTYPE
  5
41
330
5
100
AcDbSymbolTableRecord
100
AcDbLinetypeTableRecord
  2
DIVIDEX2
 70
    0
  3
Divide (2x) ________  .  .  ________  .  .  _
 72
   65
 73
    6
 40
63.5
 49
25.4
 74
    0
 49
-12.7
 74
    0
 49
0
 74
    0
 49
-12.7
 74
    0
 49
0
 74
    0
 49
-12.7
 74
    0
  0
LTYPE
  5
42
330
5
100
AcDbSymbolTableRecord
100
AcDbLinetypeTableRecord
  2
BORDER
 70
    0
  3
Border __ __ . __ __ . __ __ . __ __ . __ __ .
 72
   65
 73
    6
 40
44.45
 49
12.7
 74
    0
 49
-6.35
 74
    0
 49
12.7
 74
    0
 49
-6.35
 74
    0
 49
0
 74
    0
 49
-6.35
 74
    0
  0
LTYPE
  5
43
330
5
100
AcDbSymbolTableRecord
100
AcDbLinetypeTableRecord
  2
BORDERTINY
 70
    0
  3
Border (.15x) __.__.__.__.__.__.__.__.__.__.__.
 72
   65
 73
    6
 40
6.6675
 49
1.905
 74
    0
 49
-0.9525
 74
    0
 49
1.905
 74
    0
 49
-0.9525
 74
    0
 49
0
 74
    0
 49
-0.9525
 74
    0
  0
LTYPE
  5
44
330
5
100
AcDbSymbolTableRecord
100
AcDbLinetypeTableRecord
  2
BORDER2
 70
    0
  3
Border (.5x) __.__.__.__.__.__.__.__.__.__.__.
 72
   65
 73
    6
 40
22.225
 49
6.35
 74
    0
 49
-3.175
 74
    0
 49
6.35
 74
    0
 49
-3.175
 74
    0
 49
0
 74
    0
 49
-3.175
 74
    0
  0
LTYPE
  5
45
330
5
100
AcDbSymbolTableRecord
100
AcDbLinetypeTableRecord
  2
BORDERX2
 70
    0
  3
Border (2x) ____  ____  .  ____  ____  .  ___
 72
   65
 73
    6
 40
88.89999999999999
 49
25.4
 74
    0
 49
-12.7
 74
    0
 49
25.4
 74
    0
 49
-12.7
 74
    0
 49
0
 74
    0
 49
-12.7
 74
    0
  0
LTYPE
  5
46
330
5
100
AcDbSymbolTableRecord
100
AcDbLinetypeTableRecord
  2
CENTER
 70
    0
  3
Center ____ _ ____ _ ____ _ ____ _ ____ _ ____
 72
   65
 73
    4
 40
50.8
 49
31.75
 74
    0
 49
-6.35
 74
    0
 49
6.35
 74
    0
 49
-6.35
 74
    0
  0
LTYPE
  5
47
330
5
100
AcDbSymbolTableRecord
100
AcDbLinetypeTableRecord
  2
CENTERTINY
 70
    0
  3
Center (.15x) ___ _ ___ _ ___ _ ___ _ ___ _ ___
 72
   65
 73
    4
 40
7.62
 49
4.7625
 74
    0
 49
-0.9525
 74
    0
 49
0.9525
 74
    0
 49
-0.9525
 74
    0
  0
LTYPE
  5
48
330
5
100
AcDbSymbolTableRecord
100
AcDbLinetypeTableRecord
  2
CENTER2
 70
    0
  3
Center (.5x) ___ _ ___ _ ___ _ ___ _ ___ _ ___
 72
   65
 73
    4
 40
28.575
 49
19.05
 74
    0
 49
-3.175
 74
    0
 49
3.175
 74
    0
 49
-3.175
 74
    0
  0
LTYPE
  5
49
330
5
100
AcDbSymbolTableRecord
100
AcDbLinetypeTableRecord
  2
CENTERX2
 70
    0
  3
Center (2x) ________  __  ________  __  _____
 72
   65
 73
    4
 40
101.6
 49
63.5
 74
    0
 49
-12.7
 74
    0
 49
12.7
 74
    0
 49
-12.7
 74
    0
  0
ENDTAB
  0
TABLE
  2
LAYER
  5
2
330
0
100
AcDbSymbolTable
 70
    1
  0
LAYER
  5
10
330
2
100
AcDbSymbolTableRecord
100
AcDbLayerTableRecord
  2
0
 70
    1
 62
    6
  6
CONTINUOUS
370
    0
390
F
1001
LibreCad
1070
    1
  0
LAYER
  5
4A
330
2
100
AcDbSymbolTableRecord
100
AcDbLayerTableRecord
  2
Race
 70
    0
 62
    2
  6
CONTINUOUS
370
   25
390
F
  0
LAYER
  5
4B
330
2
100
AcDbSymbolTableRecord
100
AcDbLayerTableRecord
  2
Gates
 70
    0
 62
   96
420
32768
  6
DASHED2
370
   25
390
F
  0
LAYER
  5
4C
330
2
100
AcDbSymbolTableRecord
100
AcDbLayerTableRecord
  2
Layout
 70
    0
 62
    7
  6
CONTINUOUS
370
    0
390
F
  0
LAYER
  5
4D
330
2
100
AcDbSymbolTableRecord
100
AcDbLayerTableRecord
  2
Panels
 70
    0
 62
    3
  6
CONTINUOUS
370
   25
390
F
  0
LAYER
  5
4E
330
2
100
AcDbSymbolTableRecord
100
AcDbLayerTableRecord
  2
Posts
 70
    0
 62
    5
  6
BORDERTINY
370
   35
390
F
  0
LAYER
  5
4F
330
2
100
AcDbSymbolTableRecord
100
AcDbLayerTableRecord
  2
temp
 70
    1
 62
    1
  6
CONTINUOUS
370
    0
390
F
  0
LAYER
  5
50
330
2
100
AcDbSymbolTableRecord
100
AcDbLayerTableRecord
  2
zBackground
 70
    0
 62
    7
  6
CONTINUOUS
370
    0
390
F
  0
ENDTAB
  0
TABLE
  2
STYLE
  5
3
330
0
100
AcDbSymbolTable
 70
    3
  0
STYLE
  5
51
330
2
100
AcDbSymbolTableRecord
100
AcDbTextStyleTableRecord
  2
Standard
 70
    0
 40
0
 41
1
 50
0
 71
    0
 42
1
  3
txt
  4

  0
ENDTAB
  0
TABLE
  2
VIEW
  5
6
330
0
100
AcDbSymbolTable
 70
    0
  0
ENDTAB
  0
TABLE
  2
UCS
  5
7
330
0
100
AcDbSymbolTable
 70
    0
  0
ENDTAB
  0
TABLE
  2
APPID
  5
9
330
0
100
AcDbSymbolTable
 70
    1
  0
APPID
  5
12
330
9
100
AcDbSymbolTableRecord
100
AcDbRegAppTableRecord
  2
ACAD
 70
    0
  0
APPID
  5
52
330
9
100
AcDbSymbolTableRecord
100
AcDbRegAppTableRecord
  2
LibreCad
 70
    0
  0
ENDTAB
  0
TABLE
  2
DIMSTYLE
  5
A
330
0
100
AcDbSymbolTable
 70
    1
100
AcDbDimStyleTable
 71
    1
  0
DIMSTYLE
105
53
330
A
100
AcDbSymbolTableRecord
100
AcDbDimStyleTableRecord
  2
Standard
 70
    0
 40
1
 41
2.5
 42
0.000625
 43
0.38
 44
0.00125
 45
0
 46
0
 47
0
 48
0
 49
0.001
140
2.5
141
0.09
142
0
143
25.4
144
1
145
0
146
1
147
0.000625
148
0
 71
    0
 72
    0
 73
    0
 74
    1
 75
    0
 76
    0
 77
    0
 78
    1
 79
    0
170
    0
171
    2
172
    0
173
    0
174
    0
175
    0
176
    0
177
    0
178
    0
179
    2
271
    4
272
    4
273
    2
274
    2
275
    0
276
    0
277
    2
278
    0
279
    0
280
    0
281
    0
282
    0
283
    1
284
    0
285
    0
286
    0
288
    0
289
    3
340
standard
341

371
   -2
372
   -2
  0
ENDTAB
  0
TABLE
  2
BLOCK_RECORD
  5
1
330
0
100
AcDbSymbolTable
 70
    2
  0
BLOCK_RECORD
  5
1F
330
1
100
AcDbSymbolTableRecord
100
AcDbBlockTableRecord
  2
*Model_Space
 70
    0
280
    1
281
    0
  0
BLOCK_RECORD
  5
1E
330
1
100
AcDbSymbolTableRecord
100
AcDbBlockTableRecord
  2
*Paper_Space
 70
    0
280
    1
281
    0
  0
ENDTAB
  0
ENDSEC
  0
SECTION
  2
BLOCKS
  0
BLOCK
  5
20
330
1F
100
AcDbEntity
  8
0
100
AcDbBlockBegin
  2
*Model_Space
 70
    0
 10
0
 20
0
 30
0
  3
*Model_Space
  1

  0
ENDBLK
  5
21
330
1F
100
AcDbEntity
  8
0
100
AcDbBlockEnd
  0
BLOCK
  5
1C
330
1B
100
AcDbEntity
  8
0
100
AcDbBlockBegin
  2
*Paper_Space
 70
    0
 10
0
 20
0
 30
0
  3
*Paper_Space
  1

  0
ENDBLK
  5
1D
330
1F
100
AcDbEntity
  8
0
100
AcDbBlockEnd
  0
ENDSEC
  0
SECTION
  2
ENTITIES
  0
IMAGE
  5
56
100
AcDbEntity
  8
zBackground
  6
ByLayer
 62
  256
370
   -1
100
AcDbRasterImage
 10
-3.5
 20
-3
 30
0
 11
0.0305882
 21
0
 31
0
 12
1.872925203599482e-18
 22
0.0305882
 32
0
 13
1004
 23
1612
340
54
 70
    1
280
    0
281
   50
282
   50
283
    0
360
55
  0
CIRCLE
  5
57
100
AcDbEntity
  8
0
  6
ByLayer
 62
  256
370
   -1
100
AcDbCircle
 10
13.476
 20
13.476
 40
13.476
  0
CIRCLE
  5
58
100
AcDbEntity
  8
0
  6
ByLayer
 62
  256
370
   -1
100
AcDbCircle
 10
13.476
 20
13.476
 40
3
  0
POINT
  5
59
100
AcDbEntity
  8
0
  6
ByLayer
 62
  256
370
   -1
100
AcDbPoint
 10
13.476
 20
13.476
  0
LINE
  5
5A
100
AcDbEntity
  8
Gates
  6
ByLayer
 62
  256
370
   -1
100
AcDbLine
 10
12.32855549433014
 20
16.24617608765867
 11
10.70582391234133
 21
14.62344450566986
  0
LINE
  5
5B
100
AcDbEntity
  8
Gates
  6
ByLayer
 62
  256
370
   -1
100
AcDbLine
 10
10.70582391234133
 20
14.62344450566986
 11
10.70582391234133
 21
12.32855549433014
  0
LINE
  5
5C
100
AcDbEntity
  8
Gates
  6
ByLayer
 62
  256
370
   -1
100
AcDbLine
 10
10.70582391234133
 20
12.32855549433014
 11
12.32855549433014
 21
10.70582391234133
  0
LINE
  5
5D
100
AcDbEntity
  8
Gates
  6
ByLayer
 62
  256
370
   -1
100
AcDbLine
 10
12.32855549433014
 20
10.70582391234133
 11
14.62344450566986
 21
10.70582391234133
  0
LINE
  5
5E
100
AcDbEntity
  8
Gates
  6
ByLayer
 62
  256
370
   -1
100
AcDbLine
 10
16.24617608765867
 20
12.32855549433014
 11
16.24617608765867
 21
14.62344450566986
  0
LINE
  5
5F
100
AcDbEntity
  8
Gates
  6
ByLayer
 62
  256
370
   -1
100
AcDbLine
 10
14.62344450566986
 20
16.24617608765867
 11
12.32855549433014
 21
16.24617608765867
  0
LINE
  5
60
100
AcDbEntity
  8
Panels
  6
ByLayer
 62
  256
370
   -1
100
AcDbLine
 10
14.62344450566986
 20
10.70582391234133
 11
16.24617608765867
 21
12.32855549433014
  0
LINE
  5
61
100
AcDbEntity
  8
Panels
  6
ByLayer
 62
  256
370
   -1
100
AcDbLine
 10
16.24617608765867
 20
14.62344450566986
 11
14.62344450566986
 21
16.24617608765867
  0
LINE
  5
62
100
AcDbEntity
  8
Panels
  6
ByLayer
 62
  256
370
   -1
100
AcDbLine
 10
16.24617608765867
 20
12.32855549433014
 11
18.34617608765867
 21
12.32855549433014
  0
LINE
  5
63
100
AcDbEntity
  8
Panels
  6
ByLayer
 62
  256
370
   -1
100
AcDbLine
 10
18.34617608765867
 20
12.32855549433014
 11
20.44617608765867
 21
12.32855549433014
  0
LINE
  5
64
100
AcDbEntity
  8
Panels
  6
ByLayer
 62
  256
370
   -1
100
AcDbLine
 10
20.44617608765867
 20
12.32855549433014
 11
22.54617608765867
 21
12.32855549433014
  0
LINE
  5
65
100
AcDbEntity
  8
Panels
  6
ByLayer
 62
  256
370
   -1
100
AcDbLine
 10
22.54617608765867
 20
12.32855549433014
 11
24.64617608765867
 21
12.32855549433014
  0
LINE
  5
66
100
AcDbEntity
  8
Panels
  6
ByLayer
 62
  256
370
   -1
100
AcDbLine
 10
10.70582391234133
 20
14.62344450566986
 11
8.605823912341332
 21
14.62344450566986
  0
LINE
  5
67
100
AcDbEntity
  8
Panels
  6
ByLayer
 62
  256
370
   -1
100
AcDbLine
 10
8.605823912341332
 20
14.62344450566986
 11
6.505823912341333
 21
14.62344450566986
  0
LINE
  5
68
100
AcDbEntity
  8
Panels
  6
ByLayer
 62
  256
370
   -1
100
AcDbLine
 10
6.505823912341333
 20
14.62344450566986
 11
4.405823912341333
 21
14.62344450566986
  0
LINE
  5
69
100
AcDbEntity
  8
Panels
  6
ByLayer
 62
  256
370
   -1
100
AcDbLine
 10
4.405823912341333
 20
14.62344450566986
 11
2.305823912341333
 21
14.62344450566986
  0
LINE
  5
6A
100
AcDbEntity
  8
Gates
  6
ByLayer
 62
  256
370
   -1
100
AcDbLine
 10
2.305823912341333
 20
14.62344450566986
 11
0.00582391234133306
 21
14.62344450566986
  0
LINE
  5
6B
100
AcDbEntity
  8
Gates
  6
ByLayer
 62
  256
370
   -1
100
AcDbLine
 10
24.64617608765867
 20
12.32855549433014
 11
26.94617608765867
 21
12.32855549433014
  0
LINE
  5
6C
100
AcDbEntity
  8
0
  6
ByLayer
 62
  256
370
   -1
100
AcDbLine
 10
13.476
 20
13.476
 11
13.476
 21
15.776
  0
LINE
  5
6D
100
AcDbEntity
  8
0
  6
ByLayer
 62
  256
370
   -1
100
AcDbLine
 10
26.94617608765867
 20
12.32855549433014
 11
26.94617608765867
 21
14.62855549433014
  0
LINE
  5
6E
100
AcDbEntity
  8
0
  6
ByLayer
 62
  256
370
   -1
100
AcDbLine
 10
0
 20
13.476
 11
1.408297306895734e-16
 21
15.776
  0
LINE
  5
6F
100
AcDbEntity
  8
Panels
  6
ByLayer
 62
  256
370
   -1
100
AcDbLine
 10
12.32855549433014
 20
10.70582391234133
 11
12.32855549433014
 21
8.605823912341332
  0
LINE
  5
70
100
AcDbEntity
  8
Panels
  6
ByLayer
 62
  256
370
   -1
100
AcDbLine
 10
12.32855549433014
 20
8.605823912341332
 11
12.32855549433014
 21
6.505823912341331
  0
LINE
  5
71
100
AcDbEntity
  8
Panels
  6
ByLayer
 62
  256
370
   -1
100
AcDbLine
 10
12.32855549433014
 20
6.505823912341331
 11
12.32855549433014
 21
4.405823912341329
  0
LINE
  5
72
100
AcDbEntity
  8
Panels
  6
ByLayer
 62
  256
370
   -1
100
AcDbLine
 10
12.32855549433014
 20
4.405823912341329
 11
12.32855549433014
 21
2.305823912341328
  0
LINE
  5
73
100
AcDbEntity
  8
Gates
  6
ByLayer
 62
  256
370
   -1
100
AcDbLine
 10
12.32855549433014
 20
2.305823912341328
 11
12.32855549433014
 21
0.005823912341327286
  0
LINE
  5
74
100
AcDbEntity
  8
Panels
  6
ByLayer
 62
  256
370
   -1
100
AcDbLine
 10
10.70582391234133
 20
12.32855549433014
 11
9.220899671849583
 21
10.84363125383839
  0
LINE
  5
75
100
AcDbEntity
  8
Panels
  6
ByLayer
 62
  256
370
   -1
100
AcDbLine
 10
9.220899671849583
 20
10.84363125383839
 11
7.735975431357833
 21
9.358707013346638
  0
LINE
  5
76
100
AcDbEntity
  8
Panels
  6
ByLayer
 62
  256
370
   -1
100
AcDbLine
 10
7.735975431357833
 20
9.358707013346638
 11
6.251051190866082
 21
7.873782772854888
  0
LINE
  5
77
100
AcDbEntity
  8
Panels
  6
ByLayer
 62
  256
370
   -1
100
AcDbLine
 10
6.251051190866082
 20
7.873782772854888
 11
4.76612695037433
 21
6.388858532363137
  0
LINE
  5
78
100
AcDbEntity
  8
Gates
  6
ByLayer
 62
  256
370
   -1
100
AcDbLine
 10
4.76612695037433
 20
6.388858532363137
 11
3.139781353645271
 21
4.762512935634078
  0
LINE
  5
79
100
AcDbEntity
  8
Panels
  6
ByLayer
 62
  256
370
   -1
100
AcDbLine
 10
26.94617608765867
 20
12.32855549433014
 11
26.61766371107419
 21
10.25440997908035
  0
LINE
  5
7A
100
AcDbEntity
  8
Panels
  6
ByLayer
 62
  256
370
   -1
100
AcDbLine
 10
26.60083600013608
 20
10.23548264999933
 11
25.9519003119487
 21
8.238263965779511
  0
LINE
  5
7B
100
AcDbEntity
  8
Panels
  6
ByLayer
 62
  256
370
   -1
100
AcDbLine
 10
25.93231889145679
 20
8.222202097486038
 11
24.97893884200374
 21
6.351088396690466
  0
LINE
  5
7C
100
AcDbEntity
  8
Panels
  6
ByLayer
 62
  256
370
   -1
100
AcDbLine
 10
24.95708587151757
 20
6.338287485688205
 11
23.72273684170337
 21
4.639351797500815
  0
LINE
  5
7D
100
AcDbEntity
  8
Panels
  6
ByLayer
 62
  256
370
   -1
100
AcDbLine
 10
23.69915041388214
 20
4.630127044702432
 11
22.21422617339039
 21
3.145202804210681
  0
LINE
  5
7E
100
AcDbEntity
  8
Panels
  6
ByLayer
 62
  256
370
   -1
100
AcDbLine
 10
22.18948706436592
 20
3.139781353645271
 11
20.49055137617854
 21
1.905432323831077
  0
LINE
  5
7F
100
AcDbEntity
  8
Panels
  6
ByLayer
 62
  256
370
   -1
100
AcDbLine
 10
20.46526874491942
 20
1.903947669604323
 11
18.59415504412384
 21
0.9505676201512721
  0
LINE
  5
80
100
AcDbEntity
  8
Panels
  6
ByLayer
 62
  256
370
   -1
100
AcDbLine
 10
18.56895143291991
 20
0.9530563193775219
 11
16.57173274870009
 21
0.3041206311901323
  0
LINE
  5
81
100
AcDbEntity
  8
Panels
  6
ByLayer
 62
  256
370
   -1
100
AcDbLine
 10
16.54722875410518
 20
0.3105214038349153
 11
14.47308323885539
 21
-0.01799097274957084
  0
LINE
  5
82
100
AcDbEntity
  8
Panels
  6
ByLayer
 62
  256
370
   -1
100
AcDbLine
 10
14.44988223054052
 20
-0.007835734951715523
 11
12.34988223054052
 21
-0.007835734951717299
  0
LINE
  5
83
100
AcDbEntity
  8
Panels
  6
ByLayer
 62
  256
370
   -1
100
AcDbLine
 10
12.32855549433014
 20
0.005823912341327286
 11
10.25440997908035
 21
0.3343362889258117
  0
LINE
  5
84
100
AcDbEntity
  8
Panels
  6
ByLayer
 62
  256
370
   -1
100
AcDbLine
 10
10.23548264999934
 20
0.3511639998639176
 11
8.238263965779513
 21
1.000099688051305
  0
LINE
  5
85
100
AcDbEntity
  8
Panels
  6
ByLayer
 62
  256
370
   -1
100
AcDbLine
 10
8.22220209748604
 20
1.019681108543208
 11
6.351088396690466
 21
1.973061157996256
  0
LINE
  5
86
100
AcDbEntity
  8
Panels
  6
ByLayer
 62
  256
370
   -1
100
AcDbLine
 10
6.338287485688205
 20
1.994914128482435
 11
4.639351797500815
 21
3.229263158296627
  0
LINE
  5
87
100
AcDbEntity
  8
Panels
  6
ByLayer
 62
  256
370
   -1
100
AcDbLine
 10
4.630127044702432
 20
3.252849586117863
 11
3.145202804210681
 21
4.737773826609612
  0
LINE
  5
88
100
AcDbEntity
  8
Panels
  6
ByLayer
 62
  256
370
   -1
100
AcDbLine
 10
3.139781353645271
 20
4.762512935634078
 11
1.905432323831077
 21
6.461448623821466
  0
LINE
  5
89
100
AcDbEntity
  8
Panels
  6
ByLayer
 62
  256
370
   -1
100
AcDbLine
 10
1.903947669604323
 20
6.486731255080585
 11
0.9505676201512738
 21
8.357844955876157
  0
LINE
  5
8A
100
AcDbEntity
  8
Panels
  6
ByLayer
 62
  256
370
   -1
100
AcDbLine
 10
0.9530563193775219
 20
8.383048567080086
 11
0.3041206311901323
 21
10.38026725129991
  0
LINE
  5
8B
100
AcDbEntity
  8
Panels
  6
ByLayer
 62
  256
370
   -1
100
AcDbLine
 10
0.3105214038349153
 20
10.40477124589482
 11
-0.01799097274957084
 21
12.47891676114461
  0
LINE
  5
8C
100
AcDbEntity
  8
Gates
  6
ByLayer
 62
  256
370
   -1
100
AcDbLine
 10
26.94617608765867
 20
12.32855549433014
 11
26.94617608765867
 21
14.62855549433014
  0
LINE
  5
8D
100
AcDbEntity
  8
Panels
  6
ByLayer
 62
  256
370
   -1
100
AcDbLine
 10
26.94617608765867
 20
14.62855549433014
 11
26.94617608765867
 21
16.72855549433014
  0
LINE
  5
8E
100
AcDbEntity
  8
Panels
  6
ByLayer
 62
  256
370
   -1
100
AcDbLine
 10
26.94617608765867
 20
16.72855549433014
 11
26.94617608765867
 21
18.82855549433014
  0
LINE
  5
8F
100
AcDbEntity
  8
Panels
  6
ByLayer
 62
  256
370
   -1
100
AcDbLine
 10
26.94617608765867
 20
18.82855549433014
 11
26.94617608765867
 21
20.92855549433014
  0
LINE
  5
90
100
AcDbEntity
  8
Panels
  6
ByLayer
 62
  256
370
   -1
100
AcDbLine
 10
26.94617608765867
 20
20.92855549433014
 11
26.94617608765867
 21
23.02855549433015
  0
LINE
  5
91
100
AcDbEntity
  8
Panels
  6
ByLayer
 62
  256
370
   -1
100
AcDbLine
 10
-0.01799097274957084
 20
12.47891676114461
 11
-0.01799097274957072
 21
14.57891676114461
  0
LINE
  5
92
100
AcDbEntity
  8
Panels
  6
ByLayer
 62
  256
370
   -1
100
AcDbLine
 10
0.00582391234133306
 20
14.62344450566986
 11
0.005823912341333188
 21
16.72344450566986
  0
LINE
  5
93
100
AcDbEntity
  8
Panels
  6
ByLayer
 62
  256
370
   -1
100
AcDbLine
 10
0.005823912341333188
 20
16.72344450566986
 11
0.005823912341333316
 21
18.82344450566987
  0
LINE
  5
94
100
AcDbEntity
  8
Panels
  6
ByLayer
 62
  256
370
   -1
100
AcDbLine
 10
0.005823912341333316
 20
18.82344450566987
 11
0.005823912341333445
 21
20.92344450566987
  0
LINE
  5
95
100
AcDbEntity
  8
Panels
  6
ByLayer
 62
  256
370
   -1
100
AcDbLine
 10
0.005823912341333445
 20
20.92344450566987
 11
0.005823912341333573
 21
23.02344450566987
  0
LINE
  5
96
100
AcDbEntity
  8
Panels
  6
ByLayer
 62
  256
370
   -1
100
AcDbLine
 10
0.005823912341333573
 20
23.02344450566987
 11
0.005823912341333701
 21
25.12344450566987
  0
LINE
  5
97
100
AcDbEntity
  8
Panels
  6
ByLayer
 62
  256
370
   -1
100
AcDbLine
 10
0.005823912341333701
 20
25.12344450566987
 11
0.00582391234133383
 21
27.22344450566987
  0
LINE
  5
98
100
AcDbEntity
  8
Panels
  6
ByLayer
 62
  256
370
   -1
100
AcDbLine
 10
0.00582391234133383
 20
27.22344450566987
 11
0.005823912341333958
 21
29.32344450566987
  0
LINE
  5
99
100
AcDbEntity
  8
Panels
  6
ByLayer
 62
  256
370
   -1
100
AcDbLine
 10
0.005823912341333958
 20
29.32344450566987
 11
0.005823912341334087
 21
31.42344450566987
  0
LINE
  5
9A
100
AcDbEntity
  8
Panels
  6
ByLayer
 62
  256
370
   -1
100
AcDbLine
 10
14.62344450566986
 20
16.24617608765867
 11
14.62344450566986
 21
18.34617608765867
  0
LINE
  5
9B
100
AcDbEntity
  8
Panels
  6
ByLayer
 62
  256
370
   -1
100
AcDbLine
 10
14.62344450566986
 20
18.34617608765867
 11
14.62344450566986
 21
20.44617608765867
  0
LINE
  5
9C
100
AcDbEntity
  8
Panels
  6
ByLayer
 62
  256
370
   -1
100
AcDbLine
 10
12.32855549433014
 20
16.24617608765867
 11
12.32855549433014
 21
18.34617608765867
  0
LINE
  5
9D
100
AcDbEntity
  8
Panels
  6
ByLayer
 62
  256
370
   -1
100
AcDbLine
 10
12.32855549433014
 20
18.34617608765867
 11
12.32855549433014
 21
20.44617608765867
  0
CIRCLE
  5
9E
100
AcDbEntity
  8
0
  6
ByLayer
 62
  256
370
   -1
100
AcDbCircle
 10
6.9527
 20
24.5787
 40
20
  0
POINT
  5
9F
100
AcDbEntity
  8
0
  6
ByLayer
 62
  256
370
   -1
100
AcDbPoint
 10
6.9527
 20
24.5787
  0
LINE
  5
A0
100
AcDbEntity
  8
Gates
  6
ByLayer
 62
  256
370
   -1
100
AcDbLine
 10
0.005823912341334087
 20
31.42344450566987
 11
0.005823912341334136
 21
32.22344450566987
  0
LINE
  5
A1
100
AcDbEntity
  8
Panels
  6
ByLayer
 62
  256
370
   -1
100
AcDbLine
 10
0.005823912341334136
 20
32.22344450566987
 11
0.005823912341334264
 21
34.32344450566987
  0
LINE
  5
A2
100
AcDbEntity
  8
Panels
  6
ByLayer
 62
  256
370
   -1
100
AcDbLine
 10
0.005823912341334264
 20
34.32344450566987
 11
0.005823912341334393
 21
36.42344450566987
  0
LINE
  5
A3
100
AcDbEntity
  8
Panels
  6
ByLayer
 62
  256
370
   -1
100
AcDbLine
 10
0.005823912341334393
 20
36.42344450566987
 11
0.005823912341334521
 21
38.52344450566987
  0
LINE
  5
A4
100
AcDbEntity
  8
Panels
  6
ByLayer
 62
  256
370
   -1
100
AcDbLine
 10
0.005823912341334521
 20
38.52344450566987
 11
0.005823912341334649
 21
40.62344450566987
  0
LINE
  5
A5
100
AcDbEntity
  8
Panels
  6
ByLayer
 62
  256
370
   -1
100
AcDbLine
 10
0.005823912341334649
 20
40.62344450566987
 11
0.005823912341334778
 21
42.72344450566987
  0
LINE
  5
A6
100
AcDbEntity
  8
Gates
  6
ByLayer
 62
  256
370
   -1
100
AcDbLine
 10
0.005823912341334778
 20
42.72344450566987
 11
0.005823912341334918
 21
45.02344450566987
  0
LINE
  5
A7
100
AcDbEntity
  8
Gates
  6
ByLayer
 62
  256
370
   -1
100
AcDbLine
 10
0.005823912341334136
 20
32.22344450566987
 11
2.305823912341334
 21
32.22344450566987
  0
LINE
  5
A8
100
AcDbEntity
  8
Gates
  6
ByLayer
 62
  256
370
   -1
100
AcDbLine
 10
0.005823912341334918
 20
45.02344450566987
 11
2.305823912341335
 21
45.02344450566987
  0
LINE
  5
A9
100
AcDbEntity
  8
Panels
  6
ByLayer
 62
  256
370
   -1
100
AcDbLine
 10
2.305823912341335
 20
45.02344450566987
 11
4.405823912341335
 21
45.02344450566987
  0
LINE
  5
AA
100
AcDbEntity
  8
Panels
  6
ByLayer
 62
  256
370
   -1
100
AcDbLine
 10
4.405823912341335
 20
45.02344450566987
 11
6.505823912341334
 21
45.02344450566987
  0
CIRCLE
  5
AB
100
AcDbEntity
  8
0
  6
ByLayer
 62
  256
370
   -1
100
AcDbCircle
 10
6.9527
 20
24.5787
 40
6.125887185583164
  0
CIRCLE
  5
AC
100
AcDbEntity
  8
0
  6
ByLayer
 62
  256
370
   -1
100
AcDbCircle
 10
6.9527
 20
24.5787
 40
6.920712814621487
  0
LINE
  5
AD
100
AcDbEntity
  8
Race
  6
ByLayer
 62
  256
370
   -1
100
AcDbLine
 10
2.305823912341334
 20
32.22344450566987
 11
5.605823912341334
 21
32.22344450566987
  0
LINE
  5
AE
100
AcDbEntity
  8
Gates
  6
ByLayer
 62
  256
370
   -1
100
AcDbLine
 10
0.005823912341334087
 20
31.42344450566987
 11
2.305823912341334
 21
31.42344450566987
  0
LINE
  5
AF
100
AcDbEntity
  8
Race
  6
ByLayer
 62
  256
370
   -1
100
AcDbLine
 10
2.305823912341334
 20
31.42344450566987
 11
5.605823912341334
 21
31.42344450566987
  0
LINE
  5
B0
100
AcDbEntity
  8
Panels
  6
ByLayer
 62
  256
370
   -1
100
AcDbLine
 10
26.94617608765867
 20
23.02855549433015
 11
26.94617608765867
 21
25.12855549433015
  0
LINE
  5
B1
100
AcDbEntity
  8
Panels
  6
ByLayer
 62
  256
370
   -1
100
AcDbLine
 10
26.94617608765867
 20
25.12855549433015
 11
26.83661399502414
 21
27.21912475968322
  0
LINE
  5
B2
100
AcDbEntity
  8
Panels
  6
ByLayer
 62
  256
370
   -1
100
AcDbLine
 10
26.83661399502414
 20
27.21912475968322
 11
26.50912810233478
 21
29.28678931068534
  0
LINE
  5
B3
100
AcDbEntity
  8
Panels
  6
ByLayer
 62
  256
370
   -1
100
AcDbLine
 10
26.50912810233478
 20
29.28678931068534
 11
25.96730641356174
 21
31.3088953818291
  0
LINE
  5
B4
100
AcDbEntity
  8
Panels
  6
ByLayer
 62
  256
370
   -1
100
AcDbLine
 10
25.96730641356174
 20
31.3088953818291
 11
25.21708524051069
 21
33.26328835584616
  0
LINE
  5
B5
100
AcDbEntity
  8
Panels
  6
ByLayer
 62
  256
370
   -1
100
AcDbLine
 10
25.21708524051069
 20
33.26328835584616
 11
24.26668416334745
 21
35.12855549433014
  0
LINE
  5
B6
100
AcDbEntity
  8
Panels
  6
ByLayer
 62
  256
370
   -1
100
AcDbLine
 10
24.26668416334745
 20
35.12855549433014
 11
23.12651597515762
 21
36.88426054017961
  0
LINE
  5
B7
100
AcDbEntity
  8
Panels
  6
ByLayer
 62
  256
370
   -1
100
AcDbLine
 10
23.12651597515762
 20
36.88426054017961
 11
21.80907259720656
 21
38.51116762150731
  0
LINE
  5
B8
100
AcDbEntity
  8
Panels
  6
ByLayer
 62
  256
370
   -1
100
AcDbLine
 10
21.80907259720656
 20
38.51116762150731
 11
20.32878821483584
 21
39.99145200387804
  0
LINE
  5
B9
100
AcDbEntity
  8
Panels
  6
ByLayer
 62
  256
370
   -1
100
AcDbLine
 10
20.32878821483584
 20
39.99145200387804
 11
18.70188113350813
 21
41.3088953818291
  0
LINE
  5
BA
100
AcDbEntity
  8
Panels
  6
ByLayer
 62
  256
370
   -1
100
AcDbLine
 10
18.70188113350813
 20
41.3088953818291
 11
16.94617608765867
 21
42.44906357001892
  0
LINE
  5
BB
100
AcDbEntity
  8
Panels
  6
ByLayer
 62
  256
370
   -1
100
AcDbLine
 10
16.94617608765867
 20
42.44906357001892
 11
15.08090894917468
 21
43.39946464718217
  0
LINE
  5
BC
100
AcDbEntity
  8
Panels
  6
ByLayer
 62
  256
370
   -1
100
AcDbLine
 10
15.08090894917468
 20
43.39946464718217
 11
13.12651597515762
 21
44.14968582023322
  0
LINE
  5
BD
100
AcDbEntity
  8
Panels
  6
ByLayer
 62
  256
370
   -1
100
AcDbLine
 10
13.12651597515762
 20
44.14968582023322
 11
11.10440990401386
 21
44.69150750900626
  0
LINE
  5
BE
100
AcDbEntity
  8
Panels
  6
ByLayer
 62
  256
370
   -1
100
AcDbLine
 10
11.10440990401386
 20
44.69150750900626
 11
9.036745353011744
 21
45.01899340169561
  0
LINE
  5
BF
100
AcDbEntity
  8
Panels
  6
ByLayer
 62
  256
370
   -1
100
AcDbLine
 10
9.036745353011744
 20
45.01899340169561
 11
6.946176087658672
 21
45.12855549433014
  0
LINE
  5
C0
100
AcDbEntity
  8
Gates
  6
ByLayer
 62
  256
370
   -1
100
AcDbLine
 10
23.12651597515762
 20
36.88426054017961
 11
21.36952603273364
 21
35.40001448840081
  0
LINE
  5
C1
100
AcDbEntity
  8
Panels
  6
ByLayer
 62
  256
370
   -1
100
AcDbLine
 10
21.36952603273364
 20
35.40001448840081
 11
19.76531782443348
 21
34.04483331068973
  0
LINE
  5
C2
100
AcDbEntity
  8
Panels
  6
ByLayer
 62
  256
370
   -1
100
AcDbLine
 10
19.76531782443348
 20
34.04483331068973
 11
18.16110961613332
 21
32.68965213297864
  0
LINE
  5
C3
100
AcDbEntity
  8
Panels
  6
ByLayer
 62
  256
370
   -1
100
AcDbLine
 10
18.16110961613332
 20
32.68965213297864
 11
16.55690140783317
 21
31.33447095526756
  0
LINE
  5
C4
100
AcDbEntity
  8
Panels
  6
ByLayer
 62
  256
370
   -1
100
AcDbLine
 10
16.55690140783317
 20
31.33447095526756
 11
14.95269319953301
 21
29.97928977755648
  0
LINE
  5
C5
100
AcDbEntity
  8
Panels
  6
ByLayer
 62
  256
370
   -1
100
AcDbLine
 10
14.95269319953301
 20
29.97928977755648
 11
13.34848499123285
 21
28.62410859984539
  0
CIRCLE
  5
C6
100
AcDbEntity
  8
temp
  6
ByLayer
 62
  256
370
   -1
100
AcDbCircle
 10
0
 20
0
 40
8.044
  0
CIRCLE
  5
C7
100
AcDbEntity
  8
temp
  6
ByLayer
 62
  256
370
   -1
100
AcDbCircle
 10
0
 20
0
 40
8.843999999999999
  0
LINE
  5
C8
100
AcDbEntity
  8
temp
  6
ByLayer
 62
  256
370
   -1
100
AcDbLine
 10
8.044
 20
-1.970146702029441e-15
 11
7.769907346669267
 21
2.081940398804673
  0
LINE
  5
C9
100
AcDbEntity
  8
temp
  6
ByLayer
 62
  256
370
   -1
100
AcDbLine
 10
7.769907346669267
 20
2.081940398804673
 11
6.966308348042024
 21
4.022
  0
LINE
  5
CA
100
AcDbEntity
  8
temp
  6
ByLayer
 62
  256
370
   -1
100
AcDbLine
 10
6.966308348042024
 20
4.022
 11
5.68796694786459
 21
5.687966947864587
  0
LINE
  5
CB
100
AcDbEntity
  8
temp
  6
ByLayer
 62
  256
370
   -1
100
AcDbLine
 10
5.68796694786459
 20
5.687966947864587
 11
4.022000000000005
 21
6.966308348042022
  0
LINE
  5
CC
100
AcDbEntity
  8
temp
  6
ByLayer
 62
  256
370
   -1
100
AcDbLine
 10
4.022000000000005
 20
6.966308348042022
 11
2.081940398804677
 21
7.769907346669266
  0
LINE
  5
CD
100
AcDbEntity
  8
temp
  6
ByLayer
 62
  256
370
   -1
100
AcDbLine
 10
2.081940398804677
 20
7.769907346669266
 11
2.462683377536801e-15
 21
8.044
  0
LINE
  5
CE
100
AcDbEntity
  8
temp
  6
ByLayer
 62
  256
370
   -1
100
AcDbLine
 10
2.462683377536801e-15
 20
8.044
 11
-2.081940398804672
 21
7.769907346669267
  0
LINE
  5
CF
100
AcDbEntity
  8
temp
  6
ByLayer
 62
  256
370
   -1
100
AcDbLine
 10
-2.081940398804672
 20
7.769907346669267
 11
-4.021999999999994
 21
6.966308348042029
  0
LINE
  5
D0
100
AcDbEntity
  8
temp
  6
ByLayer
 62
  256
370
   -1
100
AcDbLine
 10
-4.021999999999994
 20
6.966308348042029
 11
-5.687966947864582
 21
5.687966947864595
  0
LINE
  5
D1
100
AcDbEntity
  8
temp
  6
ByLayer
 62
  256
370
   -1
100
AcDbLine
 10
-5.687966947864582
 20
5.687966947864595
 11
-6.966308348042026
 21
4.021999999999998
  0
LINE
  5
D2
100
AcDbEntity
  8
temp
  6
ByLayer
 62
  256
370
   -1
100
AcDbLine
 10
-6.966308348042026
 20
4.021999999999998
 11
-7.769907346669266
 21
2.081940398804677
  0
LINE
  5
D3
100
AcDbEntity
  8
temp
  6
ByLayer
 62
  256
370
   -1
100
AcDbLine
 10
-7.769907346669266
 20
2.081940398804677
 11
-8.044
 21
2.955220053044161e-15
  0
LINE
  5
D4
100
AcDbEntity
  8
temp
  6
ByLayer
 62
  256
370
   -1
100
AcDbLine
 10
-8.044
 20
2.955220053044161e-15
 11
-7.769907346669267
 21
-2.081940398804672
  0
LINE
  5
D5
100
AcDbEntity
  8
temp
  6
ByLayer
 62
  256
370
   -1
100
AcDbLine
 10
-7.769907346669267
 20
-2.081940398804672
 11
-6.966308348042029
 21
-4.021999999999993
  0
LINE
  5
D6
100
AcDbEntity
  8
temp
  6
ByLayer
 62
  256
370
   -1
100
AcDbLine
 10
-6.966308348042029
 20
-4.021999999999993
 11
-5.687966947864596
 21
-5.687966947864581
  0
LINE
  5
D7
100
AcDbEntity
  8
temp
  6
ByLayer
 62
  256
370
   -1
100
AcDbLine
 10
-5.687966947864596
 20
-5.687966947864581
 11
-4.022000000000011
 21
-6.966308348042018
  0
LINE
  5
D8
100
AcDbEntity
  8
temp
  6
ByLayer
 62
  256
370
   -1
100
AcDbLine
 10
-4.022000000000011
 20
-6.966308348042018
 11
-2.081940398804678
 21
-7.769907346669265
  0
LINE
  5
D9
100
AcDbEntity
  8
temp
  6
ByLayer
 62
  256
370
   -1
100
AcDbLine
 10
-2.081940398804678
 20
-7.769907346669265
 11
-3.447756728551521e-15
 21
-8.044
  0
LINE
  5
DA
100
AcDbEntity
  8
temp
  6
ByLayer
 62
  256
370
   -1
100
AcDbLine
 10
-3.447756728551521e-15
 20
-8.044
 11
2.081940398804671
 21
-7.769907346669267
  0
LINE
  5
DB
100
AcDbEntity
  8
temp
  6
ByLayer
 62
  256
370
   -1
100
AcDbLine
 10
2.081940398804671
 20
-7.769907346669267
 11
4.021999999999993
 21
-6.966308348042029
  0
LINE
  5
DC
100
AcDbEntity
  8
temp
  6
ByLayer
 62
  256
370
   -1
100
AcDbLine
 10
4.021999999999993
 20
-6.966308348042029
 11
5.687966947864581
 21
-5.687966947864596
  0
LINE
  5
DD
100
AcDbEntity
  8
temp
  6
ByLayer
 62
  256
370
   -1
100
AcDbLine
 10
5.687966947864581
 20
-5.687966947864596
 11
6.966308348042018
 21
-4.022000000000012
  0
LINE
  5
DE
100
AcDbEntity
  8
temp
  6
ByLayer
 62
  256
370
   -1
100
AcDbLine
 10
6.966308348042018
 20
-4.022000000000012
 11
7.769907346669265
 21
-2.081940398804679
  0
LINE
  5
DF
100
AcDbEntity
  8
temp
  6
ByLayer
 62
  256
370
   -1
100
AcDbLine
 10
7.769907346669265
 20
-2.081940398804679
 11
8.044
 21
-1.970146702029441e-15
  0
LINE
  5
E0
100
AcDbEntity
  8
Race
  6
ByLayer
 62
  256
370
   -1
100
AcDbLine
 10
13.06910805783362
 20
22.8379182105821
 11
12.9409119011966
 21
24.93390684418877
  0
LINE
  5
E1
100
AcDbEntity
  8
Race
  6
ByLayer
 62
  256
370
   -1
100
AcDbLine
 10
12.9409119011966
 20
24.93390684418877
 11
12.27460214597409
 21
26.92529679015118
  0
LINE
  5
E2
100
AcDbEntity
  8
Race
  6
ByLayer
 62
  256
370
   -1
100
AcDbLine
 10
12.27460214597409
 20
26.92529679015118
 11
11.11558670085557
 21
28.67637811457949
  0
LINE
  5
E3
100
AcDbEntity
  8
Race
  6
ByLayer
 62
  256
370
   -1
100
AcDbLine
 10
11.11558670085557
 20
28.67637811457949
 11
9.542850553062278
 21
30.0678175190126
  0
LINE
  5
E4
100
AcDbEntity
  8
Race
  6
ByLayer
 62
  256
370
   -1
100
AcDbLine
 10
9.542850553062278
 20
30.0678175190126
 11
7.663573071996959
 21
31.00479070750075
  0
LINE
  5
E5
100
AcDbEntity
  8
Race
  6
ByLayer
 62
  256
370
   -1
100
AcDbLine
 10
7.663573071996959
 20
31.00479070750075
 11
5.605823912341334
 21
31.42344450566987
  0
LINE
  5
E6
100
AcDbEntity
  8
Race
  6
ByLayer
 62
  256
370
   -1
100
AcDbLine
 10
13.82832197687669
 20
22.80448618246777
 11
13.68737632678994
 21
25.10892719137098
  0
LINE
  5
E7
100
AcDbEntity
  8
Race
  6
ByLayer
 62
  256
370
   -1
100
AcDbLine
 10
13.68737632678994
 20
25.10892719137098
 11
12.95480006184863
 21
27.29836685846342
  0
LINE
  5
E8
100
AcDbEntity
  8
Race
  6
ByLayer
 62
  256
370
   -1
100
AcDbLine
 10
12.95480006184863
 20
27.29836685846342
 11
11.680517043869
 21
29.22359848865286
  0
LINE
  5
E9
100
AcDbEntity
  8
Race
  6
ByLayer
 62
  256
370
   -1
100
AcDbLine
 10
11.680517043869
 20
29.22359848865286
 11
9.951367554674082
 21
30.7534207279376
  0
LINE
  5
EA
100
AcDbEntity
  8
Race
  6
ByLayer
 62
  256
370
   -1
100
AcDbLine
 10
9.951367554674082
 20
30.7534207279376
 11
7.885190274397893
 21
31.78357871886117
  0
LINE
  5
EB
100
AcDbEntity
  8
Race
  6
ByLayer
 62
  256
370
   -1
100
AcDbLine
 10
7.885190274397893
 20
31.78357871886117
 11
5.622791770171844
 21
32.2438688967587
  0
LINE
  5
EC
100
AcDbEntity
  8
Panels
  6
ByLayer
 62
  256
370
   -1
100
AcDbLine
 10
12.32855549433014
 20
20.44617608765867
 11
13.07856123111852
 21
22.4076784187265
  0
LINE
  5
ED
100
AcDbEntity
  8
Panels
  6
ByLayer
 62
  256
370
   -1
100
AcDbLine
 10
14.62344450566986
 20
20.44617608765867
 11
13.87343876888149
 21
22.4076784187265
  0
LINE
  5
EE
100
AcDbEntity
  8
Gates
  6
ByLayer
 62
  256
370
   -1
100
AcDbLine
 10
13.07856123111852
 20
22.4076784187265
 11
13.87856123111852
 21
22.4076784187265
  0
POINT
  5
EF
100
AcDbEntity
  8
Layout
  6
ByLayer
 62
  256
370
   -1
100
AcDbPoint
 10
6.9527
 20
24.5787
  0
POINT
  5
F0
100
AcDbEntity
  8
Layout
  6
ByLayer
 62
  256
370
   -1
100
AcDbPoint
 10
13.476
 20
13.476
  0
POINT
  5
F1
100
AcDbEntity
  8
Posts
  6
ByLayer
 62
  256
370
   -1
100
AcDbPoint
 10
2.305823912341335
 20
45.02344450566987
  0
POINT
  5
F2
100
AcDbEntity
  8
Posts
  6
ByLayer
 62
  256
370
   -1
100
AcDbPoint
 10
4.405823912341335
 20
45.02344450566987
  0
POINT
  5
F3
100
AcDbEntity
  8
Posts
  6
ByLayer
 62
  256
370
   -1
100
AcDbPoint
 10
6.505823912341334
 20
45.02344450566987
  0
POINT
  5
F4
100
AcDbEntity
  8
Posts
  6
ByLayer
 62
  256
370
   -1
100
AcDbPoint
 10
6.946176087658672
 20
45.12855549433014
  0
POINT
  5
F5
100
AcDbEntity
  8
Posts
  6
ByLayer
 62
  256
370
   -1
100
AcDbPoint
 10
9.036745353011744
 20
45.01899340169561
  0
POINT
  5
F6
100
AcDbEntity
  8
Posts
  6
ByLayer
 62
  256
370
   -1
100
AcDbPoint
 10
11.10440990401386
 20
44.69150750900626
  0
POINT
  5
F7
100
AcDbEntity
  8
Posts
  6
ByLayer
 62
  256
370
   -1
100
AcDbPoint
 10
13.12651597515762
 20
44.14968582023322
  0
POINT
  5
F8
100
AcDbEntity
  8
Posts
  6
ByLayer
 62
  256
370
   -1
100
AcDbPoint
 10
15.08090894917468
 20
43.39946464718217
  0
POINT
  5
F9
100
AcDbEntity
  8
Posts
  6
ByLayer
 62
  256
370
   -1
100
AcDbPoint
 10
16.94617608765867
 20
42.44906357001892
  0
POINT
  5
FA
100
AcDbEntity
  8
Posts
  6
ByLayer
 62
  256
370
   -1
100
AcDbPoint
 10
18.70188113350813
 20
41.3088953818291
  0
POINT
  5
FB
100
AcDbEntity
  8
Posts
  6
ByLayer
 62
  256
370
   -1
100
AcDbPoint
 10
20.32878821483584
 20
39.99145200387804
  0
POINT
  5
FC
100
AcDbEntity
  8
Posts
  6
ByLayer
 62
  256
370
   -1
100
AcDbPoint
 10
21.80907259720656
 20
38.51116762150731
  0
POINT
  5
FD
100
AcDbEntity
  8
Posts
  6
ByLayer
 62
  256
370
   -1
100
AcDbPoint
 10
23.12651597515762
 20
36.88426054017961
  0
POINT
  5
FE
100
AcDbEntity
  8
Posts
  6
ByLayer
 62
  256
370
   -1
100
AcDbPoint
 10
24.26668416334745
 20
35.12855549433014
  0
POINT
  5
FF
100
AcDbEntity
  8
Posts
  6
ByLayer
 62
  256
370
   -1
100
AcDbPoint
 10
25.21708524051069
 20
33.26328835584616
  0
POINT
  5
100
100
AcDbEntity
  8
Posts
  6
ByLayer
 62
  256
370
   -1
100
AcDbPoint
 10
25.96730641356174
 20
31.3088953818291
  0
POINT
  5
101
100
AcDbEntity
  8
Posts
  6
ByLayer
 62
  256
370
   -1
100
AcDbPoint
 10
26.50912810233478
 20
29.28678931068534
  0
POINT
  5
102
100
AcDbEntity
  8
Posts
  6
ByLayer
 62
  256
370
   -1
100
AcDbPoint
 10
26.83661399502414
 20
27.21912475968322
  0
POINT
  5
103
100
AcDbEntity
  8
Posts
  6
ByLayer
 62
  256
370
   -1
100
AcDbPoint
 10
26.94617608765867
 20
25.12855549433015
  0
POINT
  5
104
100
AcDbEntity
  8
Posts
  6
ByLayer
 62
  256
370
   -1
100
AcDbPoint
 10
26.94617608765867
 20
23.02855549433015
  0
POINT
  5
105
100
AcDbEntity
  8
Posts
  6
ByLayer
 62
  256
370
   -1
100
AcDbPoint
 10
26.94617608765867
 20
20.92855549433014
  0
POINT
  5
106
100
AcDbEntity
  8
Posts
  6
ByLayer
 62
  256
370
   -1
100
AcDbPoint
 10
26.94617608765867
 20
18.82855549433014
  0
POINT
  5
107
100
AcDbEntity
  8
Posts
  6
ByLayer
 62
  256
370
   -1
100
AcDbPoint
 10
26.94617608765867
 20
16.72855549433014
  0
POINT
  5
108
100
AcDbEntity
  8
Posts
  6
ByLayer
 62
  256
370
   -1
100
AcDbPoint
 10
26.94617608765867
 20
14.62855549433014
  0
POINT
  5
109
100
AcDbEntity
  8
Posts
  6
ByLayer
 62
  256
370
   -1
100
AcDbPoint
 10
26.94617608765867
 20
12.32855549433014
  0
POINT
  5
10A
100
AcDbEntity
  8
Posts
  6
ByLayer
 62
  256
370
   -1
100
AcDbPoint
 10
26.61766371107419
 20
10.25440997908035
  0
POINT
  5
10B
100
AcDbEntity
  8
Posts
  6
ByLayer
 62
  256
370
   -1
100
AcDbPoint
 10
25.9519003119487
 20
8.238263965779511
  0
POINT
  5
10C
100
AcDbEntity
  8
Posts
  6
ByLayer
 62
  256
370
   -1
100
AcDbPoint
 10
24.97893884200374
 20
6.351088396690466
  0
POINT
  5
10D
100
AcDbEntity
  8
Posts
  6
ByLayer
 62
  256
370
   -1
100
AcDbPoint
 10
23.69915041388214
 20
4.630127044702432
  0
POINT
  5
10E
100
AcDbEntity
  8
Posts
  6
ByLayer
 62
  256
370
   -1
100
AcDbPoint
 10
22.21422617339039
 20
3.145202804210681
  0
POINT
  5
10F
100
AcDbEntity
  8
Posts
  6
ByLayer
 62
  256
370
   -1
100
AcDbPoint
 10
20.49055137617854
 20
1.905432323831077
  0
POINT
  5
110
100
AcDbEntity
  8
Posts
  6
ByLayer
 62
  256
370
   -1
100
AcDbPoint
 10
18.56895143291991
 20
0.9530563193775219
  0
POINT
  5
111
100
AcDbEntity
  8
Posts
  6
ByLayer
 62
  256
370
   -1
100
AcDbPoint
 10
16.57173274870009
 20
0.3041206311901323
  0
POINT
  5
112
100
AcDbEntity
  8
Posts
  6
ByLayer
 62
  256
370
   -1
100
AcDbPoint
 10
14.44988223054052
 20
-0.007835734951715523
  0
POINT
  5
113
100
AcDbEntity
  8
Posts
  6
ByLayer
 62
  256
370
   -1
100
AcDbPoint
 10
12.32855549433014
 20
0.005823912341327286
  0
POINT
  5
114
100
AcDbEntity
  8
Posts
  6
ByLayer
 62
  256
370
   -1
100
AcDbPoint
 10
10.25440997908035
 20
0.3343362889258117
  0
POINT
  5
115
100
AcDbEntity
  8
Posts
  6
ByLayer
 62
  256
370
   -1
100
AcDbPoint
 10
8.238263965779513
 20
1.000099688051305
  0
POINT
  5
116
100
AcDbEntity
  8
Posts
  6
ByLayer
 62
  256
370
   -1
100
AcDbPoint
 10
6.351088396690466
 20
1.973061157996256
  0
POINT
  5
117
100
AcDbEntity
  8
Posts
  6
ByLayer
 62
  256
370
   -1
100
AcDbPoint
 10
4.639351797500815
 20
3.229263158296627
  0
POINT
  5
118
100
AcDbEntity
  8
Posts
  6
ByLayer
 62
  256
370
   -1
100
AcDbPoint
 10
3.145202804210681
 20
4.737773826609612
  0
POINT
  5
119
100
AcDbEntity
  8
Posts
  6
ByLayer
 62
  256
370
   -1
100
AcDbPoint
 10
1.903947669604323
 20
6.486731255080585
  0
POINT
  5
11A
100
AcDbEntity
  8
Posts
  6
ByLayer
 62
  256
370
   -1
100
AcDbPoint
 10
0.9505676201512738
 20
8.357844955876157
  0
POINT
  5
11B
100
AcDbEntity
  8
Posts
  6
ByLayer
 62
  256
370
   -1
100
AcDbPoint
 10
0.3041206311901323
 20
10.38026725129991
  0
POINT
  5
11C
100
AcDbEntity
  8
Posts
  6
ByLayer
 62
  256
370
   -1
100
AcDbPoint
 10
-0.01799097274957084
 20
12.47891676114461
  0
POINT
  5
11D
100
AcDbEntity
  8
Posts
  6
ByLayer
 62
  256
370
   -1
100
AcDbPoint
 10
0.00582391234133306
 20
14.62344450566986
  0
POINT
  5
11E
100
AcDbEntity
  8
Posts
  6
ByLayer
 62
  256
370
   -1
100
AcDbPoint
 10
0.005823912341333188
 20
16.72344450566986
  0
POINT
  5
11F
100
AcDbEntity
  8
Posts
  6
ByLayer
 62
  256
370
   -1
100
AcDbPoint
 10
0.005823912341333316
 20
18.82344450566987
  0
POINT
  5
120
100
AcDbEntity
  8
Posts
  6
ByLayer
 62
  256
370
   -1
100
AcDbPoint
 10
0.005823912341333445
 20
20.92344450566987
  0
POINT
  5
121
100
AcDbEntity
  8
Posts
  6
ByLayer
 62
  256
370
   -1
100
AcDbPoint
 10
0.005823912341333573
 20
23.02344450566987
  0
POINT
  5
122
100
AcDbEntity
  8
Posts
  6
ByLayer
 62
  256
370
   -1
100
AcDbPoint
 10
0.005823912341333701
 20
25.12344450566987
  0
POINT
  5
123
100
AcDbEntity
  8
Posts
  6
ByLayer
 62
  256
370
   -1
100
AcDbPoint
 10
0.00582391234133383
 20
27.22344450566987
  0
POINT
  5
124
100
AcDbEntity
  8
Posts
  6
ByLayer
 62
  256
370
   -1
100
AcDbPoint
 10
0.005823912341333958
 20
29.32344450566987
  0
POINT
  5
125
100
AcDbEntity
  8
Posts
  6
ByLayer
 62
  256
370
   -1
100
AcDbPoint
 10
0.005823912341334136
 20
32.22344450566987
  0
POINT
  5
126
100
AcDbEntity
  8
Posts
  6
ByLayer
 62
  256
370
   -1
100
AcDbPoint
 10
0.005823912341334264
 20
34.32344450566987
  0
POINT
  5
127
100
AcDbEntity
  8
Posts
  6
ByLayer
 62
  256
370
   -1
100
AcDbPoint
 10
0.005823912341334393
 20
36.42344450566987
  0
POINT
  5
128
100
AcDbEntity
  8
Posts
  6
ByLayer
 62
  256
370
   -1
100
AcDbPoint
 10
0.005823912341334521
 20
38.52344450566987
  0
POINT
  5
129
100
AcDbEntity
  8
Posts
  6
ByLayer
 62
  256
370
   -1
100
AcDbPoint
 10
0.005823912341334649
 20
40.62344450566987
  0
POINT
  5
12A
100
AcDbEntity
  8
Posts
  6
ByLayer
 62
  256
370
   -1
100
AcDbPoint
 10
0.005823912341334778
 20
42.72344450566987
  0
POINT
  5
12B
100
AcDbEntity
  8
Posts
  6
ByLayer
 62
  256
370
   -1
100
AcDbPoint
 10
14.62344450566986
 20
20.44617608765867
  0
POINT
  5
12C
100
AcDbEntity
  8
Posts
  6
ByLayer
 62
  256
370
   -1
100
AcDbPoint
 10
14.62344450566986
 20
18.34617608765867
  0
POINT
  5
12D
100
AcDbEntity
  8
Posts
  6
ByLayer
 62
  256
370
   -1
100
AcDbPoint
 10
14.62344450566986
 20
16.24617608765867
  0
POINT
  5
12E
100
AcDbEntity
  8
Posts
  6
ByLayer
 62
  256
370
   -1
100
AcDbPoint
 10
16.24617608765867
 20
14.62344450566986
  0
POINT
  5
12F
100
AcDbEntity
  8
Posts
  6
ByLayer
 62
  256
370
   -1
100
AcDbPoint
 10
12.32855549433014
 20
16.24617608765867
  0
POINT
  5
130
100
AcDbEntity
  8
Posts
  6
ByLayer
 62
  256
370
   -1
100
AcDbPoint
 10
12.32855549433014
 20
18.34617608765867
  0
POINT
  5
131
100
AcDbEntity
  8
Posts
  6
ByLayer
 62
  256
370
   -1
100
AcDbPoint
 10
12.32855549433014
 20
20.44617608765867
  0
POINT
  5
132
100
AcDbEntity
  8
Posts
  6
ByLayer
 62
  256
370
   -1
100
AcDbPoint
 10
2.305823912341333
 20
14.62344450566986
  0
POINT
  5
133
100
AcDbEntity
  8
Posts
  6
ByLayer
 62
  256
370
   -1
100
AcDbPoint
 10
4.405823912341333
 20
14.62344450566986
  0
POINT
  5
134
100
AcDbEntity
  8
Posts
  6
ByLayer
 62
  256
370
   -1
100
AcDbPoint
 10
6.505823912341333
 20
14.62344450566986
  0
POINT
  5
135
100
AcDbEntity
  8
Posts
  6
ByLayer
 62
  256
370
   -1
100
AcDbPoint
 10
8.605823912341332
 20
14.62344450566986
  0
POINT
  5
136
100
AcDbEntity
  8
Posts
  6
ByLayer
 62
  256
370
   -1
100
AcDbPoint
 10
10.70582391234133
 20
14.62344450566986
  0
POINT
  5
137
100
AcDbEntity
  8
Posts
  6
ByLayer
 62
  256
370
   -1
100
AcDbPoint
 10
4.76612695037433
 20
6.388858532363137
  0
POINT
  5
138
100
AcDbEntity
  8
Posts
  6
ByLayer
 62
  256
370
   -1
100
AcDbPoint
 10
6.251051190866082
 20
7.873782772854888
  0
POINT
  5
139
100
AcDbEntity
  8
Posts
  6
ByLayer
 62
  256
370
   -1
100
AcDbPoint
 10
7.735975431357833
 20
9.358707013346638
  0
POINT
  5
13A
100
AcDbEntity
  8
Posts
  6
ByLayer
 62
  256
370
   -1
100
AcDbPoint
 10
9.220899671849583
 20
10.84363125383839
  0
POINT
  5
13B
100
AcDbEntity
  8
Posts
  6
ByLayer
 62
  256
370
   -1
100
AcDbPoint
 10
10.70582391234133
 20
12.32855549433014
  0
POINT
  5
13C
100
AcDbEntity
  8
Posts
  6
ByLayer
 62
  256
370
   -1
100
AcDbPoint
 10
12.32855549433014
 20
10.70582391234133
  0
POINT
  5
13D
100
AcDbEntity
  8
Posts
  6
ByLayer
 62
  256
370
   -1
100
AcDbPoint
 10
12.32855549433014
 20
8.605823912341332
  0
POINT
  5
13E
100
AcDbEntity
  8
Posts
  6
ByLayer
 62
  256
370
   -1
100
AcDbPoint
 10
12.32855549433014
 20
6.505823912341331
  0
POINT
  5
13F
100
AcDbEntity
  8
Posts
  6
ByLayer
 62
  256
370
   -1
100
AcDbPoint
 10
12.32855549433014
 20
4.405823912341329
  0
POINT
  5
140
100
AcDbEntity
  8
Posts
  6
ByLayer
 62
  256
370
   -1
100
AcDbPoint
 10
12.32855549433014
 20
2.305823912341328
  0
POINT
  5
141
100
AcDbEntity
  8
Posts
  6
ByLayer
 62
  256
370
   -1
100
AcDbPoint
 10
14.62344450566986
 20
10.70582391234133
  0
POINT
  5
142
100
AcDbEntity
  8
Posts
  6
ByLayer
 62
  256
370
   -1
100
AcDbPoint
 10
16.24617608765867
 20
12.32855549433014
  0
POINT
  5
143
100
AcDbEntity
  8
Posts
  6
ByLayer
 62
  256
370
   -1
100
AcDbPoint
 10
18.34617608765867
 20
12.32855549433014
  0
POINT
  5
144
100
AcDbEntity
  8
Posts
  6
ByLayer
 62
  256
370
   -1
100
AcDbPoint
 10
20.44617608765867
 20
12.32855549433014
  0
POINT
  5
145
100
AcDbEntity
  8
Posts
  6
ByLayer
 62
  256
370
   -1
100
AcDbPoint
 10
22.54617608765867
 20
12.32855549433014
  0
POINT
  5
146
100
AcDbEntity
  8
Posts
  6
ByLayer
 62
  256
370
   -1
100
AcDbPoint
 10
24.64617608765867
 20
12.32855549433014
  0
POINT
  5
147
100
AcDbEntity
  8
Posts
  6
ByLayer
 62
  256
370
   -1
100
AcDbPoint
 10
16.24617608765867
 20
14.62344450566986
  0
POINT
  5
148
100
AcDbEntity
  8
Posts
  6
ByLayer
 62
  256
370
   -1
100
AcDbPoint
 10
0.005823912341334087
 20
31.42344450566987
  0
POINT
  5
149
100
AcDbEntity
  8
Posts
  6
ByLayer
 62
  256
370
   -1
100
AcDbPoint
 10
2.305823912341334
 20
31.42344450566987
  0
POINT
  5
14A
100
AcDbEntity
  8
Posts
  6
ByLayer
 62
  256
370
   -1
100
AcDbPoint
 10
2.305823912341334
 20
32.22344450566987
  0
POINT
  5
14B
100
AcDbEntity
  8
Posts
  6
ByLayer
 62
  256
370
   -1
100
AcDbPoint
 10
0.005823912341334918
 20
45.02344450566987
  0
POINT
  5
14C
100
AcDbEntity
  8
Posts
  6
ByLayer
 62
  256
370
   -1
100
AcDbPoint
 10
21.36952603273364
 20
35.40001448840081
  0
POINT
  5
14D
100
AcDbEntity
  8
Posts
  6
ByLayer
 62
  256
370
   -1
100
AcDbPoint
 10
19.76531782443348
 20
34.04483331068973
  0
POINT
  5
14E
100
AcDbEntity
  8
Posts
  6
ByLayer
 62
  256
370
   -1
100
AcDbPoint
 10
18.16110961613332
 20
32.68965213297864
  0
POINT
  5
14F
100
AcDbEntity
  8
Posts
  6
ByLayer
 62
  256
370
   -1
100
AcDbPoint
 10
16.55690140783317
 20
31.33447095526756
  0
POINT
  5
150
100
AcDbEntity
  8
Posts
  6
ByLayer
 62
  256
370
   -1
100
AcDbPoint
 10
14.95269319953301
 20
29.97928977755648
  0
POINT
  5
151
100
AcDbEntity
  8
Posts
  6
ByLayer
 62
  256
370
   -1
100
AcDbPoint
 10
13.34848499123285
 20
28.62410859984539
  0
POINT
  5
152
100
AcDbEntity
  8
Posts
  6
ByLayer
 62
  256
370
   -1
100
AcDbPoint
 10
13.07856123111852
 20
22.4076784187265
  0
POINT
  5
153
100
AcDbEntity
  8
Posts
  6
ByLayer
 62
  256
370
   -1
100
AcDbPoint
 10
13.87343876888149
 20
22.4076784187265
  0
POINT
  5
154
100
AcDbEntity
  8
Posts
  6
ByLayer
 62
  256
370
   -1
100
AcDbPoint
 10
5.622791770171844
 20
32.2438688967587
  0
POINT
  5
155
100
AcDbEntity
  8
Posts
  6
ByLayer
 62
  256
370
   -1
100
AcDbPoint
 10
5.605823912341334
 20
31.42344450566987
  0
ENDSEC
  0
SECTION
  2
OBJECTS
  0
DICTIONARY
  5
C
330
0
100
AcDbDictionary
281
    1
  3
ACAD_GROUP
350
D
  3
ACAD_IMAGE_DICT
350
156
  0
DICTIONARY
  5
D
330
C
100
AcDbDictionary
281
    1
  0
IMAGEDEF_REACTOR
  5
55
330
56
100
AcDbRasterImageDefReactor
 90
    2
330
56
  0
DICTIONARY
  5
156
330
C
100
AcDbDictionary
281
    1
  3
Weean-cattle-yards-2
350
54
  0
IMAGEDEF
  5
54
102
{ACAD_REACTORS
330
55
102
}
100
AcDbRasterImageDef
 90
    0
  1
E:/Yards/Weean-cattle-yards-2.png
 10
1004
 20
1612
 11
1
 21
1
280
    1
281
    0
  0
PLOTSETTINGS
  5
157
100
AcDbPlotSettings
  6
1x1
 40
0
 41
0
 42
0
 43
0
  0
ENDSEC
  0
EOF
