999
dxfrw 0.6.3
  0
SECTION
  2
HEADER
  9
$ACADVER
  1
AC1021
  9
$DWGCODEPAGE
  3
ANSI_1252
  9
$INSBASE
 10
0
 20
0
 30
0
  9
$EXTMIN
 10
-1.06581410364015e-014
 20
-7.248971344623244e-015
 30
0
  9
$EXTMAX
 10
297
 20
210
 30
0
  9
$LIMMIN
 10
0
 20
0
  9
$LIMMAX
 10
12
 20
9
  9
$ORTHOMODE
 70
    0
  9
$REGENMODE
 70
    1
  9
$FILLMODE
 70
    1
  9
$QTEXTMODE
 70
    0
  9
$MIRRTEXT
 70
    0
  9
$LTSCALE
 40
1
  9
$ATTMODE
 70
    1
  9
$TEXTSIZE
 40
0.2
  9
$TRACEWID
 40
0.05
  9
$TEXTSTYLE
  7
Standard
  9
$CLAYER
  8
vertical
  9
$CELTYPE
  6
ByLayer
  9
$CECOLOR
 62
  256
  9
$CELTSCALE
 40
1
  9
$DISPSILH
 70
    0
  9
$DIMSCALE
 40
1
  9
$DIMASZ
 40
2.5
  9
$DIMEXO
 40
0.625
  9
$DIMDLI
 40
0.38
  9
$DIMRND
 40
0
  9
$DIMDLE
 40
0
  9
$DIMEXE
 40
2.5
  9
$DIMTP
 40
0
  9
$DIMTM
 40
0
  9
$DIMTXT
 40
2.5
  9
$DIMCEN
 40
0.09
  9
$DIMTSZ
 40
0
  9
$DIMTOL
 70
    0
  9
$DIMLIM
 70
    0
  9
$DIMTIH
 70
    0
  9
$DIMTOH
 70
    1
  9
$DIMSE1
 70
    0
  9
$DIMSE2
 70
    0
  9
$DIMTAD
 70
    0
  9
$DIMZIN
 70
    0
  9
$DIMBLK
  1

  9
$DIMASO
 70
    1
  9
$DIMSHO
 70
    1
  9
$DIMPOST
  1

  9
$DIMAPOST
  1

  9
$DIMALT
 70
    0
  9
$DIMALTD
 70
    2
  9
$DIMALTF
 40
25.4
  9
$DIMLFAC
 40
1
  9
$DIMTOFL
 70
    0
  9
$DIMTVP
 40
0
  9
$DIMTIX
 70
    0
  9
$DIMSOXD
 70
    0
  9
$DIMSAH
 70
    0
  9
$DIMBLK1
  1

  9
$DIMBLK2
  1

  9
$DIMSTYLE
  2
Standard
  9
$DIMCLRD
 70
    7
  9
$DIMCLRE
 70
    7
  9
$DIMCLRT
 70
    7
  9
$DIMTFAC
 40
1
  9
$DIMGAP
 40
1
  9
$DIMJUST
 70
    0
  9
$DIMSD1
 70
    0
  9
$DIMSD2
 70
    0
  9
$DIMTOLJ
 70
    1
  9
$DIMTZIN
 70
    0
  9
$DIMALTZ
 70
    0
  9
$DIMALTTZ
 70
    0
  9
$DIMUPT
 70
    0
  9
$DIMDEC
 70
    2
  9
$DIMTDEC
 70
    4
  9
$DIMALTU
 70
    2
  9
$DIMALTTD
 70
    2
  9
$DIMTXSTY
  7
standard
  9
$DIMAUNIT
 70
    0
  9
$DIMADEC
 70
    0
  9
$DIMALTRND
 40
0
  9
$DIMAZIN
 70
    0
  9
$DIMDSEP
 70
    0
  9
$DIMATFIT
 70
    3
  9
$DIMFRAC
 70
    0
  9
$DIMLDRBLK
  1

  9
$DIMLUNIT
 70
    2
  9
$DIMLWD
 70
   18
  9
$DIMLWE
 70
   18
  9
$DIMTMOVE
 70
    0
  9
$DIMFXL
 40
1
  9
$DIMFXLON
 70
    0
  9
$DIMJOGANG
 40
0.7853981633974483
  9
$DIMTFILL
 70
    0
  9
$DIMTFILLCLR
 70
    0
  9
$DIMARCSYM
 70
    0
  9
$DIMLTYPE
  6

  9
$DIMLTEX1
  6

  9
$DIMLTEX2
  6

  9
$LUNITS
 70
    2
  9
$LUPREC
 70
    4
  9
$SKETCHINC
 40
0.1
  9
$FILLETRAD
 40
2
  9
$AUNITS
 70
    0
  9
$AUPREC
 70
    0
  9
$MENU
  1
.
  9
$ELEVATION
 40
0
  9
$PELEVATION
 40
0
  9
$THICKNESS
 40
0
  9
$LIMCHECK
 70
    0
  9
$CHAMFERA
 40
0
  9
$CHAMFERB
 40
0
  9
$CHAMFERC
 40
0
  9
$CHAMFERD
 40
0
  9
$SKPOLY
 70
    0
  9
$USRTIMER
 70
    1
  9
$ANGBASE
 50
0
  9
$ANGDIR
 70
    0
  9
$PDMODE
 70
    0
  9
$PDSIZE
 40
0
  9
$PLINEWID
 40
0
  9
$SPLFRAME
 70
    0
  9
$SPLINETYPE
 70
    6
  9
$SPLINESEGS
 70
    8
  9
$HANDSEED
  5
20000
  9
$SURFTAB1
 70
    6
  9
$SURFTAB2
 70
    6
  9
$SURFTYPE
 70
    6
  9
$SURFU
 70
    6
  9
$SURFV
 70
    6
  9
$UCSBASE
  2

  9
$UCSNAME
  2

  9
$UCSORG
 10
0
 20
0
 30
0
  9
$UCSXDIR
 10
1
 20
0
 30
0
  9
$UCSYDIR
 10
0
 20
1
 30
0
  9
$UCSORTHOREF
  2

  9
$UCSORTHOVIEW
 70
    0
  9
$UCSORGTOP
 10
0
 20
0
 30
0
  9
$UCSORGBOTTOM
 10
0
 20
0
 30
0
  9
$UCSORGLEFT
 10
0
 20
0
 30
0
  9
$UCSORGRIGHT
 10
0
 20
0
 30
0
  9
$UCSORGFRONT
 10
0
 20
0
 30
0
  9
$UCSORGBACK
 10
0
 20
0
 30
0
  9
$PUCSBASE
  2

  9
$PUCSNAME
  2

  9
$PUCSORG
 10
0
 20
0
 30
0
  9
$PUCSXDIR
 10
1
 20
0
 30
0
  9
$PUCSYDIR
 10
0
 20
1
 30
0
  9
$PUCSORTHOREF
  2

  9
$PUCSORTHOVIEW
 70
    0
  9
$PUCSORGTOP
 10
0
 20
0
 30
0
  9
$PUCSORGBOTTOM
 10
0
 20
0
 30
0
  9
$PUCSORGLEFT
 10
0
 20
0
 30
0
  9
$PUCSORGRIGHT
 10
0
 20
0
 30
0
  9
$PUCSORGFRONT
 10
0
 20
0
 30
0
  9
$PUCSORGBACK
 10
0
 20
0
 30
0
  9
$USERI1
 70
    0
  9
$USERI2
 70
    0
  9
$USERI3
 70
    0
  9
$USERI4
 70
    0
  9
$USERI5
 70
    0
  9
$USERR1
 40
0
  9
$USERR2
 40
0
  9
$USERR3
 40
0
  9
$USERR4
 40
0
  9
$USERR5
 40
0
  9
$WORLDVIEW
 70
    1
  9
$SHADEDGE
 70
    3
  9
$SHADEDIF
 70
   70
  9
$TILEMODE
 70
    1
  9
$MAXACTVP
 70
   64
  9
$PINSBASE
 10
-2.998596700299313
 20
3.202573910658259
 30
0
  9
$PLIMCHECK
 70
    0
  9
$PEXTMIN
 10
0
 20
0
 30
0
  9
$PEXTMAX
 10
0
 20
0
 30
0
  9
$GRIDMODE
 70
    1
  9
$SNAPSTYLE
 70
    0
  9
$GRIDUNIT
 10
0
 20
0
  9
$PLIMMIN
 10
0
 20
0
  9
$PLIMMAX
 10
297
 20
210
  9
$UNITMODE
 70
    0
  9
$VISRETAIN
 70
    1
  9
$PLINEGEN
 70
    0
  9
$PSLTSCALE
 70
    1
  9
$TREEDEPTH
 70
 3020
  9
$CMLSTYLE
  2
Standard
  9
$CMLJUST
 70
    0
  9
$CMLSCALE
 40
1
  9
$PROXYGRAPHICS
 70
    1
  9
$MEASUREMENT
 70
    0
  9
$CELWEIGHT
370
   -1
  9
$ENDCAPS
280
    0
  9
$JOINSTYLE
280
    0
  9
$LWDISPLAY
290
    0
  9
$INSUNITS
 70
    4
  9
$HYPERLINKBASE
  1

  9
$STYLESHEET
  1

  9
$XEDIT
290
    1
  9
$CEPSNTYPE
380
    0
  9
$PSTYLEMODE
290
    1
  9
$EXTNAMES
290
    1
  9
$PSVPSCALE
 40
1
  9
$OLESTARTUP
290
    0
  9
$SORTENTS
280
  127
  9
$INDEXCTL
280
    0
  9
$HIDETEXT
280
    1
  9
$XCLIPFRAME
290
    0
  9
$HALOGAP
280
    0
  9
$OBSCOLOR
 70
  257
  9
$OBSLTYPE
280
    0
  9
$INTERSECTIONDISPLAY
280
    0
  9
$INTERSECTIONCOLOR
 70
  257
  9
$DIMASSOC
280
    2
  9
$PROJECTNAME
  1

  9
$CAMERADISPLAY
290
    0
  9
$LENSLENGTH
 40
50
  9
$CAMERAHEIGHT
 40
0
  9
$STEPSPERSEC
 40
2
  9
$STEPSIZE
 40
6
  9
$3DDWFPREC
 40
2
  9
$PSOLWIDTH
 40
0.25
  9
$PSOLHEIGHT
 40
4
  9
$LOFTANG1
 40
1.570796326794896
  9
$LOFTANG2
 40
1.570796326794896
  9
$LOFTMAG1
 40
0
  9
$LOFTMAG2
 40
0
  9
$LOFTPARAM
 70
    7
  9
$LOFTNORMALS
280
    1
  9
$LATITUDE
 40
37.795
  9
$LONGITUDE
 40
-122.394
  9
$NORTHDIRECTION
 40
0
  9
$TIMEZONE
 70
-8000
  9
$LIGHTGLYPHDISPLAY
280
    1
  9
$TILEMODELIGHTSYNCH
280
    1
  9
$SOLIDHIST
280
    0
  9
$SHOWHIST
280
    1
  9
$DWFFRAME
280
    2
  9
$DGNFRAME
280
    0
  9
$REALWORLDSCALE
290
    1
  9
$INTERFERECOLOR
 62
    1
  9
$CSHADOW
280
    0
  9
$SHADOWPLANELOCATION
 40
0
  0
ENDSEC
  0
SECTION
  2
CLASSES
  0
ENDSEC
  0
SECTION
  2
TABLES
  0
TABLE
  2
VPORT
  5
8
330
0
100
AcDbSymbolTable
 70
    1
  0
VPORT
  5
31
330
2
100
AcDbSymbolTableRecord
100
AcDbViewportTableRecord
  2
*ACTIVE
 70
    0
 10
0
 20
0
 11
1
 21
1
 12
156.4831804281345
 22
106.0703363914373
 13
0
 23
0
 14
10
 24
10
 15
10
 25
10
 16
0
 26
0
 36
1
 17
0
 27
0
 37
0
 40
214.2813455657492
 41
1.534465534465534
 42
50
 43
0
 44
0
 50
0
 51
0
 71
    0
 72
  100
 73
    1
 74
    3
 75
    0
 76
    1
 77
    0
 78
    0
281
    0
 65
    1
110
0
120
0
130
0
111
1
121
0
131
0
112
0
122
1
132
0
 79
    0
146
0
348
10020
 60
    7
 61
    5
292
1
282
    1
141
0
142
0
 63
  250
421
3358443
  0
ENDTAB
  0
TABLE
  2
LTYPE
  5
5
330
0
100
AcDbSymbolTable
 70
    4
  0
LTYPE
  5
14
330
5
100
AcDbSymbolTableRecord
100
AcDbLinetypeTableRecord
  2
ByBlock
 70
    0
  3

 72
   65
 73
    0
 40
0
  0
LTYPE
  5
15
330
5
100
AcDbSymbolTableRecord
100
AcDbLinetypeTableRecord
  2
ByLayer
 70
    0
  3

 72
   65
 73
    0
 40
0
  0
LTYPE
  5
16
330
5
100
AcDbSymbolTableRecord
100
AcDbLinetypeTableRecord
  2
Continuous
 70
    0
  3
Solid line
 72
   65
 73
    0
 40
0
  0
LTYPE
  5
32
330
5
100
AcDbSymbolTableRecord
100
AcDbLinetypeTableRecord
  2
DOT
 70
    0
  3
Dot . . . . . . . . . . . . . . . . . . . . . .
 72
   65
 73
    2
 40
6.35
 49
0
 74
    0
 49
-6.35
 74
    0
  0
LTYPE
  5
33
330
5
100
AcDbSymbolTableRecord
100
AcDbLinetypeTableRecord
  2
DOTTINY
 70
    0
  3
Dot (.15x) .....................................
 72
   65
 73
    2
 40
0.9525
 49
0
 74
    0
 49
-0.9525
 74
    0
  0
LTYPE
  5
34
330
5
100
AcDbSymbolTableRecord
100
AcDbLinetypeTableRecord
  2
DOT2
 70
    0
  3
Dot (.5x) .....................................
 72
   65
 73
    2
 40
3.175
 49
0
 74
    0
 49
-3.175
 74
    0
  0
LTYPE
  5
35
330
5
100
AcDbSymbolTableRecord
100
AcDbLinetypeTableRecord
  2
DOTX2
 70
    0
  3
Dot (2x) .  .  .  .  .  .  .  .  .  .  .  .  .
 72
   65
 73
    2
 40
12.7
 49
0
 74
    0
 49
-12.7
 74
    0
  0
LTYPE
  5
36
330
5
100
AcDbSymbolTableRecord
100
AcDbLinetypeTableRecord
  2
DASHED
 70
    0
  3
Dashed _ _ _ _ _ _ _ _ _ _ _ _ _ _ _ _ _
 72
   65
 73
    2
 40
19.05
 49
12.7
 74
    0
 49
-6.35
 74
    0
  0
LTYPE
  5
37
330
5
100
AcDbSymbolTableRecord
100
AcDbLinetypeTableRecord
  2
DASHEDTINY
 70
    0
  3
Dashed (.15x) _ _ _ _ _ _ _ _ _ _ _ _ _ _ _ _ _
 72
   65
 73
    2
 40
2.8575
 49
1.905
 74
    0
 49
-0.9525
 74
    0
  0
LTYPE
  5
38
330
5
100
AcDbSymbolTableRecord
100
AcDbLinetypeTableRecord
  2
DASHED2
 70
    0
  3
Dashed (.5x) _ _ _ _ _ _ _ _ _ _ _ _ _ _ _ _ _
 72
   65
 73
    2
 40
9.524999999999999
 49
6.35
 74
    0
 49
-3.175
 74
    0
  0
LTYPE
  5
39
330
5
100
AcDbSymbolTableRecord
100
AcDbLinetypeTableRecord
  2
DASHEDX2
 70
    0
  3
Dashed (2x) ____  ____  ____  ____  ____  ___
 72
   65
 73
    2
 40
38.09999999999999
 49
25.4
 74
    0
 49
-12.7
 74
    0
  0
LTYPE
  5
3A
330
5
100
AcDbSymbolTableRecord
100
AcDbLinetypeTableRecord
  2
DASHDOT
 70
    0
  3
Dash dot __ . __ . __ . __ . __ . __ . __ . __
 72
   65
 73
    4
 40
25.4
 49
12.7
 74
    0
 49
-6.35
 74
    0
 49
0
 74
    0
 49
-6.35
 74
    0
  0
LTYPE
  5
3B
330
5
100
AcDbSymbolTableRecord
100
AcDbLinetypeTableRecord
  2
DASHDOTTINY
 70
    0
  3
Dash dot (.15x) _._._._._._._._._._._._._._._.
 72
   65
 73
    4
 40
3.81
 49
1.905
 74
    0
 49
-0.9525
 74
    0
 49
0
 74
    0
 49
-0.9525
 74
    0
  0
LTYPE
  5
3C
330
5
100
AcDbSymbolTableRecord
100
AcDbLinetypeTableRecord
  2
DASHDOT2
 70
    0
  3
Dash dot (.5x) _._._._._._._._._._._._._._._.
 72
   65
 73
    4
 40
12.7
 49
6.35
 74
    0
 49
-3.175
 74
    0
 49
0
 74
    0
 49
-3.175
 74
    0
  0
LTYPE
  5
3D
330
5
100
AcDbSymbolTableRecord
100
AcDbLinetypeTableRecord
  2
DASHDOTX2
 70
    0
  3
Dash dot (2x) ____  .  ____  .  ____  .  ___
 72
   65
 73
    4
 40
50.8
 49
25.4
 74
    0
 49
-12.7
 74
    0
 49
0
 74
    0
 49
-12.7
 74
    0
  0
LTYPE
  5
3E
330
5
100
AcDbSymbolTableRecord
100
AcDbLinetypeTableRecord
  2
DIVIDE
 70
    0
  3
Divide ____ . . ____ . . ____ . . ____ . . ____
 72
   65
 73
    6
 40
31.75
 49
12.7
 74
    0
 49
-6.35
 74
    0
 49
0
 74
    0
 49
-6.35
 74
    0
 49
0
 74
    0
 49
-6.35
 74
    0
  0
LTYPE
  5
3F
330
5
100
AcDbSymbolTableRecord
100
AcDbLinetypeTableRecord
  2
DIVIDETINY
 70
    0
  3
Divide (.15x) __..__..__..__..__..__..__..__.._
 72
   65
 73
    6
 40
4.7625
 49
1.905
 74
    0
 49
-0.9525
 74
    0
 49
0
 74
    0
 49
-0.9525
 74
    0
 49
0
 74
    0
 49
-0.9525
 74
    0
  0
LTYPE
  5
40
330
5
100
AcDbSymbolTableRecord
100
AcDbLinetypeTableRecord
  2
DIVIDE2
 70
    0
  3
Divide (.5x) __..__..__..__..__..__..__..__.._
 72
   65
 73
    6
 40
15.875
 49
6.35
 74
    0
 49
-3.175
 74
    0
 49
0
 74
    0
 49
-3.175
 74
    0
 49
0
 74
    0
 49
-3.175
 74
    0
  0
LTYPE
  5
41
330
5
100
AcDbSymbolTableRecord
100
AcDbLinetypeTableRecord
  2
DIVIDEX2
 70
    0
  3
Divide (2x) ________  .  .  ________  .  .  _
 72
   65
 73
    6
 40
63.5
 49
25.4
 74
    0
 49
-12.7
 74
    0
 49
0
 74
    0
 49
-12.7
 74
    0
 49
0
 74
    0
 49
-12.7
 74
    0
  0
LTYPE
  5
42
330
5
100
AcDbSymbolTableRecord
100
AcDbLinetypeTableRecord
  2
BORDER
 70
    0
  3
Border __ __ . __ __ . __ __ . __ __ . __ __ .
 72
   65
 73
    6
 40
44.45
 49
12.7
 74
    0
 49
-6.35
 74
    0
 49
12.7
 74
    0
 49
-6.35
 74
    0
 49
0
 74
    0
 49
-6.35
 74
    0
  0
LTYPE
  5
43
330
5
100
AcDbSymbolTableRecord
100
AcDbLinetypeTableRecord
  2
BORDERTINY
 70
    0
  3
Border (.15x) __.__.__.__.__.__.__.__.__.__.__.
 72
   65
 73
    6
 40
6.6675
 49
1.905
 74
    0
 49
-0.9525
 74
    0
 49
1.905
 74
    0
 49
-0.9525
 74
    0
 49
0
 74
    0
 49
-0.9525
 74
    0
  0
LTYPE
  5
44
330
5
100
AcDbSymbolTableRecord
100
AcDbLinetypeTableRecord
  2
BORDER2
 70
    0
  3
Border (.5x) __.__.__.__.__.__.__.__.__.__.__.
 72
   65
 73
    6
 40
22.225
 49
6.35
 74
    0
 49
-3.175
 74
    0
 49
6.35
 74
    0
 49
-3.175
 74
    0
 49
0
 74
    0
 49
-3.175
 74
    0
  0
LTYPE
  5
45
330
5
100
AcDbSymbolTableRecord
100
AcDbLinetypeTableRecord
  2
BORDERX2
 70
    0
  3
Border (2x) ____  ____  .  ____  ____  .  ___
 72
   65
 73
    6
 40
88.89999999999999
 49
25.4
 74
    0
 49
-12.7
 74
    0
 49
25.4
 74
    0
 49
-12.7
 74
    0
 49
0
 74
    0
 49
-12.7
 74
    0
  0
LTYPE
  5
46
330
5
100
AcDbSymbolTableRecord
100
AcDbLinetypeTableRecord
  2
CENTER
 70
    0
  3
Center ____ _ ____ _ ____ _ ____ _ ____ _ ____
 72
   65
 73
    4
 40
50.8
 49
31.75
 74
    0
 49
-6.35
 74
    0
 49
6.35
 74
    0
 49
-6.35
 74
    0
  0
LTYPE
  5
47
330
5
100
AcDbSymbolTableRecord
100
AcDbLinetypeTableRecord
  2
CENTERTINY
 70
    0
  3
Center (.15x) ___ _ ___ _ ___ _ ___ _ ___ _ ___
 72
   65
 73
    4
 40
7.62
 49
4.7625
 74
    0
 49
-0.9525
 74
    0
 49
0.9525
 74
    0
 49
-0.9525
 74
    0
  0
LTYPE
  5
48
330
5
100
AcDbSymbolTableRecord
100
AcDbLinetypeTableRecord
  2
CENTER2
 70
    0
  3
Center (.5x) ___ _ ___ _ ___ _ ___ _ ___ _ ___
 72
   65
 73
    4
 40
28.575
 49
19.05
 74
    0
 49
-3.175
 74
    0
 49
3.175
 74
    0
 49
-3.175
 74
    0
  0
LTYPE
  5
49
330
5
100
AcDbSymbolTableRecord
100
AcDbLinetypeTableRecord
  2
CENTERX2
 70
    0
  3
Center (2x) ________  __  ________  __  _____
 72
   65
 73
    4
 40
101.6
 49
63.5
 74
    0
 49
-12.7
 74
    0
 49
12.7
 74
    0
 49
-12.7
 74
    0
  0
ENDTAB
  0
TABLE
  2
LAYER
  5
2
330
0
100
AcDbSymbolTable
 70
    1
  0
LAYER
  5
10
330
2
100
AcDbSymbolTableRecord
100
AcDbLayerTableRecord
  2
0
 70
    0
 62
    7
  6
CONTINUOUS
370
   25
390
F
  0
LAYER
  5
4A
330
2
100
AcDbSymbolTableRecord
100
AcDbLayerTableRecord
  2
horizontal
 70
    0
 62
    7
  6
CONTINUOUS
370
    0
390
F
  0
LAYER
  5
4B
330
2
100
AcDbSymbolTableRecord
100
AcDbLayerTableRecord
  2
vertical
 70
    0
 62
    7
  6
CONTINUOUS
370
    0
390
F
  0
ENDTAB
  0
TABLE
  2
STYLE
  5
3
330
0
100
AcDbSymbolTable
 70
    3
  0
STYLE
  5
4C
330
2
100
AcDbSymbolTableRecord
100
AcDbTextStyleTableRecord
  2
iso
 70
    0
 40
0
 41
1
 50
0
 71
    0
 42
1
  3
iso
  4

  0
STYLE
  5
4D
330
2
100
AcDbSymbolTableRecord
100
AcDbTextStyleTableRecord
  2
Standard
 70
    0
 40
0
 41
1
 50
0
 71
    0
 42
1
  3
txt
  4

  0
ENDTAB
  0
TABLE
  2
VIEW
  5
6
330
0
100
AcDbSymbolTable
 70
    0
  0
ENDTAB
  0
TABLE
  2
UCS
  5
7
330
0
100
AcDbSymbolTable
 70
    0
  0
ENDTAB
  0
TABLE
  2
APPID
  5
9
330
0
100
AcDbSymbolTable
 70
    1
  0
APPID
  5
12
330
9
100
AcDbSymbolTableRecord
100
AcDbRegAppTableRecord
  2
ACAD
 70
    0
  0
APPID
  5
4E
330
9
100
AcDbSymbolTableRecord
100
AcDbRegAppTableRecord
  2
LibreCad
 70
    0
  0
ENDTAB
  0
TABLE
  2
DIMSTYLE
  5
A
330
0
100
AcDbSymbolTable
 70
    1
100
AcDbDimStyleTable
 71
    1
  0
DIMSTYLE
105
4F
330
A
100
AcDbSymbolTableRecord
100
AcDbDimStyleTableRecord
  2
Standard
 70
    0
 40
1
 41
2.5
 42
0.625
 43
0.38
 44
2.5
 45
0
 46
0
 47
0
 48
0
 49
1
140
2.5
141
0.09
142
0
143
25.4
144
1
145
0
146
1
147
1
148
0
 71
    0
 72
    0
 73
    0
 74
    1
 75
    0
 76
    0
 77
    0
 78
    0
 79
    0
170
    0
171
    2
172
    0
173
    0
174
    0
175
    0
176
    7
177
    7
178
    7
179
    0
271
    2
272
    4
273
    2
274
    2
275
    0
276
    0
277
    2
278
    0
279
    0
280
    0
281
    0
282
    0
283
    1
284
    0
285
    0
286
    0
288
    0
289
    3
340
standard
341

371
   18
372
   18
  0
ENDTAB
  0
TABLE
  2
BLOCK_RECORD
  5
1
330
0
100
AcDbSymbolTable
 70
    2
  0
BLOCK_RECORD
  5
1F
330
1
100
AcDbSymbolTableRecord
100
AcDbBlockTableRecord
  2
*Model_Space
 70
    0
280
    1
281
    0
  0
BLOCK_RECORD
  5
1E
330
1
100
AcDbSymbolTableRecord
100
AcDbBlockTableRecord
  2
*Paper_Space
 70
    0
280
    1
281
    0
  0
ENDTAB
  0
ENDSEC
  0
SECTION
  2
BLOCKS
  0
BLOCK
  5
20
330
1F
100
AcDbEntity
  8
0
100
AcDbBlockBegin
  2
*Model_Space
 70
    0
 10
0
 20
0
 30
0
  3
*Model_Space
  1

  0
ENDBLK
  5
21
330
1F
100
AcDbEntity
  8
0
100
AcDbBlockEnd
  0
BLOCK
  5
1C
330
1B
100
AcDbEntity
  8
0
100
AcDbBlockBegin
  2
*Paper_Space
 70
    0
 10
0
 20
0
 30
0
  3
*Paper_Space
  1

  0
ENDBLK
  5
1D
330
1F
100
AcDbEntity
  8
0
100
AcDbBlockEnd
  0
ENDSEC
  0
SECTION
  2
ENTITIES
  0
LINE
  5
50
100
AcDbEntity
  8
0
  6
CONTINUOUS
 62
    7
370
   18
100
AcDbLine
 10
0
 20
0
 11
297
 21
2.131628207280301e-014
  0
LINE
  5
51
100
AcDbEntity
  8
0
  6
CONTINUOUS
 62
    7
370
   18
100
AcDbLine
 10
-1.06581410364015e-014
 20
210
 11
297
 21
210
  0
LINE
  5
52
100
AcDbEntity
  8
0
  6
CONTINUOUS
 62
    7
370
   18
100
AcDbLine
 10
297
 20
2.131628207280301e-014
 11
297
 21
210
  0
LINE
  5
53
100
AcDbEntity
  8
0
  6
CONTINUOUS
 62
    7
370
   18
100
AcDbLine
 10
0
 20
0
 11
-1.06581410364015e-014
 21
210
  0
LINE
  5
54
100
AcDbEntity
  8
horizontal
  6
CONTINUOUS
 62
    9
370
    5
100
AcDbLine
 10
0
 20
1
 11
297
 21
1.000000000000021
  0
LINE
  5
55
100
AcDbEntity
  8
horizontal
  6
CONTINUOUS
 62
    9
370
    5
100
AcDbLine
 10
0
 20
2
 11
297
 21
2.000000000000021
  0
LINE
  5
56
100
AcDbEntity
  8
horizontal
  6
CONTINUOUS
 62
    9
370
    5
100
AcDbLine
 10
0
 20
3
 11
297
 21
3.000000000000021
  0
LINE
  5
57
100
AcDbEntity
  8
horizontal
  6
CONTINUOUS
 62
    9
370
    5
100
AcDbLine
 10
0
 20
4
 11
297
 21
4.000000000000021
  0
LINE
  5
58
100
AcDbEntity
  8
horizontal
  6
CONTINUOUS
 62
    9
370
    5
100
AcDbLine
 10
0
 20
5
 11
297
 21
5.000000000000021
  0
LINE
  5
59
100
AcDbEntity
  8
horizontal
  6
CONTINUOUS
 62
    9
370
    5
100
AcDbLine
 10
0
 20
6
 11
297
 21
6.000000000000021
  0
LINE
  5
5A
100
AcDbEntity
  8
horizontal
  6
CONTINUOUS
 62
    9
370
    5
100
AcDbLine
 10
0
 20
7
 11
297
 21
7.000000000000021
  0
LINE
  5
5B
100
AcDbEntity
  8
horizontal
  6
CONTINUOUS
 62
    9
370
    5
100
AcDbLine
 10
0
 20
8
 11
297
 21
8.000000000000021
  0
LINE
  5
5C
100
AcDbEntity
  8
horizontal
  6
CONTINUOUS
 62
    9
370
    5
100
AcDbLine
 10
0
 20
9
 11
297
 21
9.000000000000021
  0
LINE
  5
5D
100
AcDbEntity
  8
horizontal
  6
CONTINUOUS
 62
    9
370
    5
100
AcDbLine
 10
0
 20
11
 11
297
 21
11.00000000000002
  0
LINE
  5
5E
100
AcDbEntity
  8
horizontal
  6
CONTINUOUS
 62
    9
370
    5
100
AcDbLine
 10
0
 20
12
 11
297
 21
12.00000000000002
  0
LINE
  5
5F
100
AcDbEntity
  8
horizontal
  6
CONTINUOUS
 62
    9
370
    5
100
AcDbLine
 10
0
 20
13
 11
297
 21
13.00000000000002
  0
LINE
  5
60
100
AcDbEntity
  8
horizontal
  6
CONTINUOUS
 62
    9
370
    5
100
AcDbLine
 10
0
 20
14
 11
297
 21
14.00000000000002
  0
LINE
  5
61
100
AcDbEntity
  8
horizontal
  6
CONTINUOUS
 62
    9
370
    5
100
AcDbLine
 10
0
 20
15
 11
297
 21
15.00000000000002
  0
LINE
  5
62
100
AcDbEntity
  8
horizontal
  6
CONTINUOUS
 62
    9
370
    5
100
AcDbLine
 10
0
 20
16
 11
297
 21
16.00000000000002
  0
LINE
  5
63
100
AcDbEntity
  8
horizontal
  6
CONTINUOUS
 62
    9
370
    5
100
AcDbLine
 10
0
 20
17
 11
297
 21
17.00000000000002
  0
LINE
  5
64
100
AcDbEntity
  8
horizontal
  6
CONTINUOUS
 62
    9
370
    5
100
AcDbLine
 10
0
 20
18
 11
297
 21
18.00000000000002
  0
LINE
  5
65
100
AcDbEntity
  8
horizontal
  6
CONTINUOUS
 62
    9
370
    5
100
AcDbLine
 10
0
 20
19
 11
297
 21
19.00000000000002
  0
LINE
  5
66
100
AcDbEntity
  8
horizontal
  6
CONTINUOUS
 62
    9
370
    5
100
AcDbLine
 10
0
 20
21
 11
297
 21
21.00000000000002
  0
LINE
  5
67
100
AcDbEntity
  8
horizontal
  6
CONTINUOUS
 62
    9
370
    5
100
AcDbLine
 10
0
 20
22
 11
297
 21
22.00000000000002
  0
LINE
  5
68
100
AcDbEntity
  8
horizontal
  6
CONTINUOUS
 62
    9
370
    5
100
AcDbLine
 10
0
 20
23
 11
297
 21
23.00000000000002
  0
LINE
  5
69
100
AcDbEntity
  8
horizontal
  6
CONTINUOUS
 62
    9
370
    5
100
AcDbLine
 10
0
 20
24
 11
297
 21
24.00000000000002
  0
LINE
  5
6A
100
AcDbEntity
  8
horizontal
  6
CONTINUOUS
 62
    9
370
    5
100
AcDbLine
 10
0
 20
25
 11
297
 21
25.00000000000002
  0
LINE
  5
6B
100
AcDbEntity
  8
horizontal
  6
CONTINUOUS
 62
    9
370
    5
100
AcDbLine
 10
0
 20
26
 11
297
 21
26.00000000000002
  0
LINE
  5
6C
100
AcDbEntity
  8
horizontal
  6
CONTINUOUS
 62
    9
370
    5
100
AcDbLine
 10
0
 20
27
 11
297
 21
27.00000000000002
  0
LINE
  5
6D
100
AcDbEntity
  8
horizontal
  6
CONTINUOUS
 62
    9
370
    5
100
AcDbLine
 10
0
 20
28
 11
297
 21
28.00000000000002
  0
LINE
  5
6E
100
AcDbEntity
  8
horizontal
  6
CONTINUOUS
 62
    9
370
    5
100
AcDbLine
 10
0
 20
29
 11
297
 21
29.00000000000002
  0
LINE
  5
6F
100
AcDbEntity
  8
horizontal
  6
CONTINUOUS
 62
    9
370
    5
100
AcDbLine
 10
0
 20
31
 11
297
 21
31.00000000000002
  0
LINE
  5
70
100
AcDbEntity
  8
horizontal
  6
CONTINUOUS
 62
    9
370
    5
100
AcDbLine
 10
0
 20
32
 11
297
 21
32.00000000000002
  0
LINE
  5
71
100
AcDbEntity
  8
horizontal
  6
CONTINUOUS
 62
    9
370
    5
100
AcDbLine
 10
0
 20
33
 11
297
 21
33.00000000000002
  0
LINE
  5
72
100
AcDbEntity
  8
horizontal
  6
CONTINUOUS
 62
    9
370
    5
100
AcDbLine
 10
0
 20
34
 11
297
 21
34.00000000000002
  0
LINE
  5
73
100
AcDbEntity
  8
horizontal
  6
CONTINUOUS
 62
    9
370
    5
100
AcDbLine
 10
0
 20
35
 11
297
 21
35.00000000000002
  0
LINE
  5
74
100
AcDbEntity
  8
horizontal
  6
CONTINUOUS
 62
    9
370
    5
100
AcDbLine
 10
0
 20
36
 11
297
 21
36.00000000000002
  0
LINE
  5
75
100
AcDbEntity
  8
horizontal
  6
CONTINUOUS
 62
    9
370
    5
100
AcDbLine
 10
0
 20
37
 11
297
 21
37.00000000000002
  0
LINE
  5
76
100
AcDbEntity
  8
horizontal
  6
CONTINUOUS
 62
    9
370
    5
100
AcDbLine
 10
0
 20
38
 11
297
 21
38.00000000000002
  0
LINE
  5
77
100
AcDbEntity
  8
horizontal
  6
CONTINUOUS
 62
    9
370
    5
100
AcDbLine
 10
0
 20
39
 11
297
 21
39.00000000000002
  0
LINE
  5
78
100
AcDbEntity
  8
horizontal
  6
CONTINUOUS
 62
    9
370
    5
100
AcDbLine
 10
0
 20
41
 11
297
 21
41.00000000000002
  0
LINE
  5
79
100
AcDbEntity
  8
horizontal
  6
CONTINUOUS
 62
    9
370
    5
100
AcDbLine
 10
0
 20
42
 11
297
 21
42.00000000000002
  0
LINE
  5
7A
100
AcDbEntity
  8
horizontal
  6
CONTINUOUS
 62
    9
370
    5
100
AcDbLine
 10
0
 20
43
 11
297
 21
43.00000000000002
  0
LINE
  5
7B
100
AcDbEntity
  8
horizontal
  6
CONTINUOUS
 62
    9
370
    5
100
AcDbLine
 10
0
 20
44
 11
297
 21
44.00000000000002
  0
LINE
  5
7C
100
AcDbEntity
  8
horizontal
  6
CONTINUOUS
 62
    9
370
    5
100
AcDbLine
 10
0
 20
45
 11
297
 21
45.00000000000002
  0
LINE
  5
7D
100
AcDbEntity
  8
horizontal
  6
CONTINUOUS
 62
    9
370
    5
100
AcDbLine
 10
0
 20
46
 11
297
 21
46.00000000000002
  0
LINE
  5
7E
100
AcDbEntity
  8
horizontal
  6
CONTINUOUS
 62
    9
370
    5
100
AcDbLine
 10
0
 20
47
 11
297
 21
47.00000000000002
  0
LINE
  5
7F
100
AcDbEntity
  8
horizontal
  6
CONTINUOUS
 62
    9
370
    5
100
AcDbLine
 10
0
 20
48
 11
297
 21
48.00000000000002
  0
LINE
  5
80
100
AcDbEntity
  8
horizontal
  6
CONTINUOUS
 62
    9
370
    5
100
AcDbLine
 10
0
 20
49
 11
297
 21
49.00000000000002
  0
LINE
  5
81
100
AcDbEntity
  8
horizontal
  6
CONTINUOUS
 62
    9
370
    5
100
AcDbLine
 10
0
 20
51
 11
297
 21
51.00000000000002
  0
LINE
  5
82
100
AcDbEntity
  8
horizontal
  6
CONTINUOUS
 62
    9
370
    5
100
AcDbLine
 10
0
 20
52
 11
297
 21
52.00000000000002
  0
LINE
  5
83
100
AcDbEntity
  8
horizontal
  6
CONTINUOUS
 62
    9
370
    5
100
AcDbLine
 10
0
 20
53
 11
297
 21
53.00000000000002
  0
LINE
  5
84
100
AcDbEntity
  8
horizontal
  6
CONTINUOUS
 62
    9
370
    5
100
AcDbLine
 10
0
 20
54
 11
297
 21
54.00000000000002
  0
LINE
  5
85
100
AcDbEntity
  8
horizontal
  6
CONTINUOUS
 62
    9
370
    5
100
AcDbLine
 10
0
 20
55
 11
297
 21
55.00000000000002
  0
LINE
  5
86
100
AcDbEntity
  8
horizontal
  6
CONTINUOUS
 62
    9
370
    5
100
AcDbLine
 10
0
 20
56
 11
297
 21
56.00000000000002
  0
LINE
  5
87
100
AcDbEntity
  8
horizontal
  6
CONTINUOUS
 62
    9
370
    5
100
AcDbLine
 10
0
 20
57
 11
297
 21
57.00000000000002
  0
LINE
  5
88
100
AcDbEntity
  8
horizontal
  6
CONTINUOUS
 62
    9
370
    5
100
AcDbLine
 10
0
 20
58
 11
297
 21
58.00000000000002
  0
LINE
  5
89
100
AcDbEntity
  8
horizontal
  6
CONTINUOUS
 62
    9
370
    5
100
AcDbLine
 10
0
 20
59
 11
297
 21
59.00000000000002
  0
LINE
  5
8A
100
AcDbEntity
  8
horizontal
  6
CONTINUOUS
 62
    9
370
    5
100
AcDbLine
 10
0
 20
61
 11
297
 21
61.00000000000002
  0
LINE
  5
8B
100
AcDbEntity
  8
horizontal
  6
CONTINUOUS
 62
    9
370
    5
100
AcDbLine
 10
0
 20
62
 11
297
 21
62.00000000000002
  0
LINE
  5
8C
100
AcDbEntity
  8
horizontal
  6
CONTINUOUS
 62
    9
370
    5
100
AcDbLine
 10
0
 20
63
 11
297
 21
63.00000000000002
  0
LINE
  5
8D
100
AcDbEntity
  8
horizontal
  6
CONTINUOUS
 62
    9
370
    5
100
AcDbLine
 10
0
 20
64
 11
297
 21
64.00000000000003
  0
LINE
  5
8E
100
AcDbEntity
  8
horizontal
  6
CONTINUOUS
 62
    9
370
    5
100
AcDbLine
 10
0
 20
65
 11
297
 21
65.00000000000003
  0
LINE
  5
8F
100
AcDbEntity
  8
horizontal
  6
CONTINUOUS
 62
    9
370
    5
100
AcDbLine
 10
0
 20
66
 11
297
 21
66.00000000000003
  0
LINE
  5
90
100
AcDbEntity
  8
horizontal
  6
CONTINUOUS
 62
    9
370
    5
100
AcDbLine
 10
0
 20
67
 11
297
 21
67.00000000000003
  0
LINE
  5
91
100
AcDbEntity
  8
horizontal
  6
CONTINUOUS
 62
    9
370
    5
100
AcDbLine
 10
0
 20
68
 11
297
 21
68.00000000000003
  0
LINE
  5
92
100
AcDbEntity
  8
horizontal
  6
CONTINUOUS
 62
    9
370
    5
100
AcDbLine
 10
0
 20
69
 11
297
 21
69.00000000000003
  0
LINE
  5
93
100
AcDbEntity
  8
horizontal
  6
CONTINUOUS
 62
    9
370
    5
100
AcDbLine
 10
0
 20
71
 11
297
 21
71.00000000000003
  0
LINE
  5
94
100
AcDbEntity
  8
horizontal
  6
CONTINUOUS
 62
    9
370
    5
100
AcDbLine
 10
0
 20
72
 11
297
 21
72.00000000000003
  0
LINE
  5
95
100
AcDbEntity
  8
horizontal
  6
CONTINUOUS
 62
    9
370
    5
100
AcDbLine
 10
0
 20
73
 11
297
 21
73.00000000000003
  0
LINE
  5
96
100
AcDbEntity
  8
horizontal
  6
CONTINUOUS
 62
    9
370
    5
100
AcDbLine
 10
0
 20
74
 11
297
 21
74.00000000000003
  0
LINE
  5
97
100
AcDbEntity
  8
horizontal
  6
CONTINUOUS
 62
    9
370
    5
100
AcDbLine
 10
0
 20
75
 11
297
 21
75.00000000000003
  0
LINE
  5
98
100
AcDbEntity
  8
horizontal
  6
CONTINUOUS
 62
    9
370
    5
100
AcDbLine
 10
0
 20
76
 11
297
 21
76.00000000000003
  0
LINE
  5
99
100
AcDbEntity
  8
horizontal
  6
CONTINUOUS
 62
    9
370
    5
100
AcDbLine
 10
0
 20
77
 11
297
 21
77.00000000000003
  0
LINE
  5
9A
100
AcDbEntity
  8
horizontal
  6
CONTINUOUS
 62
    9
370
    5
100
AcDbLine
 10
0
 20
78
 11
297
 21
78.00000000000003
  0
LINE
  5
9B
100
AcDbEntity
  8
horizontal
  6
CONTINUOUS
 62
    9
370
    5
100
AcDbLine
 10
0
 20
79
 11
297
 21
79.00000000000003
  0
LINE
  5
9C
100
AcDbEntity
  8
horizontal
  6
CONTINUOUS
 62
    9
370
    5
100
AcDbLine
 10
0
 20
81
 11
297
 21
81.00000000000003
  0
LINE
  5
9D
100
AcDbEntity
  8
horizontal
  6
CONTINUOUS
 62
    9
370
    5
100
AcDbLine
 10
0
 20
82
 11
297
 21
82.00000000000003
  0
LINE
  5
9E
100
AcDbEntity
  8
horizontal
  6
CONTINUOUS
 62
    9
370
    5
100
AcDbLine
 10
0
 20
83
 11
297
 21
83.00000000000003
  0
LINE
  5
9F
100
AcDbEntity
  8
horizontal
  6
CONTINUOUS
 62
    9
370
    5
100
AcDbLine
 10
0
 20
84
 11
297
 21
84.00000000000003
  0
LINE
  5
A0
100
AcDbEntity
  8
horizontal
  6
CONTINUOUS
 62
    9
370
    5
100
AcDbLine
 10
0
 20
85
 11
297
 21
85.00000000000003
  0
LINE
  5
A1
100
AcDbEntity
  8
horizontal
  6
CONTINUOUS
 62
    9
370
    5
100
AcDbLine
 10
0
 20
86
 11
297
 21
86.00000000000003
  0
LINE
  5
A2
100
AcDbEntity
  8
horizontal
  6
CONTINUOUS
 62
    9
370
    5
100
AcDbLine
 10
0
 20
87
 11
297
 21
87.00000000000003
  0
LINE
  5
A3
100
AcDbEntity
  8
horizontal
  6
CONTINUOUS
 62
    9
370
    5
100
AcDbLine
 10
0
 20
88
 11
297
 21
88.00000000000003
  0
LINE
  5
A4
100
AcDbEntity
  8
horizontal
  6
CONTINUOUS
 62
    9
370
    5
100
AcDbLine
 10
0
 20
89
 11
297
 21
89.00000000000003
  0
LINE
  5
A5
100
AcDbEntity
  8
horizontal
  6
CONTINUOUS
 62
    9
370
    5
100
AcDbLine
 10
0
 20
91
 11
297
 21
91.00000000000003
  0
LINE
  5
A6
100
AcDbEntity
  8
horizontal
  6
CONTINUOUS
 62
    9
370
    5
100
AcDbLine
 10
0
 20
92
 11
297
 21
92.00000000000003
  0
LINE
  5
A7
100
AcDbEntity
  8
horizontal
  6
CONTINUOUS
 62
    9
370
    5
100
AcDbLine
 10
0
 20
93
 11
297
 21
93.00000000000003
  0
LINE
  5
A8
100
AcDbEntity
  8
horizontal
  6
CONTINUOUS
 62
    9
370
    5
100
AcDbLine
 10
0
 20
94
 11
297
 21
94.00000000000003
  0
LINE
  5
A9
100
AcDbEntity
  8
horizontal
  6
CONTINUOUS
 62
    9
370
    5
100
AcDbLine
 10
0
 20
95
 11
297
 21
95.00000000000003
  0
LINE
  5
AA
100
AcDbEntity
  8
horizontal
  6
CONTINUOUS
 62
    9
370
    5
100
AcDbLine
 10
0
 20
96
 11
297
 21
96.00000000000003
  0
LINE
  5
AB
100
AcDbEntity
  8
horizontal
  6
CONTINUOUS
 62
    9
370
    5
100
AcDbLine
 10
0
 20
97
 11
297
 21
97.00000000000003
  0
LINE
  5
AC
100
AcDbEntity
  8
horizontal
  6
CONTINUOUS
 62
    9
370
    5
100
AcDbLine
 10
0
 20
98
 11
297
 21
98.00000000000003
  0
LINE
  5
AD
100
AcDbEntity
  8
horizontal
  6
CONTINUOUS
 62
    9
370
    5
100
AcDbLine
 10
0
 20
99
 11
297
 21
99.00000000000003
  0
LINE
  5
AE
100
AcDbEntity
  8
horizontal
  6
CONTINUOUS
 62
    9
370
    5
100
AcDbLine
 10
0
 20
101
 11
297
 21
101
  0
LINE
  5
AF
100
AcDbEntity
  8
horizontal
  6
CONTINUOUS
 62
    9
370
    5
100
AcDbLine
 10
0
 20
102
 11
297
 21
102
  0
LINE
  5
B0
100
AcDbEntity
  8
horizontal
  6
CONTINUOUS
 62
    9
370
    5
100
AcDbLine
 10
0
 20
103
 11
297
 21
103
  0
LINE
  5
B1
100
AcDbEntity
  8
horizontal
  6
CONTINUOUS
 62
    9
370
    5
100
AcDbLine
 10
0
 20
104
 11
297
 21
104
  0
LINE
  5
B2
100
AcDbEntity
  8
horizontal
  6
CONTINUOUS
 62
    9
370
    5
100
AcDbLine
 10
0
 20
105
 11
297
 21
105
  0
LINE
  5
B3
100
AcDbEntity
  8
horizontal
  6
CONTINUOUS
 62
    9
370
    5
100
AcDbLine
 10
0
 20
106
 11
297
 21
106
  0
LINE
  5
B4
100
AcDbEntity
  8
horizontal
  6
CONTINUOUS
 62
    9
370
    5
100
AcDbLine
 10
0
 20
107
 11
297
 21
107
  0
LINE
  5
B5
100
AcDbEntity
  8
horizontal
  6
CONTINUOUS
 62
    9
370
    5
100
AcDbLine
 10
0
 20
108
 11
297
 21
108
  0
LINE
  5
B6
100
AcDbEntity
  8
horizontal
  6
CONTINUOUS
 62
    9
370
    5
100
AcDbLine
 10
0
 20
109
 11
297
 21
109
  0
LINE
  5
B7
100
AcDbEntity
  8
horizontal
  6
CONTINUOUS
 62
    9
370
    5
100
AcDbLine
 10
0
 20
111
 11
297
 21
111
  0
LINE
  5
B8
100
AcDbEntity
  8
horizontal
  6
CONTINUOUS
 62
    9
370
    5
100
AcDbLine
 10
0
 20
112
 11
297
 21
112
  0
LINE
  5
B9
100
AcDbEntity
  8
horizontal
  6
CONTINUOUS
 62
    9
370
    5
100
AcDbLine
 10
0
 20
113
 11
297
 21
113
  0
LINE
  5
BA
100
AcDbEntity
  8
horizontal
  6
CONTINUOUS
 62
    9
370
    5
100
AcDbLine
 10
0
 20
114
 11
297
 21
114
  0
LINE
  5
BB
100
AcDbEntity
  8
horizontal
  6
CONTINUOUS
 62
    9
370
    5
100
AcDbLine
 10
0
 20
115
 11
297
 21
115
  0
LINE
  5
BC
100
AcDbEntity
  8
horizontal
  6
CONTINUOUS
 62
    9
370
    5
100
AcDbLine
 10
0
 20
116
 11
297
 21
116
  0
LINE
  5
BD
100
AcDbEntity
  8
horizontal
  6
CONTINUOUS
 62
    9
370
    5
100
AcDbLine
 10
0
 20
117
 11
297
 21
117
  0
LINE
  5
BE
100
AcDbEntity
  8
horizontal
  6
CONTINUOUS
 62
    9
370
    5
100
AcDbLine
 10
0
 20
118
 11
297
 21
118
  0
LINE
  5
BF
100
AcDbEntity
  8
horizontal
  6
CONTINUOUS
 62
    9
370
    5
100
AcDbLine
 10
0
 20
119
 11
297
 21
119
  0
LINE
  5
C0
100
AcDbEntity
  8
horizontal
  6
CONTINUOUS
 62
    9
370
    5
100
AcDbLine
 10
0
 20
121
 11
297
 21
121
  0
LINE
  5
C1
100
AcDbEntity
  8
horizontal
  6
CONTINUOUS
 62
    9
370
    5
100
AcDbLine
 10
0
 20
122
 11
297
 21
122
  0
LINE
  5
C2
100
AcDbEntity
  8
horizontal
  6
CONTINUOUS
 62
    9
370
    5
100
AcDbLine
 10
0
 20
123
 11
297
 21
123
  0
LINE
  5
C3
100
AcDbEntity
  8
horizontal
  6
CONTINUOUS
 62
    9
370
    5
100
AcDbLine
 10
0
 20
124
 11
297
 21
124
  0
LINE
  5
C4
100
AcDbEntity
  8
horizontal
  6
CONTINUOUS
 62
    9
370
    5
100
AcDbLine
 10
0
 20
125
 11
297
 21
125
  0
LINE
  5
C5
100
AcDbEntity
  8
horizontal
  6
CONTINUOUS
 62
    9
370
    5
100
AcDbLine
 10
0
 20
126
 11
297
 21
126
  0
LINE
  5
C6
100
AcDbEntity
  8
horizontal
  6
CONTINUOUS
 62
    9
370
    5
100
AcDbLine
 10
0
 20
127
 11
297
 21
127
  0
LINE
  5
C7
100
AcDbEntity
  8
horizontal
  6
CONTINUOUS
 62
    9
370
    5
100
AcDbLine
 10
0
 20
128
 11
297
 21
128
  0
LINE
  5
C8
100
AcDbEntity
  8
horizontal
  6
CONTINUOUS
 62
    9
370
    5
100
AcDbLine
 10
0
 20
129
 11
297
 21
129
  0
LINE
  5
C9
100
AcDbEntity
  8
horizontal
  6
CONTINUOUS
 62
    9
370
    5
100
AcDbLine
 10
0
 20
131
 11
297
 21
131
  0
LINE
  5
CA
100
AcDbEntity
  8
horizontal
  6
CONTINUOUS
 62
    9
370
    5
100
AcDbLine
 10
0
 20
132
 11
297
 21
132
  0
LINE
  5
CB
100
AcDbEntity
  8
horizontal
  6
CONTINUOUS
 62
    9
370
    5
100
AcDbLine
 10
0
 20
133
 11
297
 21
133
  0
LINE
  5
CC
100
AcDbEntity
  8
horizontal
  6
CONTINUOUS
 62
    9
370
    5
100
AcDbLine
 10
0
 20
134
 11
297
 21
134
  0
LINE
  5
CD
100
AcDbEntity
  8
horizontal
  6
CONTINUOUS
 62
    9
370
    5
100
AcDbLine
 10
0
 20
135
 11
297
 21
135
  0
LINE
  5
CE
100
AcDbEntity
  8
horizontal
  6
CONTINUOUS
 62
    9
370
    5
100
AcDbLine
 10
0
 20
136
 11
297
 21
136
  0
LINE
  5
CF
100
AcDbEntity
  8
horizontal
  6
CONTINUOUS
 62
    9
370
    5
100
AcDbLine
 10
0
 20
137
 11
297
 21
137
  0
LINE
  5
D0
100
AcDbEntity
  8
horizontal
  6
CONTINUOUS
 62
    9
370
    5
100
AcDbLine
 10
0
 20
138
 11
297
 21
138
  0
LINE
  5
D1
100
AcDbEntity
  8
horizontal
  6
CONTINUOUS
 62
    9
370
    5
100
AcDbLine
 10
0
 20
139
 11
297
 21
139
  0
LINE
  5
D2
100
AcDbEntity
  8
horizontal
  6
CONTINUOUS
 62
    9
370
    5
100
AcDbLine
 10
0
 20
141
 11
297
 21
141
  0
LINE
  5
D3
100
AcDbEntity
  8
horizontal
  6
CONTINUOUS
 62
    9
370
    5
100
AcDbLine
 10
0
 20
142
 11
297
 21
142
  0
LINE
  5
D4
100
AcDbEntity
  8
horizontal
  6
CONTINUOUS
 62
    9
370
    5
100
AcDbLine
 10
0
 20
143
 11
297
 21
143
  0
LINE
  5
D5
100
AcDbEntity
  8
horizontal
  6
CONTINUOUS
 62
    9
370
    5
100
AcDbLine
 10
0
 20
144
 11
297
 21
144
  0
LINE
  5
D6
100
AcDbEntity
  8
horizontal
  6
CONTINUOUS
 62
    9
370
    5
100
AcDbLine
 10
0
 20
145
 11
297
 21
145
  0
LINE
  5
D7
100
AcDbEntity
  8
horizontal
  6
CONTINUOUS
 62
    9
370
    5
100
AcDbLine
 10
0
 20
146
 11
297
 21
146
  0
LINE
  5
D8
100
AcDbEntity
  8
horizontal
  6
CONTINUOUS
 62
    9
370
    5
100
AcDbLine
 10
0
 20
147
 11
297
 21
147
  0
LINE
  5
D9
100
AcDbEntity
  8
horizontal
  6
CONTINUOUS
 62
    9
370
    5
100
AcDbLine
 10
0
 20
148
 11
297
 21
148
  0
LINE
  5
DA
100
AcDbEntity
  8
horizontal
  6
CONTINUOUS
 62
    9
370
    5
100
AcDbLine
 10
0
 20
149
 11
297
 21
149
  0
LINE
  5
DB
100
AcDbEntity
  8
horizontal
  6
CONTINUOUS
 62
    9
370
    5
100
AcDbLine
 10
0
 20
151
 11
297
 21
151
  0
LINE
  5
DC
100
AcDbEntity
  8
horizontal
  6
CONTINUOUS
 62
    9
370
    5
100
AcDbLine
 10
0
 20
152
 11
297
 21
152
  0
LINE
  5
DD
100
AcDbEntity
  8
horizontal
  6
CONTINUOUS
 62
    9
370
    5
100
AcDbLine
 10
0
 20
153
 11
297
 21
153
  0
LINE
  5
DE
100
AcDbEntity
  8
horizontal
  6
CONTINUOUS
 62
    9
370
    5
100
AcDbLine
 10
0
 20
154
 11
297
 21
154
  0
LINE
  5
DF
100
AcDbEntity
  8
horizontal
  6
CONTINUOUS
 62
    9
370
    5
100
AcDbLine
 10
0
 20
155
 11
297
 21
155
  0
LINE
  5
E0
100
AcDbEntity
  8
horizontal
  6
CONTINUOUS
 62
    9
370
    5
100
AcDbLine
 10
0
 20
156
 11
297
 21
156
  0
LINE
  5
E1
100
AcDbEntity
  8
horizontal
  6
CONTINUOUS
 62
    9
370
    5
100
AcDbLine
 10
0
 20
157
 11
297
 21
157
  0
LINE
  5
E2
100
AcDbEntity
  8
horizontal
  6
CONTINUOUS
 62
    9
370
    5
100
AcDbLine
 10
0
 20
158
 11
297
 21
158
  0
LINE
  5
E3
100
AcDbEntity
  8
horizontal
  6
CONTINUOUS
 62
    9
370
    5
100
AcDbLine
 10
0
 20
159
 11
297
 21
159
  0
LINE
  5
E4
100
AcDbEntity
  8
horizontal
  6
CONTINUOUS
 62
    9
370
    5
100
AcDbLine
 10
0
 20
161
 11
297
 21
161
  0
LINE
  5
E5
100
AcDbEntity
  8
horizontal
  6
CONTINUOUS
 62
    9
370
    5
100
AcDbLine
 10
0
 20
162
 11
297
 21
162
  0
LINE
  5
E6
100
AcDbEntity
  8
horizontal
  6
CONTINUOUS
 62
    9
370
    5
100
AcDbLine
 10
0
 20
163
 11
297
 21
163
  0
LINE
  5
E7
100
AcDbEntity
  8
horizontal
  6
CONTINUOUS
 62
    9
370
    5
100
AcDbLine
 10
0
 20
164
 11
297
 21
164
  0
LINE
  5
E8
100
AcDbEntity
  8
horizontal
  6
CONTINUOUS
 62
    9
370
    5
100
AcDbLine
 10
0
 20
165
 11
297
 21
165
  0
LINE
  5
E9
100
AcDbEntity
  8
horizontal
  6
CONTINUOUS
 62
    9
370
    5
100
AcDbLine
 10
0
 20
166
 11
297
 21
166
  0
LINE
  5
EA
100
AcDbEntity
  8
horizontal
  6
CONTINUOUS
 62
    9
370
    5
100
AcDbLine
 10
0
 20
167
 11
297
 21
167
  0
LINE
  5
EB
100
AcDbEntity
  8
horizontal
  6
CONTINUOUS
 62
    9
370
    5
100
AcDbLine
 10
0
 20
168
 11
297
 21
168
  0
LINE
  5
EC
100
AcDbEntity
  8
horizontal
  6
CONTINUOUS
 62
    9
370
    5
100
AcDbLine
 10
0
 20
169
 11
297
 21
169
  0
LINE
  5
ED
100
AcDbEntity
  8
horizontal
  6
CONTINUOUS
 62
    9
370
    5
100
AcDbLine
 10
0
 20
171
 11
297
 21
171
  0
LINE
  5
EE
100
AcDbEntity
  8
horizontal
  6
CONTINUOUS
 62
    9
370
    5
100
AcDbLine
 10
0
 20
172
 11
297
 21
172
  0
LINE
  5
EF
100
AcDbEntity
  8
horizontal
  6
CONTINUOUS
 62
    9
370
    5
100
AcDbLine
 10
0
 20
173
 11
297
 21
173
  0
LINE
  5
F0
100
AcDbEntity
  8
horizontal
  6
CONTINUOUS
 62
    9
370
    5
100
AcDbLine
 10
0
 20
174
 11
297
 21
174
  0
LINE
  5
F1
100
AcDbEntity
  8
horizontal
  6
CONTINUOUS
 62
    9
370
    5
100
AcDbLine
 10
0
 20
175
 11
297
 21
175
  0
LINE
  5
F2
100
AcDbEntity
  8
horizontal
  6
CONTINUOUS
 62
    9
370
    5
100
AcDbLine
 10
0
 20
176
 11
297
 21
176
  0
LINE
  5
F3
100
AcDbEntity
  8
horizontal
  6
CONTINUOUS
 62
    9
370
    5
100
AcDbLine
 10
0
 20
177
 11
297
 21
177
  0
LINE
  5
F4
100
AcDbEntity
  8
horizontal
  6
CONTINUOUS
 62
    9
370
    5
100
AcDbLine
 10
0
 20
178
 11
297
 21
178
  0
LINE
  5
F5
100
AcDbEntity
  8
horizontal
  6
CONTINUOUS
 62
    9
370
    5
100
AcDbLine
 10
0
 20
179
 11
297
 21
179
  0
LINE
  5
F6
100
AcDbEntity
  8
horizontal
  6
CONTINUOUS
 62
    9
370
    5
100
AcDbLine
 10
0
 20
181
 11
297
 21
181
  0
LINE
  5
F7
100
AcDbEntity
  8
horizontal
  6
CONTINUOUS
 62
    9
370
    5
100
AcDbLine
 10
0
 20
182
 11
297
 21
182
  0
LINE
  5
F8
100
AcDbEntity
  8
horizontal
  6
CONTINUOUS
 62
    9
370
    5
100
AcDbLine
 10
0
 20
183
 11
297
 21
183
  0
LINE
  5
F9
100
AcDbEntity
  8
horizontal
  6
CONTINUOUS
 62
    9
370
    5
100
AcDbLine
 10
0
 20
184
 11
297
 21
184
  0
LINE
  5
FA
100
AcDbEntity
  8
horizontal
  6
CONTINUOUS
 62
    9
370
    5
100
AcDbLine
 10
0
 20
185
 11
297
 21
185
  0
LINE
  5
FB
100
AcDbEntity
  8
horizontal
  6
CONTINUOUS
 62
    9
370
    5
100
AcDbLine
 10
0
 20
186
 11
297
 21
186
  0
LINE
  5
FC
100
AcDbEntity
  8
horizontal
  6
CONTINUOUS
 62
    9
370
    5
100
AcDbLine
 10
0
 20
187
 11
297
 21
187
  0
LINE
  5
FD
100
AcDbEntity
  8
horizontal
  6
CONTINUOUS
 62
    9
370
    5
100
AcDbLine
 10
0
 20
188
 11
297
 21
188
  0
LINE
  5
FE
100
AcDbEntity
  8
horizontal
  6
CONTINUOUS
 62
    9
370
    5
100
AcDbLine
 10
0
 20
189
 11
297
 21
189
  0
LINE
  5
FF
100
AcDbEntity
  8
horizontal
  6
CONTINUOUS
 62
    9
370
    5
100
AcDbLine
 10
0
 20
191
 11
297
 21
191
  0
LINE
  5
100
100
AcDbEntity
  8
horizontal
  6
CONTINUOUS
 62
    9
370
    5
100
AcDbLine
 10
0
 20
192
 11
297
 21
192
  0
LINE
  5
101
100
AcDbEntity
  8
horizontal
  6
CONTINUOUS
 62
    9
370
    5
100
AcDbLine
 10
0
 20
193
 11
297
 21
193
  0
LINE
  5
102
100
AcDbEntity
  8
horizontal
  6
CONTINUOUS
 62
    9
370
    5
100
AcDbLine
 10
0
 20
194
 11
297
 21
194
  0
LINE
  5
103
100
AcDbEntity
  8
horizontal
  6
CONTINUOUS
 62
    9
370
    5
100
AcDbLine
 10
0
 20
195
 11
297
 21
195
  0
LINE
  5
104
100
AcDbEntity
  8
horizontal
  6
CONTINUOUS
 62
    9
370
    5
100
AcDbLine
 10
0
 20
196
 11
297
 21
196
  0
LINE
  5
105
100
AcDbEntity
  8
horizontal
  6
CONTINUOUS
 62
    9
370
    5
100
AcDbLine
 10
0
 20
197
 11
297
 21
197
  0
LINE
  5
106
100
AcDbEntity
  8
horizontal
  6
CONTINUOUS
 62
    9
370
    5
100
AcDbLine
 10
0
 20
198
 11
297
 21
198
  0
LINE
  5
107
100
AcDbEntity
  8
horizontal
  6
CONTINUOUS
 62
    9
370
    5
100
AcDbLine
 10
0
 20
199
 11
297
 21
199
  0
LINE
  5
108
100
AcDbEntity
  8
horizontal
  6
CONTINUOUS
 62
    9
370
    5
100
AcDbLine
 10
0
 20
201
 11
297
 21
201
  0
LINE
  5
109
100
AcDbEntity
  8
horizontal
  6
CONTINUOUS
 62
    9
370
    5
100
AcDbLine
 10
0
 20
202
 11
297
 21
202
  0
LINE
  5
10A
100
AcDbEntity
  8
horizontal
  6
CONTINUOUS
 62
    9
370
    5
100
AcDbLine
 10
0
 20
203
 11
297
 21
203
  0
LINE
  5
10B
100
AcDbEntity
  8
horizontal
  6
CONTINUOUS
 62
    9
370
    5
100
AcDbLine
 10
0
 20
204
 11
297
 21
204
  0
LINE
  5
10C
100
AcDbEntity
  8
horizontal
  6
CONTINUOUS
 62
    9
370
    5
100
AcDbLine
 10
0
 20
205
 11
297
 21
205
  0
LINE
  5
10D
100
AcDbEntity
  8
horizontal
  6
CONTINUOUS
 62
    9
370
    5
100
AcDbLine
 10
0
 20
206
 11
297
 21
206
  0
LINE
  5
10E
100
AcDbEntity
  8
horizontal
  6
CONTINUOUS
 62
    9
370
    5
100
AcDbLine
 10
0
 20
207
 11
297
 21
207
  0
LINE
  5
10F
100
AcDbEntity
  8
horizontal
  6
CONTINUOUS
 62
    9
370
    5
100
AcDbLine
 10
0
 20
208
 11
297
 21
208
  0
LINE
  5
110
100
AcDbEntity
  8
horizontal
  6
CONTINUOUS
 62
    9
370
    5
100
AcDbLine
 10
0
 20
209
 11
297
 21
209
  0
LINE
  5
111
100
AcDbEntity
  8
vertical
  6
CONTINUOUS
 62
    9
370
    5
100
AcDbLine
 10
1
 20
0
 11
0.9999999999999893
 21
210
  0
LINE
  5
112
100
AcDbEntity
  8
vertical
  6
CONTINUOUS
 62
    9
370
    5
100
AcDbLine
 10
2
 20
0
 11
1.999999999999989
 21
210
  0
LINE
  5
113
100
AcDbEntity
  8
vertical
  6
CONTINUOUS
 62
    9
370
    5
100
AcDbLine
 10
3
 20
0
 11
2.999999999999989
 21
210
  0
LINE
  5
114
100
AcDbEntity
  8
vertical
  6
CONTINUOUS
 62
    9
370
    5
100
AcDbLine
 10
4
 20
0
 11
3.999999999999989
 21
210
  0
LINE
  5
115
100
AcDbEntity
  8
vertical
  6
CONTINUOUS
 62
    9
370
    5
100
AcDbLine
 10
5
 20
0
 11
4.999999999999989
 21
210
  0
LINE
  5
116
100
AcDbEntity
  8
vertical
  6
CONTINUOUS
 62
    9
370
    5
100
AcDbLine
 10
6
 20
0
 11
5.999999999999989
 21
210
  0
LINE
  5
117
100
AcDbEntity
  8
vertical
  6
CONTINUOUS
 62
    9
370
    5
100
AcDbLine
 10
7
 20
0
 11
6.999999999999989
 21
210
  0
LINE
  5
118
100
AcDbEntity
  8
vertical
  6
CONTINUOUS
 62
    9
370
    5
100
AcDbLine
 10
8
 20
0
 11
7.999999999999989
 21
210
  0
LINE
  5
119
100
AcDbEntity
  8
vertical
  6
CONTINUOUS
 62
    9
370
    5
100
AcDbLine
 10
9
 20
0
 11
8.999999999999989
 21
210
  0
LINE
  5
11A
100
AcDbEntity
  8
vertical
  6
CONTINUOUS
 62
    9
370
    5
100
AcDbLine
 10
11
 20
0
 11
10.99999999999999
 21
210
  0
LINE
  5
11B
100
AcDbEntity
  8
vertical
  6
CONTINUOUS
 62
    9
370
    5
100
AcDbLine
 10
12
 20
0
 11
11.99999999999999
 21
210
  0
LINE
  5
11C
100
AcDbEntity
  8
vertical
  6
CONTINUOUS
 62
    9
370
    5
100
AcDbLine
 10
14
 20
0
 11
13.99999999999999
 21
210
  0
LINE
  5
11D
100
AcDbEntity
  8
vertical
  6
CONTINUOUS
 62
    9
370
    5
100
AcDbLine
 10
15
 20
0
 11
14.99999999999999
 21
210
  0
LINE
  5
11E
100
AcDbEntity
  8
vertical
  6
CONTINUOUS
 62
    9
370
    5
100
AcDbLine
 10
16
 20
0
 11
15.99999999999999
 21
210
  0
LINE
  5
11F
100
AcDbEntity
  8
vertical
  6
CONTINUOUS
 62
    9
370
    5
100
AcDbLine
 10
17
 20
0
 11
16.99999999999999
 21
210
  0
LINE
  5
120
100
AcDbEntity
  8
vertical
  6
CONTINUOUS
 62
    9
370
    5
100
AcDbLine
 10
18
 20
0
 11
17.99999999999999
 21
210
  0
LINE
  5
121
100
AcDbEntity
  8
vertical
  6
CONTINUOUS
 62
    9
370
    5
100
AcDbLine
 10
19
 20
0
 11
18.99999999999999
 21
210
  0
LINE
  5
122
100
AcDbEntity
  8
vertical
  6
CONTINUOUS
 62
    9
370
    5
100
AcDbLine
 10
21
 20
0
 11
20.99999999999999
 21
210
  0
LINE
  5
123
100
AcDbEntity
  8
vertical
  6
CONTINUOUS
 62
    9
370
    5
100
AcDbLine
 10
22
 20
0
 11
21.99999999999999
 21
210
  0
LINE
  5
124
100
AcDbEntity
  8
vertical
  6
CONTINUOUS
 62
    9
370
    5
100
AcDbLine
 10
23
 20
0
 11
22.99999999999999
 21
210
  0
LINE
  5
125
100
AcDbEntity
  8
vertical
  6
CONTINUOUS
 62
    9
370
    5
100
AcDbLine
 10
24
 20
0
 11
23.99999999999999
 21
210
  0
LINE
  5
126
100
AcDbEntity
  8
vertical
  6
CONTINUOUS
 62
    9
370
    5
100
AcDbLine
 10
25
 20
0
 11
24.99999999999999
 21
210
  0
LINE
  5
127
100
AcDbEntity
  8
vertical
  6
CONTINUOUS
 62
    9
370
    5
100
AcDbLine
 10
26
 20
0
 11
25.99999999999999
 21
210
  0
LINE
  5
128
100
AcDbEntity
  8
vertical
  6
CONTINUOUS
 62
    9
370
    5
100
AcDbLine
 10
27
 20
0
 11
26.99999999999999
 21
210
  0
LINE
  5
129
100
AcDbEntity
  8
vertical
  6
CONTINUOUS
 62
    9
370
    5
100
AcDbLine
 10
28
 20
0
 11
27.99999999999999
 21
210
  0
LINE
  5
12A
100
AcDbEntity
  8
vertical
  6
CONTINUOUS
 62
    9
370
    5
100
AcDbLine
 10
29
 20
0
 11
28.99999999999999
 21
210
  0
LINE
  5
12B
100
AcDbEntity
  8
vertical
  6
CONTINUOUS
 62
    9
370
    5
100
AcDbLine
 10
31
 20
0
 11
30.99999999999999
 21
210
  0
LINE
  5
12C
100
AcDbEntity
  8
vertical
  6
CONTINUOUS
 62
    9
370
    5
100
AcDbLine
 10
32
 20
0
 11
31.99999999999999
 21
210
  0
LINE
  5
12D
100
AcDbEntity
  8
vertical
  6
CONTINUOUS
 62
    9
370
    5
100
AcDbLine
 10
33
 20
0
 11
32.99999999999999
 21
210
  0
LINE
  5
12E
100
AcDbEntity
  8
vertical
  6
CONTINUOUS
 62
    9
370
    5
100
AcDbLine
 10
34
 20
0
 11
33.99999999999999
 21
210
  0
LINE
  5
12F
100
AcDbEntity
  8
vertical
  6
CONTINUOUS
 62
    9
370
    5
100
AcDbLine
 10
35
 20
0
 11
34.99999999999999
 21
210
  0
LINE
  5
130
100
AcDbEntity
  8
vertical
  6
CONTINUOUS
 62
    9
370
    5
100
AcDbLine
 10
36
 20
0
 11
35.99999999999999
 21
210
  0
LINE
  5
131
100
AcDbEntity
  8
vertical
  6
CONTINUOUS
 62
    9
370
    5
100
AcDbLine
 10
37
 20
0
 11
36.99999999999999
 21
210
  0
LINE
  5
132
100
AcDbEntity
  8
vertical
  6
CONTINUOUS
 62
    9
370
    5
100
AcDbLine
 10
38
 20
0
 11
37.99999999999999
 21
210
  0
LINE
  5
133
100
AcDbEntity
  8
vertical
  6
CONTINUOUS
 62
    9
370
    5
100
AcDbLine
 10
39
 20
0
 11
38.99999999999999
 21
210
  0
LINE
  5
134
100
AcDbEntity
  8
vertical
  6
CONTINUOUS
 62
    9
370
    5
100
AcDbLine
 10
41
 20
0
 11
40.99999999999999
 21
210
  0
LINE
  5
135
100
AcDbEntity
  8
vertical
  6
CONTINUOUS
 62
    9
370
    5
100
AcDbLine
 10
42
 20
0
 11
41.99999999999999
 21
210
  0
LINE
  5
136
100
AcDbEntity
  8
vertical
  6
CONTINUOUS
 62
    9
370
    5
100
AcDbLine
 10
43
 20
0
 11
42.99999999999999
 21
210
  0
LINE
  5
137
100
AcDbEntity
  8
vertical
  6
CONTINUOUS
 62
    9
370
    5
100
AcDbLine
 10
44
 20
0
 11
43.99999999999999
 21
210
  0
LINE
  5
138
100
AcDbEntity
  8
vertical
  6
CONTINUOUS
 62
    9
370
    5
100
AcDbLine
 10
45
 20
0
 11
44.99999999999999
 21
210
  0
LINE
  5
139
100
AcDbEntity
  8
vertical
  6
CONTINUOUS
 62
    9
370
    5
100
AcDbLine
 10
46
 20
0
 11
45.99999999999999
 21
210
  0
LINE
  5
13A
100
AcDbEntity
  8
vertical
  6
CONTINUOUS
 62
    9
370
    5
100
AcDbLine
 10
47
 20
0
 11
46.99999999999999
 21
210
  0
LINE
  5
13B
100
AcDbEntity
  8
vertical
  6
CONTINUOUS
 62
    9
370
    5
100
AcDbLine
 10
48
 20
0
 11
47.99999999999999
 21
210
  0
LINE
  5
13C
100
AcDbEntity
  8
vertical
  6
CONTINUOUS
 62
    9
370
    5
100
AcDbLine
 10
49
 20
0
 11
48.99999999999999
 21
210
  0
LINE
  5
13D
100
AcDbEntity
  8
vertical
  6
CONTINUOUS
 62
    9
370
    5
100
AcDbLine
 10
51
 20
0
 11
50.99999999999999
 21
210
  0
LINE
  5
13E
100
AcDbEntity
  8
vertical
  6
CONTINUOUS
 62
    9
370
    5
100
AcDbLine
 10
52
 20
0
 11
51.99999999999999
 21
210
  0
LINE
  5
13F
100
AcDbEntity
  8
vertical
  6
CONTINUOUS
 62
    9
370
    5
100
AcDbLine
 10
53
 20
0
 11
52.99999999999999
 21
210
  0
LINE
  5
140
100
AcDbEntity
  8
vertical
  6
CONTINUOUS
 62
    9
370
    5
100
AcDbLine
 10
54
 20
0
 11
53.99999999999999
 21
210
  0
LINE
  5
141
100
AcDbEntity
  8
vertical
  6
CONTINUOUS
 62
    9
370
    5
100
AcDbLine
 10
55
 20
0
 11
54.99999999999999
 21
210
  0
LINE
  5
142
100
AcDbEntity
  8
vertical
  6
CONTINUOUS
 62
    9
370
    5
100
AcDbLine
 10
56
 20
0
 11
55.99999999999999
 21
210
  0
LINE
  5
143
100
AcDbEntity
  8
vertical
  6
CONTINUOUS
 62
    9
370
    5
100
AcDbLine
 10
57
 20
0
 11
56.99999999999999
 21
210
  0
LINE
  5
144
100
AcDbEntity
  8
vertical
  6
CONTINUOUS
 62
    9
370
    5
100
AcDbLine
 10
58
 20
0
 11
57.99999999999999
 21
210
  0
LINE
  5
145
100
AcDbEntity
  8
vertical
  6
CONTINUOUS
 62
    9
370
    5
100
AcDbLine
 10
59
 20
0
 11
58.99999999999999
 21
210
  0
LINE
  5
146
100
AcDbEntity
  8
vertical
  6
CONTINUOUS
 62
    9
370
    5
100
AcDbLine
 10
61
 20
0
 11
60.99999999999999
 21
210
  0
LINE
  5
147
100
AcDbEntity
  8
vertical
  6
CONTINUOUS
 62
    9
370
    5
100
AcDbLine
 10
62
 20
0
 11
61.99999999999999
 21
210
  0
LINE
  5
148
100
AcDbEntity
  8
vertical
  6
CONTINUOUS
 62
    9
370
    5
100
AcDbLine
 10
63
 20
0
 11
62.99999999999999
 21
210
  0
LINE
  5
149
100
AcDbEntity
  8
vertical
  6
CONTINUOUS
 62
    9
370
    5
100
AcDbLine
 10
64
 20
0
 11
63.99999999999999
 21
210
  0
LINE
  5
14A
100
AcDbEntity
  8
vertical
  6
CONTINUOUS
 62
    9
370
    5
100
AcDbLine
 10
65
 20
0
 11
64.99999999999999
 21
210
  0
LINE
  5
14B
100
AcDbEntity
  8
vertical
  6
CONTINUOUS
 62
    9
370
    5
100
AcDbLine
 10
66
 20
0
 11
65.99999999999999
 21
210
  0
LINE
  5
14C
100
AcDbEntity
  8
vertical
  6
CONTINUOUS
 62
    9
370
    5
100
AcDbLine
 10
67
 20
0
 11
66.99999999999999
 21
210
  0
LINE
  5
14D
100
AcDbEntity
  8
vertical
  6
CONTINUOUS
 62
    9
370
    5
100
AcDbLine
 10
68
 20
0
 11
67.99999999999999
 21
210
  0
LINE
  5
14E
100
AcDbEntity
  8
vertical
  6
CONTINUOUS
 62
    9
370
    5
100
AcDbLine
 10
69
 20
0
 11
68.99999999999999
 21
210
  0
LINE
  5
14F
100
AcDbEntity
  8
vertical
  6
CONTINUOUS
 62
    9
370
    5
100
AcDbLine
 10
71
 20
0
 11
70.99999999999999
 21
210
  0
LINE
  5
150
100
AcDbEntity
  8
vertical
  6
CONTINUOUS
 62
    9
370
    5
100
AcDbLine
 10
72
 20
0
 11
71.99999999999999
 21
210
  0
LINE
  5
151
100
AcDbEntity
  8
vertical
  6
CONTINUOUS
 62
    9
370
    5
100
AcDbLine
 10
73
 20
0
 11
72.99999999999999
 21
210
  0
LINE
  5
152
100
AcDbEntity
  8
vertical
  6
CONTINUOUS
 62
    9
370
    5
100
AcDbLine
 10
74
 20
0
 11
73.99999999999999
 21
210
  0
LINE
  5
153
100
AcDbEntity
  8
vertical
  6
CONTINUOUS
 62
    9
370
    5
100
AcDbLine
 10
75
 20
0
 11
74.99999999999999
 21
210
  0
LINE
  5
154
100
AcDbEntity
  8
vertical
  6
CONTINUOUS
 62
    9
370
    5
100
AcDbLine
 10
76
 20
0
 11
75.99999999999999
 21
210
  0
LINE
  5
155
100
AcDbEntity
  8
vertical
  6
CONTINUOUS
 62
    9
370
    5
100
AcDbLine
 10
77
 20
0
 11
76.99999999999999
 21
210
  0
LINE
  5
156
100
AcDbEntity
  8
vertical
  6
CONTINUOUS
 62
    9
370
    5
100
AcDbLine
 10
78
 20
0
 11
77.99999999999999
 21
210
  0
LINE
  5
157
100
AcDbEntity
  8
vertical
  6
CONTINUOUS
 62
    9
370
    5
100
AcDbLine
 10
79
 20
0
 11
78.99999999999999
 21
210
  0
LINE
  5
158
100
AcDbEntity
  8
vertical
  6
CONTINUOUS
 62
    9
370
    5
100
AcDbLine
 10
81
 20
0
 11
80.99999999999999
 21
210
  0
LINE
  5
159
100
AcDbEntity
  8
vertical
  6
CONTINUOUS
 62
    9
370
    5
100
AcDbLine
 10
82
 20
0
 11
81.99999999999999
 21
210
  0
LINE
  5
15A
100
AcDbEntity
  8
vertical
  6
CONTINUOUS
 62
    9
370
    5
100
AcDbLine
 10
83
 20
0
 11
82.99999999999999
 21
210
  0
LINE
  5
15B
100
AcDbEntity
  8
vertical
  6
CONTINUOUS
 62
    9
370
    5
100
AcDbLine
 10
84
 20
0
 11
83.99999999999999
 21
210
  0
LINE
  5
15C
100
AcDbEntity
  8
vertical
  6
CONTINUOUS
 62
    9
370
    5
100
AcDbLine
 10
85
 20
0
 11
84.99999999999999
 21
210
  0
LINE
  5
15D
100
AcDbEntity
  8
vertical
  6
CONTINUOUS
 62
    9
370
    5
100
AcDbLine
 10
86
 20
0
 11
85.99999999999999
 21
210
  0
LINE
  5
15E
100
AcDbEntity
  8
vertical
  6
CONTINUOUS
 62
    9
370
    5
100
AcDbLine
 10
87
 20
0
 11
86.99999999999999
 21
210
  0
LINE
  5
15F
100
AcDbEntity
  8
vertical
  6
CONTINUOUS
 62
    9
370
    5
100
AcDbLine
 10
88
 20
0
 11
87.99999999999999
 21
210
  0
LINE
  5
160
100
AcDbEntity
  8
vertical
  6
CONTINUOUS
 62
    9
370
    5
100
AcDbLine
 10
89
 20
0
 11
88.99999999999999
 21
210
  0
LINE
  5
161
100
AcDbEntity
  8
vertical
  6
CONTINUOUS
 62
    9
370
    5
100
AcDbLine
 10
91
 20
0
 11
90.99999999999999
 21
210
  0
LINE
  5
162
100
AcDbEntity
  8
vertical
  6
CONTINUOUS
 62
    9
370
    5
100
AcDbLine
 10
92
 20
0
 11
91.99999999999999
 21
210
  0
LINE
  5
163
100
AcDbEntity
  8
vertical
  6
CONTINUOUS
 62
    9
370
    5
100
AcDbLine
 10
93
 20
0
 11
92.99999999999999
 21
210
  0
LINE
  5
164
100
AcDbEntity
  8
vertical
  6
CONTINUOUS
 62
    9
370
    5
100
AcDbLine
 10
94
 20
0
 11
93.99999999999999
 21
210
  0
LINE
  5
165
100
AcDbEntity
  8
vertical
  6
CONTINUOUS
 62
    9
370
    5
100
AcDbLine
 10
95
 20
0
 11
94.99999999999999
 21
210
  0
LINE
  5
166
100
AcDbEntity
  8
vertical
  6
CONTINUOUS
 62
    9
370
    5
100
AcDbLine
 10
96
 20
0
 11
95.99999999999999
 21
210
  0
LINE
  5
167
100
AcDbEntity
  8
vertical
  6
CONTINUOUS
 62
    9
370
    5
100
AcDbLine
 10
97
 20
0
 11
96.99999999999999
 21
210
  0
LINE
  5
168
100
AcDbEntity
  8
vertical
  6
CONTINUOUS
 62
    9
370
    5
100
AcDbLine
 10
98
 20
0
 11
97.99999999999999
 21
210
  0
LINE
  5
169
100
AcDbEntity
  8
vertical
  6
CONTINUOUS
 62
    9
370
    5
100
AcDbLine
 10
99
 20
0
 11
98.99999999999999
 21
210
  0
LINE
  5
16A
100
AcDbEntity
  8
vertical
  6
CONTINUOUS
 62
    9
370
    5
100
AcDbLine
 10
101
 20
0
 11
101
 21
210
  0
LINE
  5
16B
100
AcDbEntity
  8
vertical
  6
CONTINUOUS
 62
    9
370
    5
100
AcDbLine
 10
102
 20
0
 11
102
 21
210
  0
LINE
  5
16C
100
AcDbEntity
  8
vertical
  6
CONTINUOUS
 62
    9
370
    5
100
AcDbLine
 10
103
 20
0
 11
103
 21
210
  0
LINE
  5
16D
100
AcDbEntity
  8
vertical
  6
CONTINUOUS
 62
    9
370
    5
100
AcDbLine
 10
104
 20
0
 11
104
 21
210
  0
LINE
  5
16E
100
AcDbEntity
  8
vertical
  6
CONTINUOUS
 62
    9
370
    5
100
AcDbLine
 10
105
 20
0
 11
105
 21
210
  0
LINE
  5
16F
100
AcDbEntity
  8
vertical
  6
CONTINUOUS
 62
    9
370
    5
100
AcDbLine
 10
106
 20
0
 11
106
 21
210
  0
LINE
  5
170
100
AcDbEntity
  8
vertical
  6
CONTINUOUS
 62
    9
370
    5
100
AcDbLine
 10
107
 20
0
 11
107
 21
210
  0
LINE
  5
171
100
AcDbEntity
  8
vertical
  6
CONTINUOUS
 62
    9
370
    5
100
AcDbLine
 10
108
 20
0
 11
108
 21
210
  0
LINE
  5
172
100
AcDbEntity
  8
vertical
  6
CONTINUOUS
 62
    9
370
    5
100
AcDbLine
 10
109
 20
0
 11
109
 21
210
  0
LINE
  5
173
100
AcDbEntity
  8
vertical
  6
CONTINUOUS
 62
    9
370
    5
100
AcDbLine
 10
111
 20
0
 11
111
 21
210
  0
LINE
  5
174
100
AcDbEntity
  8
vertical
  6
CONTINUOUS
 62
    9
370
    5
100
AcDbLine
 10
112
 20
0
 11
112
 21
210
  0
LINE
  5
175
100
AcDbEntity
  8
vertical
  6
CONTINUOUS
 62
    9
370
    5
100
AcDbLine
 10
113
 20
0
 11
113
 21
210
  0
LINE
  5
176
100
AcDbEntity
  8
vertical
  6
CONTINUOUS
 62
    9
370
    5
100
AcDbLine
 10
114
 20
0
 11
114
 21
210
  0
LINE
  5
177
100
AcDbEntity
  8
vertical
  6
CONTINUOUS
 62
    9
370
    5
100
AcDbLine
 10
115
 20
0
 11
115
 21
210
  0
LINE
  5
178
100
AcDbEntity
  8
vertical
  6
CONTINUOUS
 62
    9
370
    5
100
AcDbLine
 10
116
 20
0
 11
116
 21
210
  0
LINE
  5
179
100
AcDbEntity
  8
vertical
  6
CONTINUOUS
 62
    9
370
    5
100
AcDbLine
 10
117
 20
0
 11
117
 21
210
  0
LINE
  5
17A
100
AcDbEntity
  8
vertical
  6
CONTINUOUS
 62
    9
370
    5
100
AcDbLine
 10
118
 20
0
 11
118
 21
210
  0
LINE
  5
17B
100
AcDbEntity
  8
vertical
  6
CONTINUOUS
 62
    9
370
    5
100
AcDbLine
 10
119
 20
0
 11
119
 21
210
  0
LINE
  5
17C
100
AcDbEntity
  8
vertical
  6
CONTINUOUS
 62
    9
370
    5
100
AcDbLine
 10
121
 20
0
 11
121
 21
210
  0
LINE
  5
17D
100
AcDbEntity
  8
vertical
  6
CONTINUOUS
 62
    9
370
    5
100
AcDbLine
 10
122
 20
0
 11
122
 21
210
  0
LINE
  5
17E
100
AcDbEntity
  8
vertical
  6
CONTINUOUS
 62
    9
370
    5
100
AcDbLine
 10
123
 20
0
 11
123
 21
210
  0
LINE
  5
17F
100
AcDbEntity
  8
vertical
  6
CONTINUOUS
 62
    9
370
    5
100
AcDbLine
 10
124
 20
0
 11
124
 21
210
  0
LINE
  5
180
100
AcDbEntity
  8
vertical
  6
CONTINUOUS
 62
    9
370
    5
100
AcDbLine
 10
125
 20
0
 11
125
 21
210
  0
LINE
  5
181
100
AcDbEntity
  8
vertical
  6
CONTINUOUS
 62
    9
370
    5
100
AcDbLine
 10
126
 20
0
 11
126
 21
210
  0
LINE
  5
182
100
AcDbEntity
  8
vertical
  6
CONTINUOUS
 62
    9
370
    5
100
AcDbLine
 10
127
 20
0
 11
127
 21
210
  0
LINE
  5
183
100
AcDbEntity
  8
vertical
  6
CONTINUOUS
 62
    9
370
    5
100
AcDbLine
 10
128
 20
0
 11
128
 21
210
  0
LINE
  5
184
100
AcDbEntity
  8
vertical
  6
CONTINUOUS
 62
    9
370
    5
100
AcDbLine
 10
129
 20
0
 11
129
 21
210
  0
LINE
  5
185
100
AcDbEntity
  8
vertical
  6
CONTINUOUS
 62
    9
370
    5
100
AcDbLine
 10
131
 20
0
 11
131
 21
210
  0
LINE
  5
186
100
AcDbEntity
  8
vertical
  6
CONTINUOUS
 62
    9
370
    5
100
AcDbLine
 10
132
 20
0
 11
132
 21
210
  0
LINE
  5
187
100
AcDbEntity
  8
vertical
  6
CONTINUOUS
 62
    9
370
    5
100
AcDbLine
 10
133
 20
0
 11
133
 21
210
  0
LINE
  5
188
100
AcDbEntity
  8
vertical
  6
CONTINUOUS
 62
    9
370
    5
100
AcDbLine
 10
134
 20
0
 11
134
 21
210
  0
LINE
  5
189
100
AcDbEntity
  8
vertical
  6
CONTINUOUS
 62
    9
370
    5
100
AcDbLine
 10
135
 20
0
 11
135
 21
210
  0
LINE
  5
18A
100
AcDbEntity
  8
vertical
  6
CONTINUOUS
 62
    9
370
    5
100
AcDbLine
 10
136
 20
0
 11
136
 21
210
  0
LINE
  5
18B
100
AcDbEntity
  8
vertical
  6
CONTINUOUS
 62
    9
370
    5
100
AcDbLine
 10
137
 20
0
 11
137
 21
210
  0
LINE
  5
18C
100
AcDbEntity
  8
vertical
  6
CONTINUOUS
 62
    9
370
    5
100
AcDbLine
 10
138
 20
0
 11
138
 21
210
  0
LINE
  5
18D
100
AcDbEntity
  8
vertical
  6
CONTINUOUS
 62
    9
370
    5
100
AcDbLine
 10
139
 20
0
 11
139
 21
210
  0
LINE
  5
18E
100
AcDbEntity
  8
vertical
  6
CONTINUOUS
 62
    9
370
    5
100
AcDbLine
 10
141
 20
0
 11
141
 21
210
  0
LINE
  5
18F
100
AcDbEntity
  8
vertical
  6
CONTINUOUS
 62
    9
370
    5
100
AcDbLine
 10
142
 20
0
 11
142
 21
210
  0
LINE
  5
190
100
AcDbEntity
  8
vertical
  6
CONTINUOUS
 62
    9
370
    5
100
AcDbLine
 10
143
 20
0
 11
143
 21
210
  0
LINE
  5
191
100
AcDbEntity
  8
vertical
  6
CONTINUOUS
 62
    9
370
    5
100
AcDbLine
 10
144
 20
0
 11
144
 21
210
  0
LINE
  5
192
100
AcDbEntity
  8
vertical
  6
CONTINUOUS
 62
    9
370
    5
100
AcDbLine
 10
145
 20
0
 11
145
 21
210
  0
LINE
  5
193
100
AcDbEntity
  8
vertical
  6
CONTINUOUS
 62
    9
370
    5
100
AcDbLine
 10
146
 20
0
 11
146
 21
210
  0
LINE
  5
194
100
AcDbEntity
  8
vertical
  6
CONTINUOUS
 62
    9
370
    5
100
AcDbLine
 10
147
 20
0
 11
147
 21
210
  0
LINE
  5
195
100
AcDbEntity
  8
vertical
  6
CONTINUOUS
 62
    9
370
    5
100
AcDbLine
 10
148
 20
0
 11
148
 21
210
  0
LINE
  5
196
100
AcDbEntity
  8
vertical
  6
CONTINUOUS
 62
    9
370
    5
100
AcDbLine
 10
149
 20
0
 11
149
 21
210
  0
LINE
  5
197
100
AcDbEntity
  8
vertical
  6
CONTINUOUS
 62
    9
370
    5
100
AcDbLine
 10
151
 20
0
 11
151
 21
210
  0
LINE
  5
198
100
AcDbEntity
  8
vertical
  6
CONTINUOUS
 62
    9
370
    5
100
AcDbLine
 10
152
 20
0
 11
152
 21
210
  0
LINE
  5
199
100
AcDbEntity
  8
vertical
  6
CONTINUOUS
 62
    9
370
    5
100
AcDbLine
 10
153
 20
0
 11
153
 21
210
  0
LINE
  5
19A
100
AcDbEntity
  8
vertical
  6
CONTINUOUS
 62
    9
370
    5
100
AcDbLine
 10
154
 20
0
 11
154
 21
210
  0
LINE
  5
19B
100
AcDbEntity
  8
vertical
  6
CONTINUOUS
 62
    9
370
    5
100
AcDbLine
 10
155
 20
0
 11
155
 21
210
  0
LINE
  5
19C
100
AcDbEntity
  8
vertical
  6
CONTINUOUS
 62
    9
370
    5
100
AcDbLine
 10
156
 20
0
 11
156
 21
210
  0
LINE
  5
19D
100
AcDbEntity
  8
vertical
  6
CONTINUOUS
 62
    9
370
    5
100
AcDbLine
 10
157
 20
0
 11
157
 21
210
  0
LINE
  5
19E
100
AcDbEntity
  8
vertical
  6
CONTINUOUS
 62
    9
370
    5
100
AcDbLine
 10
158
 20
0
 11
158
 21
210
  0
LINE
  5
19F
100
AcDbEntity
  8
vertical
  6
CONTINUOUS
 62
    9
370
    5
100
AcDbLine
 10
159
 20
0
 11
159
 21
210
  0
LINE
  5
1A0
100
AcDbEntity
  8
vertical
  6
CONTINUOUS
 62
    9
370
    5
100
AcDbLine
 10
161
 20
0
 11
161
 21
210
  0
LINE
  5
1A1
100
AcDbEntity
  8
vertical
  6
CONTINUOUS
 62
    9
370
    5
100
AcDbLine
 10
162
 20
0
 11
162
 21
210
  0
LINE
  5
1A2
100
AcDbEntity
  8
vertical
  6
CONTINUOUS
 62
    9
370
    5
100
AcDbLine
 10
163
 20
0
 11
163
 21
210
  0
LINE
  5
1A3
100
AcDbEntity
  8
vertical
  6
CONTINUOUS
 62
    9
370
    5
100
AcDbLine
 10
164
 20
0
 11
164
 21
210
  0
LINE
  5
1A4
100
AcDbEntity
  8
vertical
  6
CONTINUOUS
 62
    9
370
    5
100
AcDbLine
 10
165
 20
0
 11
165
 21
210
  0
LINE
  5
1A5
100
AcDbEntity
  8
vertical
  6
CONTINUOUS
 62
    9
370
    5
100
AcDbLine
 10
166
 20
0
 11
166
 21
210
  0
LINE
  5
1A6
100
AcDbEntity
  8
vertical
  6
CONTINUOUS
 62
    9
370
    5
100
AcDbLine
 10
167
 20
0
 11
167
 21
210
  0
LINE
  5
1A7
100
AcDbEntity
  8
vertical
  6
CONTINUOUS
 62
    9
370
    5
100
AcDbLine
 10
168
 20
0
 11
168
 21
210
  0
LINE
  5
1A8
100
AcDbEntity
  8
vertical
  6
CONTINUOUS
 62
    9
370
    5
100
AcDbLine
 10
169
 20
0
 11
169
 21
210
  0
LINE
  5
1A9
100
AcDbEntity
  8
vertical
  6
CONTINUOUS
 62
    9
370
    5
100
AcDbLine
 10
171
 20
0
 11
171
 21
210
  0
LINE
  5
1AA
100
AcDbEntity
  8
vertical
  6
CONTINUOUS
 62
    9
370
    5
100
AcDbLine
 10
172
 20
0
 11
172
 21
210
  0
LINE
  5
1AB
100
AcDbEntity
  8
vertical
  6
CONTINUOUS
 62
    9
370
    5
100
AcDbLine
 10
173
 20
0
 11
173
 21
210
  0
LINE
  5
1AC
100
AcDbEntity
  8
vertical
  6
CONTINUOUS
 62
    9
370
    5
100
AcDbLine
 10
174
 20
0
 11
174
 21
210
  0
LINE
  5
1AD
100
AcDbEntity
  8
vertical
  6
CONTINUOUS
 62
    9
370
    5
100
AcDbLine
 10
175
 20
0
 11
175
 21
210
  0
LINE
  5
1AE
100
AcDbEntity
  8
vertical
  6
CONTINUOUS
 62
    9
370
    5
100
AcDbLine
 10
176
 20
0
 11
176
 21
210
  0
LINE
  5
1AF
100
AcDbEntity
  8
vertical
  6
CONTINUOUS
 62
    9
370
    5
100
AcDbLine
 10
177
 20
0
 11
177
 21
210
  0
LINE
  5
1B0
100
AcDbEntity
  8
vertical
  6
CONTINUOUS
 62
    9
370
    5
100
AcDbLine
 10
178
 20
0
 11
178
 21
210
  0
LINE
  5
1B1
100
AcDbEntity
  8
vertical
  6
CONTINUOUS
 62
    9
370
    5
100
AcDbLine
 10
179
 20
0
 11
179
 21
210
  0
LINE
  5
1B2
100
AcDbEntity
  8
vertical
  6
CONTINUOUS
 62
    9
370
    5
100
AcDbLine
 10
181
 20
0
 11
181
 21
210
  0
LINE
  5
1B3
100
AcDbEntity
  8
vertical
  6
CONTINUOUS
 62
    9
370
    5
100
AcDbLine
 10
182
 20
0
 11
182
 21
210
  0
LINE
  5
1B4
100
AcDbEntity
  8
vertical
  6
CONTINUOUS
 62
    9
370
    5
100
AcDbLine
 10
183
 20
0
 11
183
 21
210
  0
LINE
  5
1B5
100
AcDbEntity
  8
vertical
  6
CONTINUOUS
 62
    9
370
    5
100
AcDbLine
 10
184
 20
0
 11
184
 21
210
  0
LINE
  5
1B6
100
AcDbEntity
  8
vertical
  6
CONTINUOUS
 62
    9
370
    5
100
AcDbLine
 10
185
 20
0
 11
185
 21
210
  0
LINE
  5
1B7
100
AcDbEntity
  8
vertical
  6
CONTINUOUS
 62
    9
370
    5
100
AcDbLine
 10
186
 20
0
 11
186
 21
210
  0
LINE
  5
1B8
100
AcDbEntity
  8
vertical
  6
CONTINUOUS
 62
    9
370
    5
100
AcDbLine
 10
187
 20
0
 11
187
 21
210
  0
LINE
  5
1B9
100
AcDbEntity
  8
vertical
  6
CONTINUOUS
 62
    9
370
    5
100
AcDbLine
 10
188
 20
0
 11
188
 21
210
  0
LINE
  5
1BA
100
AcDbEntity
  8
vertical
  6
CONTINUOUS
 62
    9
370
    5
100
AcDbLine
 10
189
 20
0
 11
189
 21
210
  0
LINE
  5
1BB
100
AcDbEntity
  8
vertical
  6
CONTINUOUS
 62
    9
370
    5
100
AcDbLine
 10
191
 20
0
 11
191
 21
210
  0
LINE
  5
1BC
100
AcDbEntity
  8
vertical
  6
CONTINUOUS
 62
    9
370
    5
100
AcDbLine
 10
192
 20
0
 11
192
 21
210
  0
LINE
  5
1BD
100
AcDbEntity
  8
vertical
  6
CONTINUOUS
 62
    9
370
    5
100
AcDbLine
 10
193
 20
0
 11
193
 21
210
  0
LINE
  5
1BE
100
AcDbEntity
  8
vertical
  6
CONTINUOUS
 62
    9
370
    5
100
AcDbLine
 10
194
 20
0
 11
194
 21
210
  0
LINE
  5
1BF
100
AcDbEntity
  8
vertical
  6
CONTINUOUS
 62
    9
370
    5
100
AcDbLine
 10
195
 20
0
 11
195
 21
210
  0
LINE
  5
1C0
100
AcDbEntity
  8
vertical
  6
CONTINUOUS
 62
    9
370
    5
100
AcDbLine
 10
196
 20
0
 11
196
 21
210
  0
LINE
  5
1C1
100
AcDbEntity
  8
vertical
  6
CONTINUOUS
 62
    9
370
    5
100
AcDbLine
 10
197
 20
0
 11
197
 21
210
  0
LINE
  5
1C2
100
AcDbEntity
  8
vertical
  6
CONTINUOUS
 62
    9
370
    5
100
AcDbLine
 10
198
 20
0
 11
198
 21
210
  0
LINE
  5
1C3
100
AcDbEntity
  8
vertical
  6
CONTINUOUS
 62
    9
370
    5
100
AcDbLine
 10
199
 20
0
 11
199
 21
210
  0
LINE
  5
1C4
100
AcDbEntity
  8
vertical
  6
CONTINUOUS
 62
    9
370
    5
100
AcDbLine
 10
201
 20
-7.248971344623244e-015
 11
201
 21
210
  0
LINE
  5
1C5
100
AcDbEntity
  8
vertical
  6
CONTINUOUS
 62
    9
370
    5
100
AcDbLine
 10
202
 20
-7.248971344623244e-015
 11
202
 21
210
  0
LINE
  5
1C6
100
AcDbEntity
  8
vertical
  6
CONTINUOUS
 62
    9
370
    5
100
AcDbLine
 10
203
 20
-7.248971344623244e-015
 11
203
 21
210
  0
LINE
  5
1C7
100
AcDbEntity
  8
vertical
  6
CONTINUOUS
 62
    9
370
    5
100
AcDbLine
 10
204
 20
-7.248971344623244e-015
 11
204
 21
210
  0
LINE
  5
1C8
100
AcDbEntity
  8
vertical
  6
CONTINUOUS
 62
    9
370
    5
100
AcDbLine
 10
205
 20
-7.248971344623244e-015
 11
205
 21
210
  0
LINE
  5
1C9
100
AcDbEntity
  8
vertical
  6
CONTINUOUS
 62
    9
370
    5
100
AcDbLine
 10
206
 20
-7.248971344623244e-015
 11
206
 21
210
  0
LINE
  5
1CA
100
AcDbEntity
  8
vertical
  6
CONTINUOUS
 62
    9
370
    5
100
AcDbLine
 10
207
 20
-7.248971344623244e-015
 11
207
 21
210
  0
LINE
  5
1CB
100
AcDbEntity
  8
vertical
  6
CONTINUOUS
 62
    9
370
    5
100
AcDbLine
 10
208
 20
-7.248971344623244e-015
 11
208
 21
210
  0
LINE
  5
1CC
100
AcDbEntity
  8
vertical
  6
CONTINUOUS
 62
    9
370
    5
100
AcDbLine
 10
209
 20
-7.248971344623244e-015
 11
209
 21
210
  0
LINE
  5
1CD
100
AcDbEntity
  8
vertical
  6
CONTINUOUS
 62
    9
370
    5
100
AcDbLine
 10
211
 20
-7.248971344623244e-015
 11
211
 21
210
  0
LINE
  5
1CE
100
AcDbEntity
  8
vertical
  6
CONTINUOUS
 62
    9
370
    5
100
AcDbLine
 10
212
 20
-7.248971344623244e-015
 11
212
 21
210
  0
LINE
  5
1CF
100
AcDbEntity
  8
vertical
  6
CONTINUOUS
 62
    9
370
    5
100
AcDbLine
 10
213
 20
-7.248971344623244e-015
 11
213
 21
210
  0
LINE
  5
1D0
100
AcDbEntity
  8
vertical
  6
CONTINUOUS
 62
    9
370
    5
100
AcDbLine
 10
214
 20
-7.248971344623244e-015
 11
214
 21
210
  0
LINE
  5
1D1
100
AcDbEntity
  8
vertical
  6
CONTINUOUS
 62
    9
370
    5
100
AcDbLine
 10
215
 20
-7.248971344623244e-015
 11
215
 21
210
  0
LINE
  5
1D2
100
AcDbEntity
  8
vertical
  6
CONTINUOUS
 62
    9
370
    5
100
AcDbLine
 10
216
 20
-7.248971344623244e-015
 11
216
 21
210
  0
LINE
  5
1D3
100
AcDbEntity
  8
vertical
  6
CONTINUOUS
 62
    9
370
    5
100
AcDbLine
 10
217
 20
-7.248971344623244e-015
 11
217
 21
210
  0
LINE
  5
1D4
100
AcDbEntity
  8
vertical
  6
CONTINUOUS
 62
    9
370
    5
100
AcDbLine
 10
218
 20
-7.248971344623244e-015
 11
218
 21
210
  0
LINE
  5
1D5
100
AcDbEntity
  8
vertical
  6
CONTINUOUS
 62
    9
370
    5
100
AcDbLine
 10
219
 20
-7.248971344623244e-015
 11
219
 21
210
  0
LINE
  5
1D6
100
AcDbEntity
  8
vertical
  6
CONTINUOUS
 62
    9
370
    5
100
AcDbLine
 10
221
 20
-7.248971344623244e-015
 11
221
 21
210
  0
LINE
  5
1D7
100
AcDbEntity
  8
vertical
  6
CONTINUOUS
 62
    9
370
    5
100
AcDbLine
 10
222
 20
-7.248971344623244e-015
 11
222
 21
210
  0
LINE
  5
1D8
100
AcDbEntity
  8
vertical
  6
CONTINUOUS
 62
    9
370
    5
100
AcDbLine
 10
223
 20
-7.248971344623244e-015
 11
223
 21
210
  0
LINE
  5
1D9
100
AcDbEntity
  8
vertical
  6
CONTINUOUS
 62
    9
370
    5
100
AcDbLine
 10
224
 20
-7.248971344623244e-015
 11
224
 21
210
  0
LINE
  5
1DA
100
AcDbEntity
  8
vertical
  6
CONTINUOUS
 62
    9
370
    5
100
AcDbLine
 10
225
 20
-7.248971344623244e-015
 11
225
 21
210
  0
LINE
  5
1DB
100
AcDbEntity
  8
vertical
  6
CONTINUOUS
 62
    9
370
    5
100
AcDbLine
 10
226
 20
-7.248971344623244e-015
 11
226
 21
210
  0
LINE
  5
1DC
100
AcDbEntity
  8
vertical
  6
CONTINUOUS
 62
    9
370
    5
100
AcDbLine
 10
227
 20
-7.248971344623244e-015
 11
227
 21
210
  0
LINE
  5
1DD
100
AcDbEntity
  8
vertical
  6
CONTINUOUS
 62
    9
370
    5
100
AcDbLine
 10
228
 20
-7.248971344623244e-015
 11
228
 21
210
  0
LINE
  5
1DE
100
AcDbEntity
  8
vertical
  6
CONTINUOUS
 62
    9
370
    5
100
AcDbLine
 10
229
 20
-7.248971344623244e-015
 11
229
 21
210
  0
LINE
  5
1DF
100
AcDbEntity
  8
vertical
  6
CONTINUOUS
 62
    9
370
    5
100
AcDbLine
 10
231
 20
-7.248971344623244e-015
 11
231
 21
210
  0
LINE
  5
1E0
100
AcDbEntity
  8
vertical
  6
CONTINUOUS
 62
    9
370
    5
100
AcDbLine
 10
232
 20
-7.248971344623244e-015
 11
232
 21
210
  0
LINE
  5
1E1
100
AcDbEntity
  8
vertical
  6
CONTINUOUS
 62
    9
370
    5
100
AcDbLine
 10
233
 20
-7.248971344623244e-015
 11
233
 21
210
  0
LINE
  5
1E2
100
AcDbEntity
  8
vertical
  6
CONTINUOUS
 62
    9
370
    5
100
AcDbLine
 10
234
 20
-7.248971344623244e-015
 11
234
 21
210
  0
LINE
  5
1E3
100
AcDbEntity
  8
vertical
  6
CONTINUOUS
 62
    9
370
    5
100
AcDbLine
 10
235
 20
-7.248971344623244e-015
 11
235
 21
210
  0
LINE
  5
1E4
100
AcDbEntity
  8
vertical
  6
CONTINUOUS
 62
    9
370
    5
100
AcDbLine
 10
236
 20
-7.248971344623244e-015
 11
236
 21
210
  0
LINE
  5
1E5
100
AcDbEntity
  8
vertical
  6
CONTINUOUS
 62
    9
370
    5
100
AcDbLine
 10
237
 20
-7.248971344623244e-015
 11
237
 21
210
  0
LINE
  5
1E6
100
AcDbEntity
  8
vertical
  6
CONTINUOUS
 62
    9
370
    5
100
AcDbLine
 10
238
 20
-7.248971344623244e-015
 11
238
 21
210
  0
LINE
  5
1E7
100
AcDbEntity
  8
vertical
  6
CONTINUOUS
 62
    9
370
    5
100
AcDbLine
 10
239
 20
-7.248971344623244e-015
 11
239
 21
210
  0
LINE
  5
1E8
100
AcDbEntity
  8
vertical
  6
CONTINUOUS
 62
    9
370
    5
100
AcDbLine
 10
241
 20
-7.248971344623244e-015
 11
241
 21
210
  0
LINE
  5
1E9
100
AcDbEntity
  8
vertical
  6
CONTINUOUS
 62
    9
370
    5
100
AcDbLine
 10
242
 20
-7.248971344623244e-015
 11
242
 21
210
  0
LINE
  5
1EA
100
AcDbEntity
  8
vertical
  6
CONTINUOUS
 62
    9
370
    5
100
AcDbLine
 10
243
 20
-7.248971344623244e-015
 11
243
 21
210
  0
LINE
  5
1EB
100
AcDbEntity
  8
vertical
  6
CONTINUOUS
 62
    9
370
    5
100
AcDbLine
 10
244
 20
-7.248971344623244e-015
 11
244
 21
210
  0
LINE
  5
1EC
100
AcDbEntity
  8
vertical
  6
CONTINUOUS
 62
    9
370
    5
100
AcDbLine
 10
245
 20
-7.248971344623244e-015
 11
245
 21
210
  0
LINE
  5
1ED
100
AcDbEntity
  8
vertical
  6
CONTINUOUS
 62
    9
370
    5
100
AcDbLine
 10
246
 20
-7.248971344623244e-015
 11
246
 21
210
  0
LINE
  5
1EE
100
AcDbEntity
  8
vertical
  6
CONTINUOUS
 62
    9
370
    5
100
AcDbLine
 10
247
 20
-7.248971344623244e-015
 11
247
 21
210
  0
LINE
  5
1EF
100
AcDbEntity
  8
vertical
  6
CONTINUOUS
 62
    9
370
    5
100
AcDbLine
 10
248
 20
-7.248971344623244e-015
 11
248
 21
210
  0
LINE
  5
1F0
100
AcDbEntity
  8
vertical
  6
CONTINUOUS
 62
    9
370
    5
100
AcDbLine
 10
249
 20
-7.248971344623244e-015
 11
249
 21
210
  0
LINE
  5
1F1
100
AcDbEntity
  8
vertical
  6
CONTINUOUS
 62
    9
370
    5
100
AcDbLine
 10
251
 20
-7.248971344623244e-015
 11
251
 21
210
  0
LINE
  5
1F2
100
AcDbEntity
  8
vertical
  6
CONTINUOUS
 62
    9
370
    5
100
AcDbLine
 10
252
 20
-7.248971344623244e-015
 11
252
 21
210
  0
LINE
  5
1F3
100
AcDbEntity
  8
vertical
  6
CONTINUOUS
 62
    9
370
    5
100
AcDbLine
 10
253
 20
-7.248971344623244e-015
 11
253
 21
210
  0
LINE
  5
1F4
100
AcDbEntity
  8
vertical
  6
CONTINUOUS
 62
    9
370
    5
100
AcDbLine
 10
254
 20
-7.248971344623244e-015
 11
254
 21
210
  0
LINE
  5
1F5
100
AcDbEntity
  8
vertical
  6
CONTINUOUS
 62
    9
370
    5
100
AcDbLine
 10
255
 20
-7.248971344623244e-015
 11
255
 21
210
  0
LINE
  5
1F6
100
AcDbEntity
  8
vertical
  6
CONTINUOUS
 62
    9
370
    5
100
AcDbLine
 10
256
 20
-7.248971344623244e-015
 11
256
 21
210
  0
LINE
  5
1F7
100
AcDbEntity
  8
vertical
  6
CONTINUOUS
 62
    9
370
    5
100
AcDbLine
 10
257
 20
-7.248971344623244e-015
 11
257
 21
210
  0
LINE
  5
1F8
100
AcDbEntity
  8
vertical
  6
CONTINUOUS
 62
    9
370
    5
100
AcDbLine
 10
258
 20
-7.248971344623244e-015
 11
258
 21
210
  0
LINE
  5
1F9
100
AcDbEntity
  8
vertical
  6
CONTINUOUS
 62
    9
370
    5
100
AcDbLine
 10
259
 20
-7.248971344623244e-015
 11
259
 21
210
  0
LINE
  5
1FA
100
AcDbEntity
  8
vertical
  6
CONTINUOUS
 62
    9
370
    5
100
AcDbLine
 10
261
 20
-7.248971344623244e-015
 11
261
 21
210
  0
LINE
  5
1FB
100
AcDbEntity
  8
vertical
  6
CONTINUOUS
 62
    9
370
    5
100
AcDbLine
 10
262
 20
-7.248971344623244e-015
 11
262
 21
210
  0
LINE
  5
1FC
100
AcDbEntity
  8
vertical
  6
CONTINUOUS
 62
    9
370
    5
100
AcDbLine
 10
263
 20
-7.248971344623244e-015
 11
263
 21
210
  0
LINE
  5
1FD
100
AcDbEntity
  8
vertical
  6
CONTINUOUS
 62
    9
370
    5
100
AcDbLine
 10
264
 20
-7.248971344623244e-015
 11
264
 21
210
  0
LINE
  5
1FE
100
AcDbEntity
  8
vertical
  6
CONTINUOUS
 62
    9
370
    5
100
AcDbLine
 10
265
 20
-7.248971344623244e-015
 11
265
 21
210
  0
LINE
  5
1FF
100
AcDbEntity
  8
vertical
  6
CONTINUOUS
 62
    9
370
    5
100
AcDbLine
 10
266
 20
-7.248971344623244e-015
 11
266
 21
210
  0
LINE
  5
200
100
AcDbEntity
  8
vertical
  6
CONTINUOUS
 62
    9
370
    5
100
AcDbLine
 10
267
 20
-7.248971344623244e-015
 11
267
 21
210
  0
LINE
  5
201
100
AcDbEntity
  8
vertical
  6
CONTINUOUS
 62
    9
370
    5
100
AcDbLine
 10
268
 20
-7.248971344623244e-015
 11
268
 21
210
  0
LINE
  5
202
100
AcDbEntity
  8
vertical
  6
CONTINUOUS
 62
    9
370
    5
100
AcDbLine
 10
269
 20
-7.248971344623244e-015
 11
269
 21
210
  0
LINE
  5
203
100
AcDbEntity
  8
vertical
  6
CONTINUOUS
 62
    9
370
    5
100
AcDbLine
 10
271
 20
-7.248971344623244e-015
 11
271
 21
210
  0
LINE
  5
204
100
AcDbEntity
  8
vertical
  6
CONTINUOUS
 62
    9
370
    5
100
AcDbLine
 10
272
 20
-7.248971344623244e-015
 11
272
 21
210
  0
LINE
  5
205
100
AcDbEntity
  8
vertical
  6
CONTINUOUS
 62
    9
370
    5
100
AcDbLine
 10
273
 20
-7.248971344623244e-015
 11
273
 21
210
  0
LINE
  5
206
100
AcDbEntity
  8
vertical
  6
CONTINUOUS
 62
    9
370
    5
100
AcDbLine
 10
274
 20
-7.248971344623244e-015
 11
274
 21
210
  0
LINE
  5
207
100
AcDbEntity
  8
vertical
  6
CONTINUOUS
 62
    9
370
    5
100
AcDbLine
 10
275
 20
-7.248971344623244e-015
 11
275
 21
210
  0
LINE
  5
208
100
AcDbEntity
  8
vertical
  6
CONTINUOUS
 62
    9
370
    5
100
AcDbLine
 10
276
 20
-7.248971344623244e-015
 11
276
 21
210
  0
LINE
  5
209
100
AcDbEntity
  8
vertical
  6
CONTINUOUS
 62
    9
370
    5
100
AcDbLine
 10
277
 20
-7.248971344623244e-015
 11
277
 21
210
  0
LINE
  5
20A
100
AcDbEntity
  8
vertical
  6
CONTINUOUS
 62
    9
370
    5
100
AcDbLine
 10
278
 20
-7.248971344623244e-015
 11
278
 21
210
  0
LINE
  5
20B
100
AcDbEntity
  8
vertical
  6
CONTINUOUS
 62
    9
370
    5
100
AcDbLine
 10
279
 20
-7.248971344623244e-015
 11
279
 21
210
  0
LINE
  5
20C
100
AcDbEntity
  8
vertical
  6
CONTINUOUS
 62
    9
370
    5
100
AcDbLine
 10
281
 20
-7.248971344623244e-015
 11
281
 21
210
  0
LINE
  5
20D
100
AcDbEntity
  8
vertical
  6
CONTINUOUS
 62
    9
370
    5
100
AcDbLine
 10
282
 20
-7.248971344623244e-015
 11
282
 21
210
  0
LINE
  5
20E
100
AcDbEntity
  8
vertical
  6
CONTINUOUS
 62
    9
370
    5
100
AcDbLine
 10
283
 20
-7.248971344623244e-015
 11
283
 21
210
  0
LINE
  5
20F
100
AcDbEntity
  8
vertical
  6
CONTINUOUS
 62
    9
370
    5
100
AcDbLine
 10
284
 20
-7.248971344623244e-015
 11
284
 21
210
  0
LINE
  5
210
100
AcDbEntity
  8
vertical
  6
CONTINUOUS
 62
    9
370
    5
100
AcDbLine
 10
285
 20
-7.248971344623244e-015
 11
285
 21
210
  0
LINE
  5
211
100
AcDbEntity
  8
vertical
  6
CONTINUOUS
 62
    9
370
    5
100
AcDbLine
 10
286
 20
-7.248971344623244e-015
 11
286
 21
210
  0
LINE
  5
212
100
AcDbEntity
  8
vertical
  6
CONTINUOUS
 62
    9
370
    5
100
AcDbLine
 10
287
 20
-7.248971344623244e-015
 11
287
 21
210
  0
LINE
  5
213
100
AcDbEntity
  8
vertical
  6
CONTINUOUS
 62
    9
370
    5
100
AcDbLine
 10
288
 20
-7.248971344623244e-015
 11
288
 21
210
  0
LINE
  5
214
100
AcDbEntity
  8
vertical
  6
CONTINUOUS
 62
    9
370
    5
100
AcDbLine
 10
289
 20
-7.248971344623244e-015
 11
289
 21
210
  0
LINE
  5
215
100
AcDbEntity
  8
vertical
  6
CONTINUOUS
 62
    9
370
    5
100
AcDbLine
 10
291
 20
-7.248971344623244e-015
 11
291
 21
210
  0
LINE
  5
216
100
AcDbEntity
  8
vertical
  6
CONTINUOUS
 62
    9
370
    5
100
AcDbLine
 10
292
 20
-7.248971344623244e-015
 11
292
 21
210
  0
LINE
  5
217
100
AcDbEntity
  8
vertical
  6
CONTINUOUS
 62
    9
370
    5
100
AcDbLine
 10
293
 20
-7.248971344623244e-015
 11
293
 21
210
  0
LINE
  5
218
100
AcDbEntity
  8
vertical
  6
CONTINUOUS
 62
    9
370
    5
100
AcDbLine
 10
294
 20
-7.248971344623244e-015
 11
294
 21
210
  0
LINE
  5
219
100
AcDbEntity
  8
vertical
  6
CONTINUOUS
 62
    9
370
    5
100
AcDbLine
 10
295
 20
-7.248971344623244e-015
 11
295
 21
210
  0
LINE
  5
21A
100
AcDbEntity
  8
vertical
  6
CONTINUOUS
 62
    9
370
    5
100
AcDbLine
 10
296
 20
-7.248971344623244e-015
 11
296
 21
210
  0
LINE
  5
21B
100
AcDbEntity
  8
vertical
  6
CONTINUOUS
 62
    9
370
    5
100
AcDbLine
 10
13
 20
0
 11
13
 21
210
  0
LINE
  5
21C
100
AcDbEntity
  8
horizontal
  6
CONTINUOUS
 62
    8
370
    5
100
AcDbLine
 10
0
 20
10
 11
297
 21
10.00000000000002
  0
LINE
  5
21D
100
AcDbEntity
  8
horizontal
  6
CONTINUOUS
 62
    8
370
    5
100
AcDbLine
 10
0
 20
20
 11
297
 21
20.00000000000002
  0
LINE
  5
21E
100
AcDbEntity
  8
horizontal
  6
CONTINUOUS
 62
    8
370
    5
100
AcDbLine
 10
0
 20
30
 11
297
 21
30.00000000000002
  0
LINE
  5
21F
100
AcDbEntity
  8
horizontal
  6
CONTINUOUS
 62
    8
370
    5
100
AcDbLine
 10
0
 20
40
 11
297
 21
40.00000000000002
  0
LINE
  5
220
100
AcDbEntity
  8
horizontal
  6
CONTINUOUS
 62
    8
370
    5
100
AcDbLine
 10
0
 20
50
 11
297
 21
50.00000000000002
  0
LINE
  5
221
100
AcDbEntity
  8
horizontal
  6
CONTINUOUS
 62
    8
370
    5
100
AcDbLine
 10
0
 20
60
 11
297
 21
60.00000000000002
  0
LINE
  5
222
100
AcDbEntity
  8
horizontal
  6
CONTINUOUS
 62
    8
370
    5
100
AcDbLine
 10
0
 20
70
 11
297
 21
70.00000000000003
  0
LINE
  5
223
100
AcDbEntity
  8
horizontal
  6
CONTINUOUS
 62
    8
370
    5
100
AcDbLine
 10
0
 20
80
 11
297
 21
80.00000000000003
  0
LINE
  5
224
100
AcDbEntity
  8
horizontal
  6
CONTINUOUS
 62
    8
370
    5
100
AcDbLine
 10
0
 20
90
 11
297
 21
90.00000000000003
  0
LINE
  5
225
100
AcDbEntity
  8
horizontal
  6
CONTINUOUS
 62
    8
370
    5
100
AcDbLine
 10
0
 20
100
 11
297
 21
100
  0
LINE
  5
226
100
AcDbEntity
  8
horizontal
  6
CONTINUOUS
 62
    8
370
    5
100
AcDbLine
 10
0
 20
110
 11
297
 21
110
  0
LINE
  5
227
100
AcDbEntity
  8
horizontal
  6
CONTINUOUS
 62
    8
370
    5
100
AcDbLine
 10
0
 20
120
 11
297
 21
120
  0
LINE
  5
228
100
AcDbEntity
  8
horizontal
  6
CONTINUOUS
 62
    8
370
    5
100
AcDbLine
 10
0
 20
130
 11
297
 21
130
  0
LINE
  5
229
100
AcDbEntity
  8
horizontal
  6
CONTINUOUS
 62
    8
370
    5
100
AcDbLine
 10
0
 20
140
 11
297
 21
140
  0
LINE
  5
22A
100
AcDbEntity
  8
horizontal
  6
CONTINUOUS
 62
    8
370
    5
100
AcDbLine
 10
0
 20
150
 11
297
 21
150
  0
LINE
  5
22B
100
AcDbEntity
  8
horizontal
  6
CONTINUOUS
 62
    8
370
    5
100
AcDbLine
 10
0
 20
160
 11
297
 21
160
  0
LINE
  5
22C
100
AcDbEntity
  8
horizontal
  6
CONTINUOUS
 62
    8
370
    5
100
AcDbLine
 10
0
 20
170
 11
297
 21
170
  0
LINE
  5
22D
100
AcDbEntity
  8
horizontal
  6
CONTINUOUS
 62
    8
370
    5
100
AcDbLine
 10
0
 20
180
 11
297
 21
180
  0
LINE
  5
22E
100
AcDbEntity
  8
horizontal
  6
CONTINUOUS
 62
    8
370
    5
100
AcDbLine
 10
0
 20
190
 11
297
 21
190
  0
LINE
  5
22F
100
AcDbEntity
  8
horizontal
  6
CONTINUOUS
 62
    8
370
    5
100
AcDbLine
 10
0
 20
200
 11
297
 21
200
  0
LINE
  5
230
100
AcDbEntity
  8
vertical
  6
CONTINUOUS
 62
    8
370
    5
100
AcDbLine
 10
10
 20
0
 11
9.999999999999989
 21
210
  0
LINE
  5
231
100
AcDbEntity
  8
vertical
  6
CONTINUOUS
 62
    8
370
    5
100
AcDbLine
 10
20
 20
0
 11
19.99999999999999
 21
210
  0
LINE
  5
232
100
AcDbEntity
  8
vertical
  6
CONTINUOUS
 62
    8
370
    5
100
AcDbLine
 10
30
 20
0
 11
29.99999999999999
 21
210
  0
LINE
  5
233
100
AcDbEntity
  8
vertical
  6
CONTINUOUS
 62
    8
370
    5
100
AcDbLine
 10
40
 20
0
 11
39.99999999999999
 21
210
  0
LINE
  5
234
100
AcDbEntity
  8
vertical
  6
CONTINUOUS
 62
    8
370
    5
100
AcDbLine
 10
50
 20
0
 11
49.99999999999999
 21
210
  0
LINE
  5
235
100
AcDbEntity
  8
vertical
  6
CONTINUOUS
 62
    8
370
    5
100
AcDbLine
 10
60
 20
0
 11
59.99999999999999
 21
210
  0
LINE
  5
236
100
AcDbEntity
  8
vertical
  6
CONTINUOUS
 62
    8
370
    5
100
AcDbLine
 10
70
 20
0
 11
69.99999999999999
 21
210
  0
LINE
  5
237
100
AcDbEntity
  8
vertical
  6
CONTINUOUS
 62
    8
370
    5
100
AcDbLine
 10
80
 20
0
 11
79.99999999999999
 21
210
  0
LINE
  5
238
100
AcDbEntity
  8
vertical
  6
CONTINUOUS
 62
    8
370
    5
100
AcDbLine
 10
90
 20
0
 11
89.99999999999999
 21
210
  0
LINE
  5
239
100
AcDbEntity
  8
vertical
  6
CONTINUOUS
 62
    8
370
    5
100
AcDbLine
 10
100
 20
0
 11
99.99999999999999
 21
210
  0
LINE
  5
23A
100
AcDbEntity
  8
vertical
  6
CONTINUOUS
 62
    8
370
    5
100
AcDbLine
 10
110
 20
0
 11
110
 21
210
  0
LINE
  5
23B
100
AcDbEntity
  8
vertical
  6
CONTINUOUS
 62
    8
370
    5
100
AcDbLine
 10
120
 20
0
 11
120
 21
210
  0
LINE
  5
23C
100
AcDbEntity
  8
vertical
  6
CONTINUOUS
 62
    8
370
    5
100
AcDbLine
 10
130
 20
0
 11
130
 21
210
  0
LINE
  5
23D
100
AcDbEntity
  8
vertical
  6
CONTINUOUS
 62
    8
370
    5
100
AcDbLine
 10
140
 20
0
 11
140
 21
210
  0
LINE
  5
23E
100
AcDbEntity
  8
vertical
  6
CONTINUOUS
 62
    8
370
    5
100
AcDbLine
 10
150
 20
0
 11
150
 21
210
  0
LINE
  5
23F
100
AcDbEntity
  8
vertical
  6
CONTINUOUS
 62
    8
370
    5
100
AcDbLine
 10
160
 20
0
 11
160
 21
210
  0
LINE
  5
240
100
AcDbEntity
  8
vertical
  6
CONTINUOUS
 62
    8
370
    5
100
AcDbLine
 10
170
 20
0
 11
170
 21
210
  0
LINE
  5
241
100
AcDbEntity
  8
vertical
  6
CONTINUOUS
 62
    8
370
    5
100
AcDbLine
 10
180
 20
0
 11
180
 21
210
  0
LINE
  5
242
100
AcDbEntity
  8
vertical
  6
CONTINUOUS
 62
    8
370
    5
100
AcDbLine
 10
190
 20
0
 11
190
 21
210
  0
LINE
  5
243
100
AcDbEntity
  8
vertical
  6
CONTINUOUS
 62
    8
370
    5
100
AcDbLine
 10
200
 20
0
 11
200
 21
210
  0
LINE
  5
244
100
AcDbEntity
  8
vertical
  6
CONTINUOUS
 62
    8
370
    5
100
AcDbLine
 10
210
 20
-7.248971344623244e-015
 11
210
 21
210
  0
LINE
  5
245
100
AcDbEntity
  8
vertical
  6
CONTINUOUS
 62
    8
370
    5
100
AcDbLine
 10
220
 20
-7.248971344623244e-015
 11
220
 21
210
  0
LINE
  5
246
100
AcDbEntity
  8
vertical
  6
CONTINUOUS
 62
    8
370
    5
100
AcDbLine
 10
230
 20
-7.248971344623244e-015
 11
230
 21
210
  0
LINE
  5
247
100
AcDbEntity
  8
vertical
  6
CONTINUOUS
 62
    8
370
    5
100
AcDbLine
 10
240
 20
-7.248971344623244e-015
 11
240
 21
210
  0
LINE
  5
248
100
AcDbEntity
  8
vertical
  6
CONTINUOUS
 62
    8
370
    5
100
AcDbLine
 10
250
 20
-7.248971344623244e-015
 11
250
 21
210
  0
LINE
  5
249
100
AcDbEntity
  8
vertical
  6
CONTINUOUS
 62
    8
370
    5
100
AcDbLine
 10
260
 20
-7.248971344623244e-015
 11
260
 21
210
  0
LINE
  5
24A
100
AcDbEntity
  8
vertical
  6
CONTINUOUS
 62
    8
370
    5
100
AcDbLine
 10
270
 20
-7.248971344623244e-015
 11
270
 21
210
  0
LINE
  5
24B
100
AcDbEntity
  8
vertical
  6
CONTINUOUS
 62
    8
370
    5
100
AcDbLine
 10
280
 20
-7.248971344623244e-015
 11
280
 21
210
  0
LINE
  5
24C
100
AcDbEntity
  8
vertical
  6
CONTINUOUS
 62
    8
370
    5
100
AcDbLine
 10
290
 20
-7.248971344623244e-015
 11
290
 21
210
  0
MTEXT
  5
24D
100
AcDbEntity
  8
0
  6
CONTINUOUS
 62
    7
370
   25
100
AcDbMText
 10
264.798611111111
 20
12.25000000000002
 30
0
 40
2.5
 41
25.90277777777813
 71
    5
 72
    1
  1
Karo mm 1:1 A4
  7
iso
210
0
220
0
230
1
 50
0
 73
    2
 44
1
  0
LINE
  5
24E
100
AcDbEntity
  8
0
  6
ByLayer
 62
  256
370
   18
100
AcDbLine
 10
2.959999999999989
 20
203.61
 11
2.959999999999989
 21
206.61
  0
LINE
  5
24F
100
AcDbEntity
  8
0
  6
ByLayer
 62
  256
370
   18
100
AcDbLine
 10
2.959999999999989
 20
206.61
 11
5.959999999999979
 21
206.61
  0
ENDSEC
  0
SECTION
  2
OBJECTS
  0
DICTIONARY
  5
C
330
0
100
AcDbDictionary
281
    1
  3
ACAD_GROUP
350
D
  0
DICTIONARY
  5
D
330
C
100
AcDbDictionary
281
    1
  0
PLOTSETTINGS
  5
250
100
AcDbPlotSettings
  6
1x1
 40
0
 41
0
 42
0
 43
0
  0
ENDSEC
  0
EOF
