999
dxfrw 0.6.3
  0
SECTION
  2
HEADER
  9
$ACADVER
  1
AC1021
  9
$DWGCODEPAGE
  3
ANSI_1252
  9
$INSBASE
 10
0
 20
0
 30
0
  9
$EXTMIN
 10
0.9999999999999937
 20
3.999999999999882
 30
0
  9
$EXTMAX
 10
104
 20
306
 30
0
  9
$LIMMIN
 10
0
 20
0
  9
$LIMMAX
 10
420
 20
297
  9
$ORTHOMODE
 70
    0
  9
$REGENMODE
 70
    1
  9
$FILLMODE
 70
    1
  9
$QTEXTMODE
 70
    0
  9
$MIRRTEXT
 70
    0
  9
$LTSCALE
 40
1
  9
$ATTMODE
 70
    0
  9
$TEXTSIZE
 40
2.5
  9
$TRACEWID
 40
15.68
  9
$TEXTSTYLE
  7
STANDARD
  9
$CLAYER
  8
0
  9
$CELTYPE
  6
BYLAYER
  9
$CECOLOR
 62
  256
  9
$CELTSCALE
 40
1
  9
$DISPSILH
 70
    0
  9
$DIMSCALE
 40
1
  9
$DIMASZ
 40
2.5
  9
$DIMEXO
 40
0.0625
  9
$DIMDLI
 40
3.75
  9
$DIMRND
 40
0
  9
$DIMDLE
 40
0
  9
$DIMEXE
 40
1.25
  9
$DIMTP
 40
0
  9
$DIMTM
 40
0
  9
$DIMTXT
 40
0.25
  9
$DIMCEN
 40
2.5
  9
$DIMTSZ
 40
0
  9
$DIMTOL
 70
    0
  9
$DIMLIM
 70
    0
  9
$DIMTIH
 70
    0
  9
$DIMTOH
 70
    0
  9
$DIMSE1
 70
    0
  9
$DIMSE2
 70
    0
  9
$DIMTAD
 70
    1
  9
$DIMZIN
 70
    8
  9
$DIMBLK
  1

  9
$DIMASO
 70
    1
  9
$DIMSHO
 70
    1
  9
$DIMPOST
  1

  9
$DIMAPOST
  1

  9
$DIMALT
 70
    0
  9
$DIMALTD
 70
    3
  9
$DIMALTF
 40
0.03937
  9
$DIMLFAC
 40
1
  9
$DIMTOFL
 70
    1
  9
$DIMTVP
 40
0
  9
$DIMTIX
 70
    0
  9
$DIMSOXD
 70
    0
  9
$DIMSAH
 70
    0
  9
$DIMBLK1
  1

  9
$DIMBLK2
  1

  9
$DIMSTYLE
  2
STANDARD
  9
$DIMCLRD
 70
    0
  9
$DIMCLRE
 70
    0
  9
$DIMCLRT
 70
    0
  9
$DIMTFAC
 40
1
  9
$DIMGAP
 40
0.0625
  9
$DIMJUST
 70
    0
  9
$DIMSD1
 70
    0
  9
$DIMSD2
 70
    0
  9
$DIMTOLJ
 70
    0
  9
$DIMTZIN
 70
    8
  9
$DIMALTZ
 70
    0
  9
$DIMALTTZ
 70
    0
  9
$DIMUPT
 70
    0
  9
$DIMDEC
 70
    4
  9
$DIMTDEC
 70
    2
  9
$DIMALTU
 70
    2
  9
$DIMALTTD
 70
    3
  9
$DIMTXSTY
  7
standard
  9
$DIMAUNIT
 70
    0
  9
$DIMADEC
 70
    2
  9
$DIMALTRND
 40
0
  9
$DIMAZIN
 70
    0
  9
$DIMDSEP
 70
    0
  9
$DIMATFIT
 70
    3
  9
$DIMFRAC
 70
    0
  9
$DIMLDRBLK
  1
STANDARD
  9
$DIMLUNIT
 70
    2
  9
$DIMLWD
 70
   -2
  9
$DIMLWE
 70
   -2
  9
$DIMTMOVE
 70
    0
  9
$DIMFXL
 40
0.1
  9
$DIMFXLON
 70
    0
  9
$DIMJOGANG
 40
0.7854
  9
$DIMTFILL
 70
    0
  9
$DIMTFILLCLR
 70
    0
  9
$DIMARCSYM
 70
    0
  9
$DIMLTYPE
  6

  9
$DIMLTEX1
  6

  9
$DIMLTEX2
  6

  9
$LUNITS
 70
    2
  9
$LUPREC
 70
    4
  9
$SKETCHINC
 40
1
  9
$FILLETRAD
 40
0
  9
$AUNITS
 70
    0
  9
$AUPREC
 70
    2
  9
$MENU
  1
.
  9
$ELEVATION
 40
0
  9
$PELEVATION
 40
0
  9
$THICKNESS
 40
0
  9
$LIMCHECK
 70
    0
  9
$CHAMFERA
 40
0
  9
$CHAMFERB
 40
0
  9
$CHAMFERC
 40
0
  9
$CHAMFERD
 40
0
  9
$SKPOLY
 70
    0
  9
$USRTIMER
 70
    1
  9
$ANGBASE
 50
0
  9
$ANGDIR
 70
    0
  9
$PDMODE
 70
   34
  9
$PDSIZE
 40
0
  9
$PLINEWID
 40
0
  9
$SPLFRAME
 70
    0
  9
$SPLINETYPE
 70
    2
  9
$SPLINESEGS
 70
    8
  9
$HANDSEED
  5
20000
  9
$SURFTAB1
 70
    6
  9
$SURFTAB2
 70
    6
  9
$SURFTYPE
 70
    6
  9
$SURFU
 70
    6
  9
$SURFV
 70
    6
  9
$UCSBASE
  2

  9
$UCSNAME
  2

  9
$UCSORG
 10
0
 20
0
 30
0
  9
$UCSXDIR
 10
1
 20
0
 30
0
  9
$UCSYDIR
 10
0
 20
1
 30
0
  9
$UCSORTHOREF
  2

  9
$UCSORTHOVIEW
 70
    0
  9
$UCSORGTOP
 10
0
 20
0
 30
0
  9
$UCSORGBOTTOM
 10
0
 20
0
 30
0
  9
$UCSORGLEFT
 10
0
 20
0
 30
0
  9
$UCSORGRIGHT
 10
0
 20
0
 30
0
  9
$UCSORGFRONT
 10
0
 20
0
 30
0
  9
$UCSORGBACK
 10
0
 20
0
 30
0
  9
$PUCSBASE
  2

  9
$PUCSNAME
  2

  9
$PUCSORG
 10
0
 20
0
 30
0
  9
$PUCSXDIR
 10
1
 20
0
 30
0
  9
$PUCSYDIR
 10
0
 20
1
 30
0
  9
$PUCSORTHOREF
  2

  9
$PUCSORTHOVIEW
 70
    0
  9
$PUCSORGTOP
 10
0
 20
0
 30
0
  9
$PUCSORGBOTTOM
 10
0
 20
0
 30
0
  9
$PUCSORGLEFT
 10
0
 20
0
 30
0
  9
$PUCSORGRIGHT
 10
0
 20
0
 30
0
  9
$PUCSORGFRONT
 10
0
 20
0
 30
0
  9
$PUCSORGBACK
 10
0
 20
0
 30
0
  9
$USERI1
 70
    0
  9
$USERI2
 70
    0
  9
$USERI3
 70
    0
  9
$USERI4
 70
    0
  9
$USERI5
 70
    0
  9
$USERR1
 40
0
  9
$USERR2
 40
0
  9
$USERR3
 40
0
  9
$USERR4
 40
0
  9
$USERR5
 40
0
  9
$WORLDVIEW
 70
    1
  9
$SHADEDGE
 70
    3
  9
$SHADEDIF
 70
   70
  9
$TILEMODE
 70
    1
  9
$MAXACTVP
 70
   64
  9
$PINSBASE
 10
0
 20
0
 30
0
  9
$PLIMCHECK
 70
    0
  9
$PEXTMIN
 10
0
 20
0
 30
0
  9
$PEXTMAX
 10
0
 20
0
 30
0
  9
$GRIDMODE
 70
    1
  9
$SNAPSTYLE
 70
    0
  9
$GRIDUNIT
 10
0
 20
0
  9
$PLIMMIN
 10
0
 20
0
  9
$PLIMMAX
 10
21
 20
29.7
  9
$UNITMODE
 70
    0
  9
$VISRETAIN
 70
    1
  9
$PLINEGEN
 70
    0
  9
$PSLTSCALE
 70
    1
  9
$TREEDEPTH
 70
 3020
  9
$CMLSTYLE
  2
Standard
  9
$CMLJUST
 70
    0
  9
$CMLSCALE
 40
20
  9
$PROXYGRAPHICS
 70
    1
  9
$MEASUREMENT
 70
    1
  9
$CELWEIGHT
370
   -1
  9
$ENDCAPS
280
    0
  9
$JOINSTYLE
280
    0
  9
$LWDISPLAY
290
    0
  9
$INSUNITS
 70
    5
  9
$HYPERLINKBASE
  1

  9
$STYLESHEET
  1

  9
$XEDIT
290
    1
  9
$CEPSNTYPE
380
    0
  9
$PSTYLEMODE
290
    1
  9
$EXTNAMES
290
    1
  9
$PSVPSCALE
 40
0
  9
$OLESTARTUP
290
    0
  9
$SORTENTS
280
  127
  9
$INDEXCTL
280
    0
  9
$HIDETEXT
280
    1
  9
$XCLIPFRAME
290
    0
  9
$HALOGAP
280
    0
  9
$OBSCOLOR
 70
  257
  9
$OBSLTYPE
280
    0
  9
$INTERSECTIONDISPLAY
280
    0
  9
$INTERSECTIONCOLOR
 70
  257
  9
$DIMASSOC
280
    1
  9
$PROJECTNAME
  1

  9
$CAMERADISPLAY
290
    0
  9
$LENSLENGTH
 40
50
  9
$CAMERAHEIGHT
 40
0
  9
$STEPSPERSEC
 40
2
  9
$STEPSIZE
 40
50
  9
$3DDWFPREC
 40
2
  9
$PSOLWIDTH
 40
5
  9
$PSOLHEIGHT
 40
80
  9
$LOFTANG1
 40
1.570796326794897
  9
$LOFTANG2
 40
1.570796326794897
  9
$LOFTMAG1
 40
0
  9
$LOFTMAG2
 40
0
  9
$LOFTPARAM
 70
    7
  9
$LOFTNORMALS
280
    1
  9
$LATITUDE
 40
1
  9
$LONGITUDE
 40
1
  9
$NORTHDIRECTION
 40
0
  9
$TIMEZONE
 70
-8000
  9
$LIGHTGLYPHDISPLAY
280
    1
  9
$TILEMODELIGHTSYNCH
280
    1
  9
$SOLIDHIST
280
    1
  9
$SHOWHIST
280
    1
  9
$DWFFRAME
280
    2
  9
$DGNFRAME
280
    0
  9
$REALWORLDSCALE
290
    1
  9
$INTERFERECOLOR
 62
    1
  9
$CSHADOW
280
    0
  9
$SHADOWPLANELOCATION
 40
0
  0
ENDSEC
  0
SECTION
  2
CLASSES
  0
ENDSEC
  0
SECTION
  2
TABLES
  0
TABLE
  2
VPORT
  5
8
330
0
100
AcDbSymbolTable
 70
    1
  0
VPORT
  5
31
330
2
100
AcDbSymbolTableRecord
100
AcDbViewportTableRecord
  2
*ACTIVE
 70
    0
 10
0
 20
0
 11
1
 21
1
 12
250.8270205438718
 22
166.4414594527447
 13
0
 23
0
 14
10
 24
10
 15
10
 25
10
 16
0
 26
0
 36
1
 17
0
 27
0
 37
0
 40
384.1354989547016
 41
2.043126684636118
 42
50
 43
0
 44
0
 50
0
 51
0
 71
    0
 72
  100
 73
    1
 74
    3
 75
    0
 76
    1
 77
    0
 78
    0
281
    0
 65
    1
110
0
120
0
130
0
111
1
121
0
131
0
112
0
122
1
132
0
 79
    0
146
0
348
10020
 60
    7
 61
    5
292
1
282
    1
141
0
142
0
 63
  250
421
3358443
  0
ENDTAB
  0
TABLE
  2
LTYPE
  5
5
330
0
100
AcDbSymbolTable
 70
    4
  0
LTYPE
  5
14
330
5
100
AcDbSymbolTableRecord
100
AcDbLinetypeTableRecord
  2
ByBlock
 70
    0
  3

 72
   65
 73
    0
 40
0
  0
LTYPE
  5
15
330
5
100
AcDbSymbolTableRecord
100
AcDbLinetypeTableRecord
  2
ByLayer
 70
    0
  3

 72
   65
 73
    0
 40
0
  0
LTYPE
  5
16
330
5
100
AcDbSymbolTableRecord
100
AcDbLinetypeTableRecord
  2
Continuous
 70
    0
  3
Solid line
 72
   65
 73
    0
 40
0
  0
LTYPE
  5
32
330
5
100
AcDbSymbolTableRecord
100
AcDbLinetypeTableRecord
  2
DOT
 70
    0
  3
Dot . . . . . . . . . . . . . . . . . . . . . .
 72
   65
 73
    2
 40
6.35
 49
0
 74
    0
 49
-6.35
 74
    0
  0
LTYPE
  5
33
330
5
100
AcDbSymbolTableRecord
100
AcDbLinetypeTableRecord
  2
DOTTINY
 70
    0
  3
Dot (.15x) .....................................
 72
   65
 73
    2
 40
0.9525
 49
0
 74
    0
 49
-0.9525
 74
    0
  0
LTYPE
  5
34
330
5
100
AcDbSymbolTableRecord
100
AcDbLinetypeTableRecord
  2
DOT2
 70
    0
  3
Dot (.5x) .....................................
 72
   65
 73
    2
 40
3.175
 49
0
 74
    0
 49
-3.175
 74
    0
  0
LTYPE
  5
35
330
5
100
AcDbSymbolTableRecord
100
AcDbLinetypeTableRecord
  2
DOTX2
 70
    0
  3
Dot (2x) .  .  .  .  .  .  .  .  .  .  .  .  .
 72
   65
 73
    2
 40
12.7
 49
0
 74
    0
 49
-12.7
 74
    0
  0
LTYPE
  5
36
330
5
100
AcDbSymbolTableRecord
100
AcDbLinetypeTableRecord
  2
DASHED
 70
    0
  3
Dashed _ _ _ _ _ _ _ _ _ _ _ _ _ _ _ _ _
 72
   65
 73
    2
 40
19.05
 49
12.7
 74
    0
 49
-6.35
 74
    0
  0
LTYPE
  5
37
330
5
100
AcDbSymbolTableRecord
100
AcDbLinetypeTableRecord
  2
DASHEDTINY
 70
    0
  3
Dashed (.15x) _ _ _ _ _ _ _ _ _ _ _ _ _ _ _ _ _
 72
   65
 73
    2
 40
2.8575
 49
1.905
 74
    0
 49
-0.9525
 74
    0
  0
LTYPE
  5
38
330
5
100
AcDbSymbolTableRecord
100
AcDbLinetypeTableRecord
  2
DASHED2
 70
    0
  3
Dashed (.5x) _ _ _ _ _ _ _ _ _ _ _ _ _ _ _ _ _
 72
   65
 73
    2
 40
9.524999999999999
 49
6.35
 74
    0
 49
-3.175
 74
    0
  0
LTYPE
  5
39
330
5
100
AcDbSymbolTableRecord
100
AcDbLinetypeTableRecord
  2
DASHEDX2
 70
    0
  3
Dashed (2x) ____  ____  ____  ____  ____  ___
 72
   65
 73
    2
 40
38.09999999999999
 49
25.4
 74
    0
 49
-12.7
 74
    0
  0
LTYPE
  5
3A
330
5
100
AcDbSymbolTableRecord
100
AcDbLinetypeTableRecord
  2
DASHDOT
 70
    0
  3
Dash dot __ . __ . __ . __ . __ . __ . __ . __
 72
   65
 73
    4
 40
25.4
 49
12.7
 74
    0
 49
-6.35
 74
    0
 49
0
 74
    0
 49
-6.35
 74
    0
  0
LTYPE
  5
3B
330
5
100
AcDbSymbolTableRecord
100
AcDbLinetypeTableRecord
  2
DASHDOTTINY
 70
    0
  3
Dash dot (.15x) _._._._._._._._._._._._._._._.
 72
   65
 73
    4
 40
3.81
 49
1.905
 74
    0
 49
-0.9525
 74
    0
 49
0
 74
    0
 49
-0.9525
 74
    0
  0
LTYPE
  5
3C
330
5
100
AcDbSymbolTableRecord
100
AcDbLinetypeTableRecord
  2
DASHDOT2
 70
    0
  3
Dash dot (.5x) _._._._._._._._._._._._._._._.
 72
   65
 73
    4
 40
12.7
 49
6.35
 74
    0
 49
-3.175
 74
    0
 49
0
 74
    0
 49
-3.175
 74
    0
  0
LTYPE
  5
3D
330
5
100
AcDbSymbolTableRecord
100
AcDbLinetypeTableRecord
  2
DASHDOTX2
 70
    0
  3
Dash dot (2x) ____  .  ____  .  ____  .  ___
 72
   65
 73
    4
 40
50.8
 49
25.4
 74
    0
 49
-12.7
 74
    0
 49
0
 74
    0
 49
-12.7
 74
    0
  0
LTYPE
  5
3E
330
5
100
AcDbSymbolTableRecord
100
AcDbLinetypeTableRecord
  2
DIVIDE
 70
    0
  3
Divide ____ . . ____ . . ____ . . ____ . . ____
 72
   65
 73
    6
 40
31.75
 49
12.7
 74
    0
 49
-6.35
 74
    0
 49
0
 74
    0
 49
-6.35
 74
    0
 49
0
 74
    0
 49
-6.35
 74
    0
  0
LTYPE
  5
3F
330
5
100
AcDbSymbolTableRecord
100
AcDbLinetypeTableRecord
  2
DIVIDETINY
 70
    0
  3
Divide (.15x) __..__..__..__..__..__..__..__.._
 72
   65
 73
    6
 40
4.7625
 49
1.905
 74
    0
 49
-0.9525
 74
    0
 49
0
 74
    0
 49
-0.9525
 74
    0
 49
0
 74
    0
 49
-0.9525
 74
    0
  0
LTYPE
  5
40
330
5
100
AcDbSymbolTableRecord
100
AcDbLinetypeTableRecord
  2
DIVIDE2
 70
    0
  3
Divide (.5x) __..__..__..__..__..__..__..__.._
 72
   65
 73
    6
 40
15.875
 49
6.35
 74
    0
 49
-3.175
 74
    0
 49
0
 74
    0
 49
-3.175
 74
    0
 49
0
 74
    0
 49
-3.175
 74
    0
  0
LTYPE
  5
41
330
5
100
AcDbSymbolTableRecord
100
AcDbLinetypeTableRecord
  2
DIVIDEX2
 70
    0
  3
Divide (2x) ________  .  .  ________  .  .  _
 72
   65
 73
    6
 40
63.5
 49
25.4
 74
    0
 49
-12.7
 74
    0
 49
0
 74
    0
 49
-12.7
 74
    0
 49
0
 74
    0
 49
-12.7
 74
    0
  0
LTYPE
  5
42
330
5
100
AcDbSymbolTableRecord
100
AcDbLinetypeTableRecord
  2
BORDER
 70
    0
  3
Border __ __ . __ __ . __ __ . __ __ . __ __ .
 72
   65
 73
    6
 40
44.45
 49
12.7
 74
    0
 49
-6.35
 74
    0
 49
12.7
 74
    0
 49
-6.35
 74
    0
 49
0
 74
    0
 49
-6.35
 74
    0
  0
LTYPE
  5
43
330
5
100
AcDbSymbolTableRecord
100
AcDbLinetypeTableRecord
  2
BORDERTINY
 70
    0
  3
Border (.15x) __.__.__.__.__.__.__.__.__.__.__.
 72
   65
 73
    6
 40
6.6675
 49
1.905
 74
    0
 49
-0.9525
 74
    0
 49
1.905
 74
    0
 49
-0.9525
 74
    0
 49
0
 74
    0
 49
-0.9525
 74
    0
  0
LTYPE
  5
44
330
5
100
AcDbSymbolTableRecord
100
AcDbLinetypeTableRecord
  2
BORDER2
 70
    0
  3
Border (.5x) __.__.__.__.__.__.__.__.__.__.__.
 72
   65
 73
    6
 40
22.225
 49
6.35
 74
    0
 49
-3.175
 74
    0
 49
6.35
 74
    0
 49
-3.175
 74
    0
 49
0
 74
    0
 49
-3.175
 74
    0
  0
LTYPE
  5
45
330
5
100
AcDbSymbolTableRecord
100
AcDbLinetypeTableRecord
  2
BORDERX2
 70
    0
  3
Border (2x) ____  ____  .  ____  ____  .  ___
 72
   65
 73
    6
 40
88.89999999999999
 49
25.4
 74
    0
 49
-12.7
 74
    0
 49
25.4
 74
    0
 49
-12.7
 74
    0
 49
0
 74
    0
 49
-12.7
 74
    0
  0
LTYPE
  5
46
330
5
100
AcDbSymbolTableRecord
100
AcDbLinetypeTableRecord
  2
CENTER
 70
    0
  3
Center ____ _ ____ _ ____ _ ____ _ ____ _ ____
 72
   65
 73
    4
 40
50.8
 49
31.75
 74
    0
 49
-6.35
 74
    0
 49
6.35
 74
    0
 49
-6.35
 74
    0
  0
LTYPE
  5
47
330
5
100
AcDbSymbolTableRecord
100
AcDbLinetypeTableRecord
  2
CENTERTINY
 70
    0
  3
Center (.15x) ___ _ ___ _ ___ _ ___ _ ___ _ ___
 72
   65
 73
    4
 40
7.62
 49
4.7625
 74
    0
 49
-0.9525
 74
    0
 49
0.9525
 74
    0
 49
-0.9525
 74
    0
  0
LTYPE
  5
48
330
5
100
AcDbSymbolTableRecord
100
AcDbLinetypeTableRecord
  2
CENTER2
 70
    0
  3
Center (.5x) ___ _ ___ _ ___ _ ___ _ ___ _ ___
 72
   65
 73
    4
 40
28.575
 49
19.05
 74
    0
 49
-3.175
 74
    0
 49
3.175
 74
    0
 49
-3.175
 74
    0
  0
LTYPE
  5
49
330
5
100
AcDbSymbolTableRecord
100
AcDbLinetypeTableRecord
  2
CENTERX2
 70
    0
  3
Center (2x) ________  __  ________  __  _____
 72
   65
 73
    4
 40
101.6
 49
63.5
 74
    0
 49
-12.7
 74
    0
 49
12.7
 74
    0
 49
-12.7
 74
    0
  0
ENDTAB
  0
TABLE
  2
LAYER
  5
2
330
0
100
AcDbSymbolTable
 70
    1
  0
LAYER
  5
10
330
2
100
AcDbSymbolTableRecord
100
AcDbLayerTableRecord
  2
0
 70
    0
 62
    7
  6
CONTINUOUS
370
    0
390
F
  0
LAYER
  5
4A
330
2
100
AcDbSymbolTableRecord
100
AcDbLayerTableRecord
  2
building
 70
    0
 62
  136
420
32896
  6
CONTINUOUS
370
    0
390
F
  0
LAYER
  5
4B
330
2
100
AcDbSymbolTableRecord
100
AcDbLayerTableRecord
  2
road
 70
    0
 62
    8
  6
CONTINUOUS
370
    0
390
F
  0
ENDTAB
  0
TABLE
  2
STYLE
  5
3
330
0
100
AcDbSymbolTable
 70
    3
  0
STYLE
  5
4C
330
2
100
AcDbSymbolTableRecord
100
AcDbTextStyleTableRecord
  2
standard
 70
    0
 40
0
 41
1
 50
0
 71
    0
 42
1
  3
standard
  4

  0
ENDTAB
  0
TABLE
  2
VIEW
  5
6
330
0
100
AcDbSymbolTable
 70
    0
  0
ENDTAB
  0
TABLE
  2
UCS
  5
7
330
0
100
AcDbSymbolTable
 70
    0
  0
ENDTAB
  0
TABLE
  2
APPID
  5
9
330
0
100
AcDbSymbolTable
 70
    1
  0
APPID
  5
12
330
9
100
AcDbSymbolTableRecord
100
AcDbRegAppTableRecord
  2
ACAD
 70
    0
  0
APPID
  5
4D
330
9
100
AcDbSymbolTableRecord
100
AcDbRegAppTableRecord
  2
LibreCad
 70
    0
  0
ENDTAB
  0
TABLE
  2
DIMSTYLE
  5
A
330
0
100
AcDbSymbolTable
 70
    1
100
AcDbDimStyleTable
 71
    1
  0
DIMSTYLE
105
4E
330
A
100
AcDbSymbolTableRecord
100
AcDbDimStyleTableRecord
  2
Standard
 70
    0
 40
1
 41
2.5
 42
0.0625
 43
0.38
 44
1.25
 45
0
 46
0
 47
0
 48
0
 49
0.1
140
0.25
141
0.09
142
0
143
25.4
144
1
145
0
146
1
147
0.0625
148
0
 71
    0
 72
    0
 73
    0
 74
    1
 75
    0
 76
    0
 77
    0
 78
    8
 79
    0
170
    0
171
    2
172
    0
173
    0
174
    0
175
    0
176
    0
177
    0
178
    0
179
    2
271
    4
272
    4
273
    2
274
    2
275
    0
276
    0
277
    2
278
    0
279
    0
280
    0
281
    0
282
    0
283
    1
284
    0
285
    0
286
    0
288
    0
289
    3
340
standard
341

371
   -2
372
   -2
  0
ENDTAB
  0
TABLE
  2
BLOCK_RECORD
  5
1
330
0
100
AcDbSymbolTable
 70
    2
  0
BLOCK_RECORD
  5
1F
330
1
100
AcDbSymbolTableRecord
100
AcDbBlockTableRecord
  2
*Model_Space
 70
    0
280
    1
281
    0
  0
BLOCK_RECORD
  5
1E
330
1
100
AcDbSymbolTableRecord
100
AcDbBlockTableRecord
  2
*Paper_Space
 70
    0
280
    1
281
    0
  0
ENDTAB
  0
ENDSEC
  0
SECTION
  2
BLOCKS
  0
BLOCK
  5
20
330
1F
100
AcDbEntity
  8
0
100
AcDbBlockBegin
  2
*Model_Space
 70
    0
 10
0
 20
0
 30
0
  3
*Model_Space
  1

  0
ENDBLK
  5
21
330
1F
100
AcDbEntity
  8
0
100
AcDbBlockEnd
  0
BLOCK
  5
1C
330
1B
100
AcDbEntity
  8
0
100
AcDbBlockBegin
  2
*Paper_Space
 70
    0
 10
0
 20
0
 30
0
  3
*Paper_Space
  1

  0
ENDBLK
  5
1D
330
1F
100
AcDbEntity
  8
0
100
AcDbBlockEnd
  0
ENDSEC
  0
SECTION
  2
ENTITIES
  0
HATCH
  5
4F
100
AcDbEntity
  8
road
  6
ByLayer
 62
  256
370
   -1
100
AcDbHatch
 10
0
 20
0
 30
0
210
0
220
0
230
1
  2
SOLID
 70
    1
 71
    0
 91
    1
 92
    0
 93
   80
 72
    1
 10
4
 20
6.000000000000006
 11
4
 21
16.00000000000001
 72
    1
 10
4
 20
16.00000000000001
 11
14
 21
16.00000000000001
 72
    1
 10
14
 20
16.00000000000001
 11
14
 21
6.000000000000005
 72
    1
 10
14
 20
6.000000000000005
 11
4
 21
6.000000000000006
 72
    1
 10
4
 20
6.000000000000006
 11
4
 21
16.00000000000001
 72
    1
 10
4
 20
16.00000000000001
 11
14
 21
16.00000000000001
 72
    1
 10
14
 20
16.00000000000001
 11
14
 21
6.000000000000005
 72
    1
 10
14
 20
6.000000000000005
 11
24
 21
6.000000000000005
 72
    1
 10
24
 20
6.000000000000005
 11
24
 21
16.00000000000001
 72
    1
 10
24
 20
16.00000000000001
 11
14
 21
16.00000000000001
 72
    1
 10
14
 20
16.00000000000001
 11
14
 21
6.000000000000005
 72
    1
 10
14
 20
6.000000000000005
 11
4
 21
6.000000000000006
 72
    1
 10
24
 20
6.000000000000005
 11
24
 21
16.00000000000001
 72
    1
 10
24
 20
16.00000000000001
 11
34
 21
16
 72
    1
 10
34
 20
16
 11
34
 21
6.000000000000004
 72
    1
 10
34
 20
6.000000000000004
 11
24
 21
6.000000000000005
 72
    1
 10
24
 20
6.000000000000005
 11
24
 21
16.00000000000001
 72
    1
 10
24
 20
16.00000000000001
 11
14
 21
16.00000000000001
 72
    1
 10
14
 20
16.00000000000001
 11
14
 21
6.000000000000005
 72
    1
 10
14
 20
6.000000000000005
 11
24
 21
6.000000000000005
 72
    1
 10
24
 20
6.000000000000005
 11
24
 21
16.00000000000001
 72
    1
 10
24
 20
16.00000000000001
 11
34
 21
16
 72
    1
 10
34
 20
16
 11
34
 21
6.000000000000004
 72
    1
 10
34
 20
6.000000000000004
 11
44
 21
6.000000000000004
 72
    1
 10
44
 20
6.000000000000004
 11
44
 21
16
 72
    1
 10
44
 20
16
 11
34
 21
16
 72
    1
 10
34
 20
16
 11
34
 21
6.000000000000004
 72
    1
 10
34
 20
6.000000000000004
 11
24
 21
6.000000000000005
 72
    1
 10
44
 20
6.000000000000004
 11
44
 21
16
 72
    1
 10
44
 20
16
 11
54
 21
16
 72
    1
 10
54
 20
16
 11
54
 21
6.000000000000003
 72
    1
 10
54
 20
6.000000000000003
 11
44
 21
6.000000000000004
 72
    1
 10
44
 20
6.000000000000004
 11
44
 21
16
 72
    1
 10
44
 20
16
 11
34
 21
16
 72
    1
 10
34
 20
16
 11
34
 21
6.000000000000004
 72
    1
 10
34
 20
6.000000000000004
 11
44
 21
6.000000000000004
 72
    1
 10
44
 20
6.000000000000004
 11
44
 21
16
 72
    1
 10
44
 20
16
 11
54
 21
16
 72
    1
 10
54
 20
16
 11
54
 21
6.000000000000003
 72
    1
 10
54
 20
6.000000000000003
 11
64
 21
6.000000000000003
 72
    1
 10
64
 20
6.000000000000003
 11
64
 21
16
 72
    1
 10
64
 20
16
 11
54
 21
16
 72
    1
 10
54
 20
16
 11
54
 21
6.000000000000003
 72
    1
 10
54
 20
6.000000000000003
 11
44
 21
6.000000000000004
 72
    1
 10
64
 20
6.000000000000003
 11
64
 21
16
 72
    1
 10
64
 20
16
 11
74
 21
16
 72
    1
 10
74
 20
16
 11
74
 21
6.000000000000002
 72
    1
 10
74
 20
6.000000000000002
 11
64
 21
6.000000000000003
 72
    1
 10
64
 20
6.000000000000003
 11
64
 21
16
 72
    1
 10
64
 20
16
 11
54
 21
16
 72
    1
 10
54
 20
16
 11
54
 21
6.000000000000003
 72
    1
 10
54
 20
6.000000000000003
 11
64
 21
6.000000000000003
 72
    1
 10
64
 20
6.000000000000003
 11
64
 21
16
 72
    1
 10
64
 20
16
 11
74
 21
16
 72
    1
 10
74
 20
16
 11
74
 21
6.000000000000002
 72
    1
 10
74
 20
6.000000000000002
 11
84
 21
6.000000000000001
 72
    1
 10
84
 20
6.000000000000001
 11
84
 21
16
 72
    1
 10
84
 20
16
 11
74
 21
16
 72
    1
 10
74
 20
16
 11
74
 21
6.000000000000002
 72
    1
 10
74
 20
6.000000000000002
 11
64
 21
6.000000000000003
 72
    1
 10
84
 20
6.000000000000001
 11
84
 21
16
 72
    1
 10
84
 20
16
 11
94
 21
16
 72
    1
 10
94
 20
16
 11
94
 21
6.000000000000001
 72
    1
 10
94
 20
6.000000000000001
 11
84
 21
6.000000000000001
 72
    1
 10
84
 20
6.000000000000001
 11
84
 21
16
 72
    1
 10
84
 20
16
 11
74
 21
16
 72
    1
 10
74
 20
16
 11
74
 21
6.000000000000002
 72
    1
 10
74
 20
6.000000000000002
 11
84
 21
6.000000000000001
 72
    1
 10
84
 20
6.000000000000001
 11
84
 21
16
 72
    1
 10
84
 20
16
 11
94
 21
16
 72
    1
 10
94
 20
16
 11
94
 21
6.000000000000001
 72
    1
 10
94
 20
6.000000000000001
 11
104
 21
6
 72
    1
 10
104
 20
6
 11
104
 21
16
 72
    1
 10
104
 20
16
 11
94
 21
16
 72
    1
 10
94
 20
16
 11
94
 21
6.000000000000001
 72
    1
 10
94
 20
6.000000000000001
 11
84
 21
6.000000000000001
 72
    1
 10
94
 20
6.000000000000001
 11
94
 21
16
 72
    1
 10
94
 20
16
 11
104
 21
16
 72
    1
 10
104
 20
16
 11
104
 21
6
 72
    1
 10
104
 20
6
 11
94
 21
6.000000000000001
 97
    0
 75
    0
 76
    1
 98
    0
  0
HATCH
  5
50
100
AcDbEntity
  8
road
  6
ByLayer
 62
  256
370
   -1
100
AcDbHatch
 10
0
 20
0
 30
0
210
0
220
0
230
1
  2
SOLID
 70
    1
 71
    0
 91
    1
 92
    0
 93
   80
 72
    1
 10
4
 20
6.000000000000006
 11
4
 21
16.00000000000001
 72
    1
 10
4
 20
16.00000000000001
 11
14
 21
16.00000000000001
 72
    1
 10
14
 20
16.00000000000001
 11
14
 21
6.000000000000005
 72
    1
 10
14
 20
6.000000000000005
 11
4
 21
6.000000000000006
 72
    1
 10
4
 20
6.000000000000006
 11
4
 21
16.00000000000001
 72
    1
 10
4
 20
16.00000000000001
 11
14
 21
16.00000000000001
 72
    1
 10
14
 20
16.00000000000001
 11
14
 21
6.000000000000005
 72
    1
 10
14
 20
6.000000000000005
 11
24
 21
6.000000000000005
 72
    1
 10
24
 20
6.000000000000005
 11
24
 21
16.00000000000001
 72
    1
 10
24
 20
16.00000000000001
 11
14
 21
16.00000000000001
 72
    1
 10
14
 20
16.00000000000001
 11
14
 21
6.000000000000005
 72
    1
 10
14
 20
6.000000000000005
 11
4
 21
6.000000000000006
 72
    1
 10
24
 20
6.000000000000005
 11
24
 21
16.00000000000001
 72
    1
 10
24
 20
16.00000000000001
 11
34
 21
16
 72
    1
 10
34
 20
16
 11
34
 21
6.000000000000004
 72
    1
 10
34
 20
6.000000000000004
 11
24
 21
6.000000000000005
 72
    1
 10
24
 20
6.000000000000005
 11
24
 21
16.00000000000001
 72
    1
 10
24
 20
16.00000000000001
 11
14
 21
16.00000000000001
 72
    1
 10
14
 20
16.00000000000001
 11
14
 21
6.000000000000005
 72
    1
 10
14
 20
6.000000000000005
 11
24
 21
6.000000000000005
 72
    1
 10
24
 20
6.000000000000005
 11
24
 21
16.00000000000001
 72
    1
 10
24
 20
16.00000000000001
 11
34
 21
16
 72
    1
 10
34
 20
16
 11
34
 21
6.000000000000004
 72
    1
 10
34
 20
6.000000000000004
 11
44
 21
6.000000000000004
 72
    1
 10
44
 20
6.000000000000004
 11
44
 21
16
 72
    1
 10
44
 20
16
 11
34
 21
16
 72
    1
 10
34
 20
16
 11
34
 21
6.000000000000004
 72
    1
 10
34
 20
6.000000000000004
 11
24
 21
6.000000000000005
 72
    1
 10
44
 20
6.000000000000004
 11
44
 21
16
 72
    1
 10
44
 20
16
 11
54
 21
16
 72
    1
 10
54
 20
16
 11
54
 21
6.000000000000003
 72
    1
 10
54
 20
6.000000000000003
 11
44
 21
6.000000000000004
 72
    1
 10
44
 20
6.000000000000004
 11
44
 21
16
 72
    1
 10
44
 20
16
 11
34
 21
16
 72
    1
 10
34
 20
16
 11
34
 21
6.000000000000004
 72
    1
 10
34
 20
6.000000000000004
 11
44
 21
6.000000000000004
 72
    1
 10
44
 20
6.000000000000004
 11
44
 21
16
 72
    1
 10
44
 20
16
 11
54
 21
16
 72
    1
 10
54
 20
16
 11
54
 21
6.000000000000003
 72
    1
 10
54
 20
6.000000000000003
 11
64
 21
6.000000000000003
 72
    1
 10
64
 20
6.000000000000003
 11
64
 21
16
 72
    1
 10
64
 20
16
 11
54
 21
16
 72
    1
 10
54
 20
16
 11
54
 21
6.000000000000003
 72
    1
 10
54
 20
6.000000000000003
 11
44
 21
6.000000000000004
 72
    1
 10
64
 20
6.000000000000003
 11
64
 21
16
 72
    1
 10
64
 20
16
 11
74
 21
16
 72
    1
 10
74
 20
16
 11
74
 21
6.000000000000002
 72
    1
 10
74
 20
6.000000000000002
 11
64
 21
6.000000000000003
 72
    1
 10
64
 20
6.000000000000003
 11
64
 21
16
 72
    1
 10
64
 20
16
 11
54
 21
16
 72
    1
 10
54
 20
16
 11
54
 21
6.000000000000003
 72
    1
 10
54
 20
6.000000000000003
 11
64
 21
6.000000000000003
 72
    1
 10
64
 20
6.000000000000003
 11
64
 21
16
 72
    1
 10
64
 20
16
 11
74
 21
16
 72
    1
 10
74
 20
16
 11
74
 21
6.000000000000002
 72
    1
 10
74
 20
6.000000000000002
 11
84
 21
6.000000000000001
 72
    1
 10
84
 20
6.000000000000001
 11
84
 21
16
 72
    1
 10
84
 20
16
 11
74
 21
16
 72
    1
 10
74
 20
16
 11
74
 21
6.000000000000002
 72
    1
 10
74
 20
6.000000000000002
 11
64
 21
6.000000000000003
 72
    1
 10
84
 20
6.000000000000001
 11
84
 21
16
 72
    1
 10
84
 20
16
 11
94
 21
16
 72
    1
 10
94
 20
16
 11
94
 21
6.000000000000001
 72
    1
 10
94
 20
6.000000000000001
 11
84
 21
6.000000000000001
 72
    1
 10
84
 20
6.000000000000001
 11
84
 21
16
 72
    1
 10
84
 20
16
 11
74
 21
16
 72
    1
 10
74
 20
16
 11
74
 21
6.000000000000002
 72
    1
 10
74
 20
6.000000000000002
 11
84
 21
6.000000000000001
 72
    1
 10
84
 20
6.000000000000001
 11
84
 21
16
 72
    1
 10
84
 20
16
 11
94
 21
16
 72
    1
 10
94
 20
16
 11
94
 21
6.000000000000001
 72
    1
 10
94
 20
6.000000000000001
 11
104
 21
6
 72
    1
 10
104
 20
6
 11
104
 21
16
 72
    1
 10
104
 20
16
 11
94
 21
16
 72
    1
 10
94
 20
16
 11
94
 21
6.000000000000001
 72
    1
 10
94
 20
6.000000000000001
 11
84
 21
6.000000000000001
 72
    1
 10
94
 20
6.000000000000001
 11
94
 21
16
 72
    1
 10
94
 20
16
 11
104
 21
16
 72
    1
 10
104
 20
16
 11
104
 21
6
 72
    1
 10
104
 20
6
 11
94
 21
6.000000000000001
 97
    0
 75
    0
 76
    1
 98
    0
  0
HATCH
  5
51
100
AcDbEntity
  8
road
  6
ByLayer
 62
  256
370
   -1
100
AcDbHatch
 10
0
 20
0
 30
0
210
0
220
0
230
1
  2
SOLID
 70
    1
 71
    0
 91
    1
 92
    0
 93
    4
 72
    1
 10
4
 20
6.000000000000006
 11
4
 21
16.00000000000001
 72
    1
 10
4
 20
16.00000000000001
 11
14
 21
16.00000000000001
 72
    1
 10
14
 20
16.00000000000001
 11
14
 21
6.000000000000005
 72
    1
 10
14
 20
6.000000000000005
 11
4
 21
6.000000000000006
 97
    0
 75
    0
 76
    1
 98
    0
  0
HATCH
  5
52
100
AcDbEntity
  8
road
  6
ByLayer
 62
  256
370
   -1
100
AcDbHatch
 10
0
 20
0
 30
0
210
0
220
0
230
1
  2
SOLID
 70
    1
 71
    0
 91
    1
 92
    0
 93
   36
 72
    1
 10
14
 20
6.000000000000005
 11
14
 21
16.00000000000001
 72
    1
 10
14
 20
16.00000000000001
 11
24
 21
16.00000000000001
 72
    1
 10
24
 20
16.00000000000001
 11
24
 21
6.000000000000005
 72
    1
 10
24
 20
6.000000000000005
 11
14
 21
6.000000000000005
 72
    1
 10
24
 20
6.000000000000005
 11
24
 21
16.00000000000001
 72
    1
 10
24
 20
16.00000000000001
 11
34
 21
16
 72
    1
 10
34
 20
16
 11
34
 21
6.000000000000004
 72
    1
 10
34
 20
6.000000000000004
 11
24
 21
6.000000000000005
 72
    1
 10
34
 20
6.000000000000004
 11
34
 21
16
 72
    1
 10
34
 20
16
 11
44
 21
16
 72
    1
 10
44
 20
16
 11
44
 21
6.000000000000004
 72
    1
 10
44
 20
6.000000000000004
 11
34
 21
6.000000000000004
 72
    1
 10
44
 20
6.000000000000004
 11
44
 21
16
 72
    1
 10
44
 20
16
 11
54
 21
16
 72
    1
 10
54
 20
16
 11
54
 21
6.000000000000003
 72
    1
 10
54
 20
6.000000000000003
 11
44
 21
6.000000000000004
 72
    1
 10
54
 20
6.000000000000003
 11
54
 21
16
 72
    1
 10
54
 20
16
 11
64
 21
16
 72
    1
 10
64
 20
16
 11
64
 21
6.000000000000003
 72
    1
 10
64
 20
6.000000000000003
 11
54
 21
6.000000000000003
 72
    1
 10
64
 20
6.000000000000003
 11
64
 21
16
 72
    1
 10
64
 20
16
 11
74
 21
16
 72
    1
 10
74
 20
16
 11
74
 21
6.000000000000002
 72
    1
 10
74
 20
6.000000000000002
 11
64
 21
6.000000000000003
 72
    1
 10
74
 20
6.000000000000002
 11
74
 21
16
 72
    1
 10
74
 20
16
 11
84
 21
16
 72
    1
 10
84
 20
16
 11
84
 21
6.000000000000001
 72
    1
 10
84
 20
6.000000000000001
 11
74
 21
6.000000000000002
 72
    1
 10
84
 20
6.000000000000001
 11
84
 21
16
 72
    1
 10
84
 20
16
 11
94
 21
16
 72
    1
 10
94
 20
16
 11
94
 21
6.000000000000001
 72
    1
 10
94
 20
6.000000000000001
 11
84
 21
6.000000000000001
 72
    1
 10
94
 20
6.000000000000001
 11
94
 21
16
 72
    1
 10
94
 20
16
 11
104
 21
16
 72
    1
 10
104
 20
16
 11
104
 21
6
 72
    1
 10
104
 20
6
 11
94
 21
6.000000000000001
 97
    0
 75
    0
 76
    1
 98
    0
  0
HATCH
  5
53
100
AcDbEntity
  8
road
  6
ByLayer
 62
  256
370
   -1
100
AcDbHatch
 10
0
 20
0
 30
0
210
0
220
0
230
1
  2
SOLID
 70
    1
 71
    0
 91
    1
 92
    0
 93
  176
 72
    1
 10
94
 20
6.000000000000001
 11
94
 21
16
 72
    1
 10
94
 20
16
 11
104
 21
16
 72
    1
 10
104
 20
16
 11
104
 21
6
 72
    1
 10
104
 20
6
 11
94
 21
6.000000000000001
 72
    1
 10
94
 20
6.000000000000001
 11
94
 21
16
 72
    1
 10
94
 20
16
 11
94
 21
26
 72
    1
 10
94
 20
26
 11
104
 21
26
 72
    1
 10
104
 20
26
 11
104
 21
16
 72
    1
 10
104
 20
16
 11
94
 21
16
 72
    1
 10
94
 20
16
 11
104
 21
16
 72
    1
 10
104
 20
16
 11
104
 21
6
 72
    1
 10
104
 20
6
 11
94
 21
6.000000000000001
 72
    1
 10
94
 20
26
 11
94
 21
36
 72
    1
 10
94
 20
36
 11
104
 21
36
 72
    1
 10
104
 20
36
 11
104
 21
26
 72
    1
 10
104
 20
26
 11
94
 21
26
 72
    1
 10
94
 20
26
 11
94
 21
16
 72
    1
 10
94
 20
16
 11
104
 21
16
 72
    1
 10
104
 20
16
 11
104
 21
26
 72
    1
 10
104
 20
26
 11
94
 21
26
 72
    1
 10
94
 20
26
 11
94
 21
36
 72
    1
 10
94
 20
36
 11
94
 21
46
 72
    1
 10
94
 20
46
 11
104
 21
46
 72
    1
 10
104
 20
46
 11
104
 21
36
 72
    1
 10
104
 20
36
 11
94
 21
36
 72
    1
 10
94
 20
36
 11
104
 21
36
 72
    1
 10
104
 20
36
 11
104
 21
26
 72
    1
 10
104
 20
26
 11
94
 21
26
 72
    1
 10
94
 20
46
 11
94
 21
56
 72
    1
 10
94
 20
56
 11
104
 21
56
 72
    1
 10
104
 20
56
 11
104
 21
46
 72
    1
 10
104
 20
46
 11
94
 21
46
 72
    1
 10
94
 20
46
 11
94
 21
36
 72
    1
 10
94
 20
36
 11
104
 21
36
 72
    1
 10
104
 20
36
 11
104
 21
46
 72
    1
 10
104
 20
46
 11
94
 21
46
 72
    1
 10
94
 20
46
 11
94
 21
56
 72
    1
 10
94
 20
56
 11
94
 21
66
 72
    1
 10
94
 20
66
 11
104
 21
66
 72
    1
 10
104
 20
66
 11
104
 21
56
 72
    1
 10
104
 20
56
 11
94
 21
56
 72
    1
 10
94
 20
56
 11
104
 21
56
 72
    1
 10
104
 20
56
 11
104
 21
46
 72
    1
 10
104
 20
46
 11
94
 21
46
 72
    1
 10
94
 20
76
 11
94
 21
76
 72
    1
 10
94
 20
76
 11
104
 21
76
 72
    1
 10
104
 20
76
 11
104
 21
76
 72
    1
 10
104
 20
76
 11
94
 21
76
 72
    1
 10
94
 20
76
 11
94
 21
66
 72
    1
 10
94
 20
66
 11
104
 21
66
 72
    1
 10
104
 20
66
 11
104
 21
76
 72
    1
 10
104
 20
76
 11
94
 21
76
 72
    1
 10
94
 20
76
 11
94
 21
86
 72
    1
 10
94
 20
86
 11
104
 21
86
 72
    1
 10
104
 20
86
 11
104
 21
76
 72
    1
 10
104
 20
76
 11
94
 21
76
 72
    1
 10
94
 20
76
 11
94
 21
76
 72
    1
 10
94
 20
76
 11
104
 21
76
 72
    1
 10
104
 20
76
 11
104
 21
76
 72
    1
 10
104
 20
76
 11
94
 21
76
 72
    1
 10
94
 20
76
 11
94
 21
66
 72
    1
 10
94
 20
66
 11
94
 21
56
 72
    1
 10
94
 20
56
 11
104
 21
56
 72
    1
 10
104
 20
56
 11
104
 21
66
 72
    1
 10
104
 20
66
 11
94
 21
66
 72
    1
 10
94
 20
66
 11
104
 21
66
 72
    1
 10
104
 20
66
 11
104
 21
76
 72
    1
 10
104
 20
76
 11
94
 21
76
 72
    1
 10
94
 20
76
 11
94
 21
86
 72
    1
 10
94
 20
86
 11
94
 21
96
 72
    1
 10
94
 20
96
 11
104
 21
96
 72
    1
 10
104
 20
96
 11
104
 21
86
 72
    1
 10
104
 20
86
 11
94
 21
86
 72
    1
 10
94
 20
86
 11
104
 21
86
 72
    1
 10
104
 20
86
 11
104
 21
76
 72
    1
 10
104
 20
76
 11
94
 21
76
 72
    1
 10
94
 20
96
 11
94
 21
106
 72
    1
 10
94
 20
106
 11
104
 21
106
 72
    1
 10
104
 20
106
 11
104
 21
96
 72
    1
 10
104
 20
96
 11
94
 21
96
 72
    1
 10
94
 20
96
 11
94
 21
86
 72
    1
 10
94
 20
86
 11
104
 21
86
 72
    1
 10
104
 20
86
 11
104
 21
96
 72
    1
 10
104
 20
96
 11
94
 21
96
 72
    1
 10
94
 20
96
 11
94
 21
106
 72
    1
 10
94
 20
106
 11
104
 21
106
 72
    1
 10
104
 20
106
 11
104
 21
96
 72
    1
 10
104
 20
96
 11
94
 21
96
 72
    1
 10
94
 20
106
 11
94
 21
116
 72
    1
 10
94
 20
116
 11
104
 21
116
 72
    1
 10
104
 20
116
 11
104
 21
106
 72
    1
 10
104
 20
106
 11
94
 21
106
 72
    1
 10
94
 20
116
 11
94
 21
126
 72
    1
 10
94
 20
126
 11
104
 21
126
 72
    1
 10
104
 20
126
 11
104
 21
116
 72
    1
 10
104
 20
116
 11
94
 21
116
 72
    1
 10
94
 20
126
 11
94
 21
136
 72
    1
 10
94
 20
136
 11
104
 21
136
 72
    1
 10
104
 20
136
 11
104
 21
126
 72
    1
 10
104
 20
126
 11
94
 21
126
 72
    1
 10
94
 20
136
 11
94.00000000000001
 21
146
 72
    1
 10
94.00000000000001
 20
146
 11
104
 21
146
 72
    1
 10
104
 20
146
 11
104
 21
136
 72
    1
 10
104
 20
136
 11
94
 21
136
 72
    1
 10
94.00000000000001
 20
146
 11
94.00000000000001
 21
156
 72
    1
 10
94.00000000000001
 20
156
 11
104
 21
156
 72
    1
 10
104
 20
156
 11
104
 21
146
 72
    1
 10
104
 20
146
 11
94.00000000000001
 21
146
 72
    1
 10
94.00000000000001
 20
156
 11
94.00000000000001
 21
166
 72
    1
 10
94.00000000000001
 20
166
 11
104
 21
166
 72
    1
 10
104
 20
166
 11
104
 21
156
 72
    1
 10
104
 20
156
 11
94.00000000000001
 21
156
 72
    1
 10
94.00000000000001
 20
176
 11
94.00000000000001
 21
176
 72
    1
 10
94.00000000000001
 20
176
 11
104
 21
176
 72
    1
 10
104
 20
176
 11
104
 21
176
 72
    1
 10
104
 20
176
 11
94.00000000000001
 21
176
 72
    1
 10
94.00000000000001
 20
176
 11
94.00000000000001
 21
166
 72
    1
 10
94.00000000000001
 20
166
 11
104
 21
166
 72
    1
 10
104
 20
166
 11
104
 21
176
 72
    1
 10
104
 20
176
 11
94.00000000000001
 21
176
 72
    1
 10
94.00000000000001
 20
176
 11
94.00000000000001
 21
186
 72
    1
 10
94.00000000000001
 20
186
 11
104
 21
186
 72
    1
 10
104
 20
186
 11
104
 21
176
 72
    1
 10
104
 20
176
 11
94.00000000000001
 21
176
 72
    1
 10
94.00000000000001
 20
186
 11
94.00000000000001
 21
196
 72
    1
 10
94.00000000000001
 20
196
 11
104
 21
196
 72
    1
 10
104
 20
196
 11
104
 21
186
 72
    1
 10
104
 20
186
 11
94.00000000000001
 21
186
 72
    1
 10
94.00000000000001
 20
196
 11
94.00000000000001
 21
206
 72
    1
 10
94.00000000000001
 20
206
 11
104
 21
206
 72
    1
 10
104
 20
206
 11
104
 21
196
 72
    1
 10
104
 20
196
 11
94.00000000000001
 21
196
 72
    1
 10
94.00000000000001
 20
206
 11
94.00000000000001
 21
216
 72
    1
 10
94.00000000000001
 20
216
 11
104
 21
216
 72
    1
 10
104
 20
216
 11
104
 21
206
 72
    1
 10
104
 20
206
 11
94.00000000000001
 21
206
 72
    1
 10
94.00000000000001
 20
216
 11
94.00000000000001
 21
226
 72
    1
 10
94.00000000000001
 20
226
 11
104
 21
226
 72
    1
 10
104
 20
226
 11
104
 21
216
 72
    1
 10
104
 20
216
 11
94.00000000000001
 21
216
 72
    1
 10
94.00000000000001
 20
226
 11
94.00000000000001
 21
236
 72
    1
 10
94.00000000000001
 20
236
 11
104
 21
236
 72
    1
 10
104
 20
236
 11
104
 21
226
 72
    1
 10
104
 20
226
 11
94.00000000000001
 21
226
 72
    1
 10
94.00000000000001
 20
236
 11
94.00000000000001
 21
246
 72
    1
 10
94.00000000000001
 20
246
 11
104
 21
246
 72
    1
 10
104
 20
246
 11
104
 21
236
 72
    1
 10
104
 20
236
 11
94.00000000000001
 21
236
 72
    1
 10
94.00000000000001
 20
246
 11
94.00000000000001
 21
256
 72
    1
 10
94.00000000000001
 20
256
 11
104
 21
256
 72
    1
 10
104
 20
256
 11
104
 21
246
 72
    1
 10
104
 20
246
 11
94.00000000000001
 21
246
 72
    1
 10
94.00000000000001
 20
256
 11
94.00000000000001
 21
266
 72
    1
 10
94.00000000000001
 20
266
 11
104
 21
266
 72
    1
 10
104
 20
266
 11
104
 21
256
 72
    1
 10
104
 20
256
 11
94.00000000000001
 21
256
 72
    1
 10
94.00000000000001
 20
276
 11
94.00000000000001
 21
276
 72
    1
 10
94.00000000000001
 20
276
 11
104
 21
276
 72
    1
 10
104
 20
276
 11
104
 21
276
 72
    1
 10
104
 20
276
 11
94.00000000000001
 21
276
 72
    1
 10
94.00000000000001
 20
276
 11
94.00000000000001
 21
266
 72
    1
 10
94.00000000000001
 20
266
 11
104
 21
266
 72
    1
 10
104
 20
266
 11
104
 21
276
 72
    1
 10
104
 20
276
 11
94.00000000000001
 21
276
 72
    1
 10
94.00000000000001
 20
276
 11
94.00000000000001
 21
286
 72
    1
 10
94.00000000000001
 20
286
 11
104
 21
286
 72
    1
 10
104
 20
286
 11
104
 21
276
 72
    1
 10
104
 20
276
 11
94.00000000000001
 21
276
 72
    1
 10
94.00000000000001
 20
286
 11
94.00000000000001
 21
296
 72
    1
 10
94.00000000000001
 20
296
 11
104
 21
296
 72
    1
 10
104
 20
296
 11
104
 21
286
 72
    1
 10
104
 20
286
 11
94.00000000000001
 21
286
 72
    1
 10
94.00000000000001
 20
296
 11
94.00000000000001
 21
306
 72
    1
 10
94.00000000000001
 20
306
 11
104
 21
306
 72
    1
 10
104
 20
306
 11
104
 21
296
 72
    1
 10
104
 20
296
 11
94.00000000000001
 21
296
 97
    0
 75
    0
 76
    1
 98
    0
  0
HATCH
  5
54
100
AcDbEntity
  8
road
  6
ByLayer
 62
  256
370
   -1
100
AcDbHatch
 10
0
 20
0
 30
0
210
0
220
0
230
1
  2
SOLID
 70
    1
 71
    0
 91
    1
 92
    0
 93
   80
 72
    1
 10
94
 20
16
 11
94
 21
26
 72
    1
 10
94
 20
26
 11
104
 21
26
 72
    1
 10
104
 20
26
 11
104
 21
16
 72
    1
 10
104
 20
16
 11
94
 21
16
 72
    1
 10
94
 20
16
 11
94
 21
26
 72
    1
 10
94
 20
26
 11
94
 21
36
 72
    1
 10
94
 20
36
 11
104
 21
36
 72
    1
 10
104
 20
36
 11
104
 21
26
 72
    1
 10
104
 20
26
 11
94
 21
26
 72
    1
 10
94
 20
26
 11
104
 21
26
 72
    1
 10
104
 20
26
 11
104
 21
16
 72
    1
 10
104
 20
16
 11
94
 21
16
 72
    1
 10
94
 20
36
 11
94
 21
46
 72
    1
 10
94
 20
46
 11
104
 21
46
 72
    1
 10
104
 20
46
 11
104
 21
36
 72
    1
 10
104
 20
36
 11
94
 21
36
 72
    1
 10
94
 20
36
 11
94
 21
26
 72
    1
 10
94
 20
26
 11
104
 21
26
 72
    1
 10
104
 20
26
 11
104
 21
36
 72
    1
 10
104
 20
36
 11
94
 21
36
 72
    1
 10
94
 20
36
 11
94
 21
46
 72
    1
 10
94
 20
46
 11
94
 21
56
 72
    1
 10
94
 20
56
 11
104
 21
56
 72
    1
 10
104
 20
56
 11
104
 21
46
 72
    1
 10
104
 20
46
 11
94
 21
46
 72
    1
 10
94
 20
46
 11
104
 21
46
 72
    1
 10
104
 20
46
 11
104
 21
36
 72
    1
 10
104
 20
36
 11
94
 21
36
 72
    1
 10
94
 20
56
 11
94
 21
66
 72
    1
 10
94
 20
66
 11
104
 21
66
 72
    1
 10
104
 20
66
 11
104
 21
56
 72
    1
 10
104
 20
56
 11
94
 21
56
 72
    1
 10
94
 20
56
 11
94
 21
46
 72
    1
 10
94
 20
46
 11
104
 21
46
 72
    1
 10
104
 20
46
 11
104
 21
56
 72
    1
 10
104
 20
56
 11
94
 21
56
 72
    1
 10
94
 20
56
 11
94
 21
66
 72
    1
 10
94
 20
66
 11
94
 21
76
 72
    1
 10
94
 20
76
 11
94
 21
76
 72
    1
 10
94
 20
76
 11
104
 21
76
 72
    1
 10
104
 20
76
 11
104
 21
76
 72
    1
 10
104
 20
76
 11
94
 21
76
 72
    1
 10
94
 20
76
 11
104
 21
76
 72
    1
 10
104
 20
76
 11
104
 21
66
 72
    1
 10
104
 20
66
 11
94
 21
66
 72
    1
 10
94
 20
66
 11
104
 21
66
 72
    1
 10
104
 20
66
 11
104
 21
56
 72
    1
 10
104
 20
56
 11
94
 21
56
 72
    1
 10
94
 20
76
 11
94
 21
86
 72
    1
 10
94
 20
86
 11
104
 21
86
 72
    1
 10
104
 20
86
 11
104
 21
76
 72
    1
 10
104
 20
76
 11
94
 21
76
 72
    1
 10
94
 20
76
 11
94
 21
76
 72
    1
 10
94
 20
76
 11
104
 21
76
 72
    1
 10
104
 20
76
 11
104
 21
76
 72
    1
 10
104
 20
76
 11
94
 21
76
 72
    1
 10
94
 20
76
 11
94
 21
66
 72
    1
 10
94
 20
66
 11
104
 21
66
 72
    1
 10
104
 20
66
 11
104
 21
76
 72
    1
 10
104
 20
76
 11
94
 21
76
 72
    1
 10
94
 20
76
 11
94
 21
86
 72
    1
 10
94
 20
86
 11
94
 21
96
 72
    1
 10
94
 20
96
 11
104
 21
96
 72
    1
 10
104
 20
96
 11
104
 21
86
 72
    1
 10
104
 20
86
 11
94
 21
86
 72
    1
 10
94
 20
86
 11
104
 21
86
 72
    1
 10
104
 20
86
 11
104
 21
76
 72
    1
 10
104
 20
76
 11
94
 21
76
 72
    1
 10
94
 20
96
 11
94
 21
106
 72
    1
 10
94
 20
106
 11
104
 21
106
 72
    1
 10
104
 20
106
 11
104
 21
96
 72
    1
 10
104
 20
96
 11
94
 21
96
 72
    1
 10
94
 20
96
 11
94
 21
86
 72
    1
 10
94
 20
86
 11
104
 21
86
 72
    1
 10
104
 20
86
 11
104
 21
96
 72
    1
 10
104
 20
96
 11
94
 21
96
 72
    1
 10
94
 20
96
 11
94
 21
106
 72
    1
 10
94
 20
106
 11
104
 21
106
 72
    1
 10
104
 20
106
 11
104
 21
96
 72
    1
 10
104
 20
96
 11
94
 21
96
 97
    0
 75
    0
 76
    1
 98
    0
  0
HATCH
  5
55
100
AcDbEntity
  8
road
  6
ByLayer
 62
  256
370
   -1
100
AcDbHatch
 10
0
 20
0
 30
0
210
0
220
0
230
1
  2
SOLID
 70
    1
 71
    0
 91
    1
 92
    0
 93
   80
 72
    1
 10
94
 20
16
 11
94
 21
26
 72
    1
 10
94
 20
26
 11
104
 21
26
 72
    1
 10
104
 20
26
 11
104
 21
16
 72
    1
 10
104
 20
16
 11
94
 21
16
 72
    1
 10
94
 20
16
 11
94
 21
26
 72
    1
 10
94
 20
26
 11
94
 21
36
 72
    1
 10
94
 20
36
 11
104
 21
36
 72
    1
 10
104
 20
36
 11
104
 21
26
 72
    1
 10
104
 20
26
 11
94
 21
26
 72
    1
 10
94
 20
26
 11
104
 21
26
 72
    1
 10
104
 20
26
 11
104
 21
16
 72
    1
 10
104
 20
16
 11
94
 21
16
 72
    1
 10
94
 20
36
 11
94
 21
46
 72
    1
 10
94
 20
46
 11
104
 21
46
 72
    1
 10
104
 20
46
 11
104
 21
36
 72
    1
 10
104
 20
36
 11
94
 21
36
 72
    1
 10
94
 20
36
 11
94
 21
26
 72
    1
 10
94
 20
26
 11
104
 21
26
 72
    1
 10
104
 20
26
 11
104
 21
36
 72
    1
 10
104
 20
36
 11
94
 21
36
 72
    1
 10
94
 20
36
 11
94
 21
46
 72
    1
 10
94
 20
46
 11
94
 21
56
 72
    1
 10
94
 20
56
 11
104
 21
56
 72
    1
 10
104
 20
56
 11
104
 21
46
 72
    1
 10
104
 20
46
 11
94
 21
46
 72
    1
 10
94
 20
46
 11
104
 21
46
 72
    1
 10
104
 20
46
 11
104
 21
36
 72
    1
 10
104
 20
36
 11
94
 21
36
 72
    1
 10
94
 20
56
 11
94
 21
66
 72
    1
 10
94
 20
66
 11
104
 21
66
 72
    1
 10
104
 20
66
 11
104
 21
56
 72
    1
 10
104
 20
56
 11
94
 21
56
 72
    1
 10
94
 20
56
 11
94
 21
46
 72
    1
 10
94
 20
46
 11
104
 21
46
 72
    1
 10
104
 20
46
 11
104
 21
56
 72
    1
 10
104
 20
56
 11
94
 21
56
 72
    1
 10
94
 20
56
 11
94
 21
66
 72
    1
 10
94
 20
66
 11
94
 21
76
 72
    1
 10
94
 20
76
 11
94
 21
76
 72
    1
 10
94
 20
76
 11
104
 21
76
 72
    1
 10
104
 20
76
 11
104
 21
76
 72
    1
 10
104
 20
76
 11
94
 21
76
 72
    1
 10
94
 20
76
 11
104
 21
76
 72
    1
 10
104
 20
76
 11
104
 21
66
 72
    1
 10
104
 20
66
 11
94
 21
66
 72
    1
 10
94
 20
66
 11
104
 21
66
 72
    1
 10
104
 20
66
 11
104
 21
56
 72
    1
 10
104
 20
56
 11
94
 21
56
 72
    1
 10
94
 20
76
 11
94
 21
86
 72
    1
 10
94
 20
86
 11
104
 21
86
 72
    1
 10
104
 20
86
 11
104
 21
76
 72
    1
 10
104
 20
76
 11
94
 21
76
 72
    1
 10
94
 20
76
 11
94
 21
76
 72
    1
 10
94
 20
76
 11
104
 21
76
 72
    1
 10
104
 20
76
 11
104
 21
76
 72
    1
 10
104
 20
76
 11
94
 21
76
 72
    1
 10
94
 20
76
 11
94
 21
66
 72
    1
 10
94
 20
66
 11
104
 21
66
 72
    1
 10
104
 20
66
 11
104
 21
76
 72
    1
 10
104
 20
76
 11
94
 21
76
 72
    1
 10
94
 20
76
 11
94
 21
86
 72
    1
 10
94
 20
86
 11
94
 21
96
 72
    1
 10
94
 20
96
 11
104
 21
96
 72
    1
 10
104
 20
96
 11
104
 21
86
 72
    1
 10
104
 20
86
 11
94
 21
86
 72
    1
 10
94
 20
86
 11
104
 21
86
 72
    1
 10
104
 20
86
 11
104
 21
76
 72
    1
 10
104
 20
76
 11
94
 21
76
 72
    1
 10
94
 20
96
 11
94
 21
106
 72
    1
 10
94
 20
106
 11
104
 21
106
 72
    1
 10
104
 20
106
 11
104
 21
96
 72
    1
 10
104
 20
96
 11
94
 21
96
 72
    1
 10
94
 20
96
 11
94
 21
86
 72
    1
 10
94
 20
86
 11
104
 21
86
 72
    1
 10
104
 20
86
 11
104
 21
96
 72
    1
 10
104
 20
96
 11
94
 21
96
 72
    1
 10
94
 20
96
 11
94
 21
106
 72
    1
 10
94
 20
106
 11
104
 21
106
 72
    1
 10
104
 20
106
 11
104
 21
96
 72
    1
 10
104
 20
96
 11
94
 21
96
 97
    0
 75
    0
 76
    1
 98
    0
  0
HATCH
  5
56
100
AcDbEntity
  8
road
  6
ByLayer
 62
  256
370
   -1
100
AcDbHatch
 10
0
 20
0
 30
0
210
0
220
0
230
1
  2
SOLID
 70
    1
 71
    0
 91
    1
 92
    0
 93
   32
 72
    1
 10
14
 20
16.00000000000001
 11
14
 21
26.00000000000001
 72
    1
 10
14
 20
26.00000000000001
 11
24
 21
26
 72
    1
 10
24
 20
26
 11
24
 21
16.00000000000001
 72
    1
 10
24
 20
16.00000000000001
 11
14
 21
16.00000000000001
 72
    1
 10
14
 20
26.00000000000001
 11
14
 21
36.00000000000001
 72
    1
 10
14
 20
36.00000000000001
 11
24
 21
36
 72
    1
 10
24
 20
36
 11
24
 21
26
 72
    1
 10
24
 20
26
 11
14
 21
26.00000000000001
 72
    1
 10
14
 20
36.00000000000001
 11
14
 21
46.00000000000001
 72
    1
 10
14
 20
46.00000000000001
 11
24
 21
46.00000000000001
 72
    1
 10
24
 20
46.00000000000001
 11
24
 21
36
 72
    1
 10
24
 20
36
 11
14
 21
36.00000000000001
 72
    1
 10
24
 20
36
 11
24
 21
46.00000000000001
 72
    1
 10
24
 20
46.00000000000001
 11
34
 21
46.00000000000001
 72
    1
 10
34
 20
46.00000000000001
 11
34
 21
36
 72
    1
 10
34
 20
36
 11
24
 21
36
 72
    1
 10
34
 20
36
 11
34
 21
46.00000000000001
 72
    1
 10
34
 20
46.00000000000001
 11
44
 21
46.00000000000001
 72
    1
 10
44
 20
46.00000000000001
 11
44
 21
36
 72
    1
 10
44
 20
36
 11
34
 21
36
 72
    1
 10
44
 20
36
 11
44
 21
46.00000000000001
 72
    1
 10
44
 20
46.00000000000001
 11
54
 21
46
 72
    1
 10
54
 20
46
 11
54
 21
36
 72
    1
 10
54
 20
36
 11
44
 21
36
 72
    1
 10
54
 20
36
 11
54
 21
46
 72
    1
 10
54
 20
46
 11
64
 21
46
 72
    1
 10
64
 20
46
 11
64
 21
36
 72
    1
 10
64
 20
36
 11
54
 21
36
 72
    1
 10
64
 20
36
 11
64
 21
46
 72
    1
 10
64
 20
46
 11
74
 21
46
 72
    1
 10
74
 20
46
 11
74
 21
36
 72
    1
 10
74
 20
36
 11
64
 21
36
 97
    0
 75
    0
 76
    1
 98
    0
  0
HATCH
  5
57
100
AcDbEntity
  8
road
  6
ByLayer
 62
  256
370
   -1
100
AcDbHatch
 10
0
 20
0
 30
0
210
0
220
0
230
1
  2
SOLID
 70
    1
 71
    0
 91
    1
 92
    0
 93
   24
 72
    1
 10
64
 20
46
 11
64
 21
56
 72
    1
 10
64
 20
56
 11
74
 21
56
 72
    1
 10
74
 20
56
 11
74
 21
46
 72
    1
 10
74
 20
46
 11
64
 21
46
 72
    1
 10
64
 20
56
 11
64
 21
66
 72
    1
 10
64
 20
66
 11
74
 21
66
 72
    1
 10
74
 20
66
 11
74
 21
56
 72
    1
 10
74
 20
56
 11
64
 21
56
 72
    1
 10
64
 20
66
 11
64
 21
76
 72
    1
 10
64
 20
76
 11
74
 21
76
 72
    1
 10
74
 20
76
 11
74
 21
66
 72
    1
 10
74
 20
66
 11
64
 21
66
 72
    1
 10
74
 20
76
 11
74
 21
86
 72
    1
 10
74
 20
86
 11
64
 21
86
 72
    1
 10
64
 20
86
 11
64
 21
76
 72
    1
 10
64
 20
76
 11
74
 21
76
 72
    1
 10
74
 20
76
 11
74
 21
86
 72
    1
 10
74
 20
86
 11
84
 21
86
 72
    1
 10
84
 20
86
 11
84
 21
76
 72
    1
 10
84
 20
76
 11
74
 21
76
 72
    1
 10
94
 20
76
 11
94
 21
86
 72
    1
 10
94
 20
86
 11
84
 21
86
 72
    1
 10
84
 20
86
 11
84
 21
76
 72
    1
 10
84
 20
76
 11
94
 21
76
 97
    0
 75
    0
 76
    1
 98
    0
  0
HATCH
  5
58
100
AcDbEntity
  8
road
  6
ByLayer
 62
  256
370
   -1
100
AcDbHatch
 10
0
 20
0
 30
0
210
0
220
0
230
1
  2
SOLID
 70
    1
 71
    0
 91
    1
 92
    0
 93
    4
 72
    1
 10
4
 20
36.00000000000001
 11
4
 21
46.00000000000001
 72
    1
 10
4
 20
46.00000000000001
 11
14
 21
46.00000000000001
 72
    1
 10
14
 20
46.00000000000001
 11
14
 21
36.00000000000001
 72
    1
 10
14
 20
36.00000000000001
 11
4
 21
36.00000000000001
 97
    0
 75
    0
 76
    1
 98
    0
  0
HATCH
  5
59
100
AcDbEntity
  8
road
  6
ByLayer
 62
  256
370
   -1
100
AcDbHatch
 10
0
 20
0
 30
0
210
0
220
0
230
1
  2
SOLID
 70
    1
 71
    0
 91
    1
 92
    0
 93
   20
 72
    1
 10
64
 20
86
 11
64
 21
96
 72
    1
 10
64
 20
96
 11
74
 21
96
 72
    1
 10
74
 20
96
 11
74
 21
86
 72
    1
 10
74
 20
86
 11
64
 21
86
 72
    1
 10
64
 20
96
 11
64
 21
106
 72
    1
 10
64
 20
106
 11
74
 21
106
 72
    1
 10
74
 20
106
 11
74
 21
96
 72
    1
 10
74
 20
96
 11
64
 21
96
 72
    1
 10
64
 20
106
 11
64
 21
116
 72
    1
 10
64
 20
116
 11
74
 21
116
 72
    1
 10
74
 20
116
 11
74
 21
106
 72
    1
 10
74
 20
106
 11
64
 21
106
 72
    1
 10
74
 20
106
 11
74
 21
116
 72
    1
 10
74
 20
116
 11
84
 21
116
 72
    1
 10
84
 20
116
 11
84
 21
106
 72
    1
 10
84
 20
106
 11
74
 21
106
 72
    1
 10
84
 20
106
 11
84
 21
116
 72
    1
 10
84
 20
116
 11
94
 21
116
 72
    1
 10
94
 20
116
 11
94
 21
106
 72
    1
 10
94
 20
106
 11
84
 21
106
 97
    0
 75
    0
 76
    1
 98
    0
  0
HATCH
  5
5A
100
AcDbEntity
  8
road
  6
ByLayer
 62
  256
370
   -1
100
AcDbHatch
 10
0
 20
0
 30
0
210
0
220
0
230
1
  2
SOLID
 70
    1
 71
    0
 91
    1
 92
    0
 93
   24
 72
    1
 10
14
 20
76
 11
14
 21
86
 72
    1
 10
14
 20
86
 11
4
 21
86
 72
    1
 10
4
 20
86
 11
4
 21
76
 72
    1
 10
4
 20
76
 11
14
 21
76
 72
    1
 10
14
 20
76
 11
14
 21
86
 72
    1
 10
14
 20
86
 11
24
 21
86
 72
    1
 10
24
 20
86
 11
24
 21
76
 72
    1
 10
24
 20
76
 11
14
 21
76
 72
    1
 10
34
 20
76
 11
34
 21
86
 72
    1
 10
34
 20
86
 11
24
 21
86
 72
    1
 10
24
 20
86
 11
24
 21
76
 72
    1
 10
24
 20
76
 11
34
 21
76
 72
    1
 10
34
 20
76
 11
34
 21
86
 72
    1
 10
34
 20
86
 11
44.00000000000001
 21
86
 72
    1
 10
44.00000000000001
 20
86
 11
44.00000000000001
 21
76
 72
    1
 10
44.00000000000001
 20
76
 11
34
 21
76
 72
    1
 10
54.00000000000001
 20
76
 11
54.00000000000001
 21
86
 72
    1
 10
54.00000000000001
 20
86
 11
44.00000000000001
 21
86
 72
    1
 10
44.00000000000001
 20
86
 11
44.00000000000001
 21
76
 72
    1
 10
44.00000000000001
 20
76
 11
54.00000000000001
 21
76
 72
    1
 10
54.00000000000001
 20
76
 11
54.00000000000001
 21
86
 72
    1
 10
54.00000000000001
 20
86
 11
64
 21
86
 72
    1
 10
64
 20
86
 11
64
 21
76
 72
    1
 10
64
 20
76
 11
54.00000000000001
 21
76
 97
    0
 75
    0
 76
    1
 98
    0
  0
HATCH
  5
5B
100
AcDbEntity
  8
road
  6
ByLayer
 62
  256
370
   -1
100
AcDbHatch
 10
0
 20
0
 30
0
210
0
220
0
230
1
  2
SOLID
 70
    1
 71
    0
 91
    1
 92
    0
 93
   12
 72
    1
 10
14
 20
46.00000000000001
 11
14
 21
56.00000000000001
 72
    1
 10
14
 20
56.00000000000001
 11
24
 21
56.00000000000001
 72
    1
 10
24
 20
56.00000000000001
 11
24
 21
46.00000000000001
 72
    1
 10
24
 20
46.00000000000001
 11
14
 21
46.00000000000001
 72
    1
 10
14
 20
56.00000000000001
 11
14
 21
66
 72
    1
 10
14
 20
66
 11
24
 21
66
 72
    1
 10
24
 20
66
 11
24
 21
56.00000000000001
 72
    1
 10
24
 20
56.00000000000001
 11
14
 21
56.00000000000001
 72
    1
 10
14
 20
66
 11
14
 21
76
 72
    1
 10
14
 20
76
 11
24
 21
76
 72
    1
 10
24
 20
76
 11
24
 21
66
 72
    1
 10
24
 20
66
 11
14
 21
66
 97
    0
 75
    0
 76
    1
 98
    0
  0
HATCH
  5
5C
100
AcDbEntity
  8
road
  6
ByLayer
 62
  256
370
   -1
100
AcDbHatch
 10
0
 20
0
 30
0
210
0
220
0
230
1
  2
SOLID
 70
    1
 71
    0
 91
    1
 92
    0
 93
   56
 72
    1
 10
14
 20
86
 11
14
 21
96
 72
    1
 10
14
 20
96
 11
24
 21
96
 72
    1
 10
24
 20
96
 11
24
 21
86
 72
    1
 10
24
 20
86
 11
14
 21
86
 72
    1
 10
14
 20
96
 11
14
 21
106
 72
    1
 10
14
 20
106
 11
24
 21
106
 72
    1
 10
24
 20
106
 11
24
 21
96
 72
    1
 10
24
 20
96
 11
14
 21
96
 72
    1
 10
14
 20
106
 11
14
 21
116
 72
    1
 10
14
 20
116
 11
24
 21
116
 72
    1
 10
24
 20
116
 11
24
 21
106
 72
    1
 10
24
 20
106
 11
14
 21
106
 72
    1
 10
14
 20
116
 11
14.00000000000001
 21
126
 72
    1
 10
14.00000000000001
 20
126
 11
24.00000000000001
 21
126
 72
    1
 10
24.00000000000001
 20
126
 11
24
 21
116
 72
    1
 10
24
 20
116
 11
14
 21
116
 72
    1
 10
14.00000000000001
 20
126
 11
14.00000000000001
 21
136
 72
    1
 10
14.00000000000001
 20
136
 11
24.00000000000001
 21
136
 72
    1
 10
24.00000000000001
 20
136
 11
24.00000000000001
 21
126
 72
    1
 10
24.00000000000001
 20
126
 11
14.00000000000001
 21
126
 72
    1
 10
24.00000000000001
 20
126
 11
24.00000000000001
 21
136
 72
    1
 10
24.00000000000001
 20
136
 11
34.00000000000001
 21
136
 72
    1
 10
34.00000000000001
 20
136
 11
34.00000000000001
 21
126
 72
    1
 10
34.00000000000001
 20
126
 11
24.00000000000001
 21
126
 72
    1
 10
34.00000000000001
 20
126
 11
34.00000000000001
 21
136
 72
    1
 10
34.00000000000001
 20
136
 11
44.00000000000001
 21
136
 72
    1
 10
44.00000000000001
 20
136
 11
44.00000000000001
 21
126
 72
    1
 10
44.00000000000001
 20
126
 11
34.00000000000001
 21
126
 72
    1
 10
34.00000000000001
 20
136
 11
34.00000000000001
 21
146
 72
    1
 10
34.00000000000001
 20
146
 11
44.00000000000001
 21
146
 72
    1
 10
44.00000000000001
 20
146
 11
44.00000000000001
 21
136
 72
    1
 10
44.00000000000001
 20
136
 11
34.00000000000001
 21
136
 72
    1
 10
34.00000000000001
 20
146
 11
34.00000000000001
 21
156
 72
    1
 10
34.00000000000001
 20
156
 11
44.00000000000001
 21
156
 72
    1
 10
44.00000000000001
 20
156
 11
44.00000000000001
 21
146
 72
    1
 10
44.00000000000001
 20
146
 11
34.00000000000001
 21
146
 72
    1
 10
34.00000000000001
 20
156
 11
34.00000000000001
 21
166
 72
    1
 10
34.00000000000001
 20
166
 11
44.00000000000001
 21
166
 72
    1
 10
44.00000000000001
 20
166
 11
44.00000000000001
 21
156
 72
    1
 10
44.00000000000001
 20
156
 11
34.00000000000001
 21
156
 72
    1
 10
34.00000000000001
 20
176
 11
34.00000000000001
 21
176
 72
    1
 10
34.00000000000001
 20
176
 11
44.00000000000001
 21
176
 72
    1
 10
44.00000000000001
 20
176
 11
44.00000000000001
 21
176
 72
    1
 10
44.00000000000001
 20
176
 11
34.00000000000001
 21
176
 72
    1
 10
34.00000000000001
 20
176
 11
34.00000000000001
 21
186
 72
    1
 10
34.00000000000001
 20
186
 11
44.00000000000001
 21
186
 72
    1
 10
44.00000000000001
 20
186
 11
44.00000000000001
 21
176
 72
    1
 10
44.00000000000001
 20
176
 11
34.00000000000001
 21
176
 72
    1
 10
34.00000000000001
 20
186
 11
34.00000000000001
 21
196
 72
    1
 10
34.00000000000001
 20
196
 11
44.00000000000001
 21
196
 72
    1
 10
44.00000000000001
 20
196
 11
44.00000000000001
 21
186
 72
    1
 10
44.00000000000001
 20
186
 11
34.00000000000001
 21
186
 72
    1
 10
34.00000000000001
 20
196
 11
34.00000000000001
 21
206
 72
    1
 10
34.00000000000001
 20
206
 11
44.00000000000001
 21
206
 72
    1
 10
44.00000000000001
 20
206
 11
44.00000000000001
 21
196
 72
    1
 10
44.00000000000001
 20
196
 11
34.00000000000001
 21
196
 97
    0
 75
    0
 76
    1
 98
    0
  0
HATCH
  5
5D
100
AcDbEntity
  8
road
  6
ByLayer
 62
  256
370
   -1
100
AcDbHatch
 10
0
 20
0
 30
0
210
0
220
0
230
1
  2
SOLID
 70
    1
 71
    0
 91
    1
 92
    0
 93
   36
 72
    1
 10
14.00000000000001
 20
136
 11
14.00000000000001
 21
146
 72
    1
 10
14.00000000000001
 20
146
 11
24.00000000000001
 21
146
 72
    1
 10
24.00000000000001
 20
146
 11
24.00000000000001
 21
136
 72
    1
 10
24.00000000000001
 20
136
 11
14.00000000000001
 21
136
 72
    1
 10
14.00000000000001
 20
146
 11
14.00000000000001
 21
156
 72
    1
 10
14.00000000000001
 20
156
 11
24.00000000000001
 21
156
 72
    1
 10
24.00000000000001
 20
156
 11
24.00000000000001
 21
146
 72
    1
 10
24.00000000000001
 20
146
 11
14.00000000000001
 21
146
 72
    1
 10
14.00000000000001
 20
156
 11
14.00000000000001
 21
166
 72
    1
 10
14.00000000000001
 20
166
 11
24.00000000000001
 21
166
 72
    1
 10
24.00000000000001
 20
166
 11
24.00000000000001
 21
156
 72
    1
 10
24.00000000000001
 20
156
 11
14.00000000000001
 21
156
 72
    1
 10
34.00000000000001
 20
156
 11
34.00000000000001
 21
166
 72
    1
 10
34.00000000000001
 20
166
 11
44.00000000000001
 21
166
 72
    1
 10
44.00000000000001
 20
166
 11
44.00000000000001
 21
156
 72
    1
 10
44.00000000000001
 20
156
 11
34.00000000000001
 21
156
 72
    1
 10
14.00000000000001
 20
166
 11
14.00000000000001
 21
176
 72
    1
 10
14.00000000000001
 20
176
 11
24.00000000000001
 21
176
 72
    1
 10
24.00000000000001
 20
176
 11
24.00000000000001
 21
166
 72
    1
 10
24.00000000000001
 20
166
 11
14.00000000000001
 21
166
 72
    1
 10
24.00000000000001
 20
176
 11
24.00000000000001
 21
186
 72
    1
 10
24.00000000000001
 20
186
 11
14.00000000000001
 21
186
 72
    1
 10
14.00000000000001
 20
186
 11
14.00000000000001
 21
176
 72
    1
 10
14.00000000000001
 20
176
 11
24.00000000000001
 21
176
 72
    1
 10
14.00000000000001
 20
186
 11
14.00000000000001
 21
196
 72
    1
 10
14.00000000000001
 20
196
 11
24.00000000000001
 21
196
 72
    1
 10
24.00000000000001
 20
196
 11
24.00000000000001
 21
186
 72
    1
 10
24.00000000000001
 20
186
 11
14.00000000000001
 21
186
 72
    1
 10
14.00000000000001
 20
196
 11
14.00000000000001
 21
206
 72
    1
 10
14.00000000000001
 20
206
 11
24.00000000000001
 21
206
 72
    1
 10
24.00000000000001
 20
206
 11
24.00000000000001
 21
196
 72
    1
 10
24.00000000000001
 20
196
 11
14.00000000000001
 21
196
 72
    1
 10
24.00000000000001
 20
196
 11
24.00000000000001
 21
206
 72
    1
 10
24.00000000000001
 20
206
 11
34.00000000000001
 21
206
 72
    1
 10
34.00000000000001
 20
206
 11
34.00000000000001
 21
196
 72
    1
 10
34.00000000000001
 20
196
 11
24.00000000000001
 21
196
 97
    0
 75
    0
 76
    1
 98
    0
  0
HATCH
  5
5E
100
AcDbEntity
  8
road
  6
ByLayer
 62
  256
370
   -1
100
AcDbHatch
 10
0
 20
0
 30
0
210
0
220
0
230
1
  2
SOLID
 70
    1
 71
    0
 91
    1
 92
    0
 93
    4
 72
    1
 10
44.00000000000001
 20
176
 11
44.00000000000001
 21
186
 72
    1
 10
44.00000000000001
 20
186
 11
34.00000000000001
 21
186
 72
    1
 10
34.00000000000001
 20
186
 11
34.00000000000001
 21
176
 72
    1
 10
34.00000000000001
 20
176
 11
44.00000000000001
 21
176
 97
    0
 75
    0
 76
    1
 98
    0
  0
HATCH
  5
5F
100
AcDbEntity
  8
road
  6
ByLayer
 62
  256
370
   -1
100
AcDbHatch
 10
0
 20
0
 30
0
210
0
220
0
230
1
  2
SOLID
 70
    1
 71
    0
 91
    1
 92
    0
 93
   20
 72
    1
 10
44.00000000000001
 20
196
 11
44.00000000000001
 21
206
 72
    1
 10
44.00000000000001
 20
206
 11
54.00000000000001
 21
206
 72
    1
 10
54.00000000000001
 20
206
 11
54.00000000000001
 21
196
 72
    1
 10
54.00000000000001
 20
196
 11
44.00000000000001
 21
196
 72
    1
 10
64
 20
196
 11
64
 21
206
 72
    1
 10
64
 20
206
 11
74.00000000000001
 21
206
 72
    1
 10
74.00000000000001
 20
206
 11
74.00000000000001
 21
196
 72
    1
 10
74.00000000000001
 20
196
 11
64
 21
196
 72
    1
 10
74.00000000000001
 20
196
 11
74.00000000000001
 21
206
 72
    1
 10
74.00000000000001
 20
206
 11
84.00000000000001
 21
206
 72
    1
 10
84.00000000000001
 20
206
 11
84.00000000000001
 21
196
 72
    1
 10
84.00000000000001
 20
196
 11
74.00000000000001
 21
196
 72
    1
 10
84.00000000000001
 20
196
 11
84.00000000000001
 21
206
 72
    1
 10
84.00000000000001
 20
206
 11
94.00000000000001
 21
206
 72
    1
 10
94.00000000000001
 20
206
 11
94.00000000000001
 21
196
 72
    1
 10
94.00000000000001
 20
196
 11
84.00000000000001
 21
196
 72
    1
 10
94.00000000000001
 20
196
 11
94.00000000000001
 21
206
 72
    1
 10
94.00000000000001
 20
206
 11
104
 21
206
 72
    1
 10
104
 20
206
 11
104
 21
196
 72
    1
 10
104
 20
196
 11
94.00000000000001
 21
196
 97
    0
 75
    0
 76
    1
 98
    0
  0
HATCH
  5
60
100
AcDbEntity
  8
road
  6
ByLayer
 62
  256
370
   -1
100
AcDbHatch
 10
0
 20
0
 30
0
210
0
220
0
230
1
  2
SOLID
 70
    1
 71
    0
 91
    1
 92
    0
 93
    4
 72
    1
 10
54.00917338392063
 20
196.0304473199933
 11
54.00917338392063
 21
205.9949062282973
 72
    1
 10
54.00917338392063
 20
205.9949062282973
 11
63.99469880154459
 21
205.9949062282973
 72
    1
 10
63.99469880154459
 20
205.9949062282973
 11
63.99469880154459
 21
196.0304473199933
 72
    1
 10
63.99469880154459
 20
196.0304473199933
 11
54.00917338392063
 21
196.0304473199933
 97
    0
 75
    0
 76
    1
 98
    0
  0
HATCH
  5
61
100
AcDbEntity
  8
road
  6
ByLayer
 62
  256
370
   -1
100
AcDbHatch
 10
0
 20
0
 30
0
210
0
220
0
230
1
  2
SOLID
 70
    1
 71
    0
 91
    1
 92
    0
 93
   32
 72
    1
 10
64
 20
206
 11
64
 21
216
 72
    1
 10
64
 20
216
 11
74.00000000000001
 21
216
 72
    1
 10
74.00000000000001
 20
216
 11
74.00000000000001
 21
206
 72
    1
 10
74.00000000000001
 20
206
 11
64
 21
206
 72
    1
 10
64
 20
216
 11
64
 21
226
 72
    1
 10
64
 20
226
 11
74.00000000000001
 21
226
 72
    1
 10
74.00000000000001
 20
226
 11
74.00000000000001
 21
216
 72
    1
 10
74.00000000000001
 20
216
 11
64
 21
216
 72
    1
 10
64
 20
226
 11
64
 21
236
 72
    1
 10
64
 20
236
 11
74.00000000000001
 21
236
 72
    1
 10
74.00000000000001
 20
236
 11
74.00000000000001
 21
226
 72
    1
 10
74.00000000000001
 20
226
 11
64
 21
226
 72
    1
 10
64
 20
236
 11
64
 21
246
 72
    1
 10
64
 20
246
 11
74.00000000000001
 21
246
 72
    1
 10
74.00000000000001
 20
246
 11
74.00000000000001
 21
236
 72
    1
 10
74.00000000000001
 20
236
 11
64
 21
236
 72
    1
 10
64
 20
246
 11
64
 21
256
 72
    1
 10
64
 20
256
 11
74.00000000000001
 21
256
 72
    1
 10
74.00000000000001
 20
256
 11
74.00000000000001
 21
246
 72
    1
 10
74.00000000000001
 20
246
 11
64
 21
246
 72
    1
 10
64
 20
256
 11
64
 21
266
 72
    1
 10
64
 20
266
 11
74.00000000000001
 21
266
 72
    1
 10
74.00000000000001
 20
266
 11
74.00000000000001
 21
256
 72
    1
 10
74.00000000000001
 20
256
 11
64
 21
256
 72
    1
 10
74.00000000000001
 20
256
 11
74.00000000000001
 21
266
 72
    1
 10
74.00000000000001
 20
266
 11
84.00000000000001
 21
266
 72
    1
 10
84.00000000000001
 20
266
 11
84.00000000000001
 21
256
 72
    1
 10
84.00000000000001
 20
256
 11
74.00000000000001
 21
256
 72
    1
 10
84.00000000000001
 20
256
 11
84.00000000000001
 21
266
 72
    1
 10
84.00000000000001
 20
266
 11
94.00000000000001
 21
266
 72
    1
 10
94.00000000000001
 20
266
 11
94.00000000000001
 21
256
 72
    1
 10
94.00000000000001
 20
256
 11
84.00000000000001
 21
256
 97
    0
 75
    0
 76
    1
 98
    0
  0
HATCH
  5
62
100
AcDbEntity
  8
road
  6
ByLayer
 62
  256
370
   -1
100
AcDbHatch
 10
0
 20
0
 30
0
210
0
220
0
230
1
  2
SOLID
 70
    1
 71
    0
 91
    1
 92
    0
 93
    4
 72
    1
 10
34.00000000000001
 20
176
 11
34.00000000000001
 21
176
 72
    1
 10
34.00000000000001
 20
176
 11
44.00000000000001
 21
176
 72
    1
 10
44.00000000000001
 20
176
 11
44.00000000000001
 21
176
 72
    1
 10
44.00000000000001
 20
176
 11
34.00000000000001
 21
176
 97
    0
 75
    0
 76
    1
 98
    0
  0
HATCH
  5
63
100
AcDbEntity
  8
road
  6
ByLayer
 62
  256
370
   -1
100
AcDbHatch
 10
0
 20
0
 30
0
210
0
220
0
230
1
  2
SOLID
 70
    1
 71
    0
 91
    1
 92
    0
 93
    8
 72
    1
 10
34.00000000000001
 20
176
 11
34.00000000000001
 21
176
 72
    1
 10
34.00000000000001
 20
176
 11
44.00000000000001
 21
176
 72
    1
 10
44.00000000000001
 20
176
 11
44.00000000000001
 21
176
 72
    1
 10
44.00000000000001
 20
176
 11
34.00000000000001
 21
176
 72
    1
 10
34.01833717065246
 20
165.9988255885316
 11
34.01833717065246
 21
175.9910403000137
 72
    1
 10
34.01833717065246
 20
175.9910403000137
 11
43.97372779233002
 21
175.9910403000137
 72
    1
 10
43.97372779233002
 20
175.9910403000137
 11
43.97372779233002
 21
165.9988255885316
 72
    1
 10
43.97372779233002
 20
165.9988255885316
 11
34.01833717065246
 21
165.9988255885316
 97
    0
 75
    0
 76
    1
 98
    0
  0
HATCH
  5
64
100
AcDbEntity
  8
road
  6
ByLayer
 62
  256
370
   -1
100
AcDbHatch
 10
0
 20
0
 30
0
210
0
220
0
230
1
  2
SOLID
 70
    1
 71
    0
 91
    1
 92
    0
 93
   40
 72
    1
 10
14.00000000000001
 20
206
 11
14.00000000000001
 21
216
 72
    1
 10
14.00000000000001
 20
216
 11
24.00000000000001
 21
216
 72
    1
 10
24.00000000000001
 20
216
 11
24.00000000000001
 21
206
 72
    1
 10
24.00000000000001
 20
206
 11
14.00000000000001
 21
206
 72
    1
 10
14.00000000000001
 20
216
 11
14.00000000000001
 21
226
 72
    1
 10
14.00000000000001
 20
226
 11
24.00000000000001
 21
226
 72
    1
 10
24.00000000000001
 20
226
 11
24.00000000000001
 21
216
 72
    1
 10
24.00000000000001
 20
216
 11
14.00000000000001
 21
216
 72
    1
 10
14.00000000000001
 20
226
 11
14.00000000000001
 21
236
 72
    1
 10
14.00000000000001
 20
236
 11
24.00000000000001
 21
236
 72
    1
 10
24.00000000000001
 20
236
 11
24.00000000000001
 21
226
 72
    1
 10
24.00000000000001
 20
226
 11
14.00000000000001
 21
226
 72
    1
 10
14.00000000000001
 20
236
 11
14.00000000000001
 21
246
 72
    1
 10
14.00000000000001
 20
246
 11
24.00000000000001
 21
246
 72
    1
 10
24.00000000000001
 20
246
 11
24.00000000000001
 21
236
 72
    1
 10
24.00000000000001
 20
236
 11
14.00000000000001
 21
236
 72
    1
 10
14.00000000000001
 20
246
 11
14.00000000000001
 21
256
 72
    1
 10
14.00000000000001
 20
256
 11
24.00000000000001
 21
256
 72
    1
 10
24.00000000000001
 20
256
 11
24.00000000000001
 21
246
 72
    1
 10
24.00000000000001
 20
246
 11
14.00000000000001
 21
246
 72
    1
 10
14.00000000000001
 20
256
 11
14.00000000000001
 21
266
 72
    1
 10
14.00000000000001
 20
266
 11
24.00000000000001
 21
266
 72
    1
 10
24.00000000000001
 20
266
 11
24.00000000000001
 21
256
 72
    1
 10
24.00000000000001
 20
256
 11
14.00000000000001
 21
256
 72
    1
 10
14.00000000000001
 20
266
 11
14.00000000000001
 21
276
 72
    1
 10
14.00000000000001
 20
276
 11
24.00000000000001
 21
276
 72
    1
 10
24.00000000000001
 20
276
 11
24.00000000000001
 21
266
 72
    1
 10
24.00000000000001
 20
266
 11
14.00000000000001
 21
266
 72
    1
 10
24.00000000000001
 20
276
 11
24.00000000000001
 21
286
 72
    1
 10
24.00000000000001
 20
286
 11
14.00000000000001
 21
286
 72
    1
 10
14.00000000000001
 20
286
 11
14.00000000000001
 21
276
 72
    1
 10
14.00000000000001
 20
276
 11
24.00000000000001
 21
276
 72
    1
 10
14.00000000000001
 20
286
 11
14.00000000000001
 21
296
 72
    1
 10
14.00000000000001
 20
296
 11
24.00000000000001
 21
296
 72
    1
 10
24.00000000000001
 20
296
 11
24.00000000000001
 21
286
 72
    1
 10
24.00000000000001
 20
286
 11
14.00000000000001
 21
286
 72
    1
 10
14.00000000000001
 20
296
 11
14.00000000000001
 21
306
 72
    1
 10
14.00000000000001
 20
306
 11
24.00000000000001
 21
306
 72
    1
 10
24.00000000000001
 20
306
 11
24.00000000000001
 21
296
 72
    1
 10
24.00000000000001
 20
296
 11
14.00000000000001
 21
296
 97
    0
 75
    0
 76
    1
 98
    0
  0
HATCH
  5
65
100
AcDbEntity
  8
road
  6
ByLayer
 62
  256
370
   -1
100
AcDbHatch
 10
0
 20
0
 30
0
210
0
220
0
230
1
  2
SOLID
 70
    1
 71
    0
 91
    1
 92
    0
 93
   36
 72
    1
 10
4.000000000000014
 20
296
 11
4.000000000000014
 21
306
 72
    1
 10
4.000000000000014
 20
306
 11
14.00000000000001
 21
306
 72
    1
 10
14.00000000000001
 20
306
 11
14.00000000000001
 21
296
 72
    1
 10
14.00000000000001
 20
296
 11
4.000000000000014
 21
296
 72
    1
 10
14.00000000000001
 20
296
 11
14.00000000000001
 21
306
 72
    1
 10
14.00000000000001
 20
306
 11
24.00000000000001
 21
306
 72
    1
 10
24.00000000000001
 20
306
 11
24.00000000000001
 21
296
 72
    1
 10
24.00000000000001
 20
296
 11
14.00000000000001
 21
296
 72
    1
 10
24.00000000000001
 20
296
 11
24.00000000000001
 21
306
 72
    1
 10
24.00000000000001
 20
306
 11
34.00000000000001
 21
306
 72
    1
 10
34.00000000000001
 20
306
 11
34.00000000000001
 21
296
 72
    1
 10
34.00000000000001
 20
296
 11
24.00000000000001
 21
296
 72
    1
 10
34.00000000000001
 20
296
 11
34.00000000000001
 21
306
 72
    1
 10
34.00000000000001
 20
306
 11
44.00000000000002
 21
306
 72
    1
 10
44.00000000000002
 20
306
 11
44.00000000000001
 21
296
 72
    1
 10
44.00000000000001
 20
296
 11
34.00000000000001
 21
296
 72
    1
 10
44.00000000000001
 20
296
 11
44.00000000000002
 21
306
 72
    1
 10
44.00000000000002
 20
306
 11
54.00000000000002
 21
306
 72
    1
 10
54.00000000000002
 20
306
 11
54.00000000000001
 21
296
 72
    1
 10
54.00000000000001
 20
296
 11
44.00000000000001
 21
296
 72
    1
 10
54.00000000000001
 20
296
 11
54.00000000000002
 21
306
 72
    1
 10
54.00000000000002
 20
306
 11
64.00000000000003
 21
306
 72
    1
 10
64.00000000000003
 20
306
 11
64
 21
296
 72
    1
 10
64
 20
296
 11
54.00000000000001
 21
296
 72
    1
 10
64
 20
296
 11
64.00000000000003
 21
306
 72
    1
 10
64.00000000000003
 20
306
 11
74.00000000000001
 21
306
 72
    1
 10
74.00000000000001
 20
306
 11
74.00000000000001
 21
296
 72
    1
 10
74.00000000000001
 20
296
 11
64
 21
296
 72
    1
 10
74.00000000000001
 20
296
 11
74.00000000000001
 21
306
 72
    1
 10
74.00000000000001
 20
306
 11
84.00000000000001
 21
306
 72
    1
 10
84.00000000000001
 20
306
 11
84.00000000000001
 21
296
 72
    1
 10
84.00000000000001
 20
296
 11
74.00000000000001
 21
296
 72
    1
 10
84.00000000000001
 20
296
 11
84.00000000000001
 21
306
 72
    1
 10
84.00000000000001
 20
306
 11
94.00000000000001
 21
306
 72
    1
 10
94.00000000000001
 20
306
 11
94.00000000000001
 21
296
 72
    1
 10
94.00000000000001
 20
296
 11
84.00000000000001
 21
296
 97
    0
 75
    0
 76
    1
 98
    0
  0
HATCH
  5
66
100
AcDbEntity
  8
road
  6
ByLayer
 62
  256
370
   -1
100
AcDbHatch
 10
0
 20
0
 30
0
210
0
220
0
230
1
  2
SOLID
 70
    1
 71
    0
 91
    1
 92
    0
 93
    4
 72
    1
 10
4.000000000000014
 20
256
 11
4.000000000000014
 21
266
 72
    1
 10
4.000000000000014
 20
266
 11
14.00000000000001
 21
266
 72
    1
 10
14.00000000000001
 20
266
 11
14.00000000000001
 21
256
 72
    1
 10
14.00000000000001
 20
256
 11
4.000000000000014
 21
256
 97
    0
 75
    0
 76
    1
 98
    0
  0
HATCH
  5
67
100
AcDbEntity
  8
road
  6
ByLayer
 62
  256
370
   -1
100
AcDbHatch
 10
0
 20
0
 30
0
210
0
220
0
230
1
  2
SOLID
 70
    1
 71
    0
 91
    1
 92
    0
 93
    4
 72
    1
 10
4.000000000000014
 20
126
 11
4.000000000000014
 21
136
 72
    1
 10
4.000000000000014
 20
136
 11
14.00000000000001
 21
136
 72
    1
 10
14.00000000000001
 20
136
 11
14.00000000000001
 21
126
 72
    1
 10
14.00000000000001
 20
126
 11
4.000000000000014
 21
126
 97
    0
 75
    0
 76
    1
 98
    0
  0
HATCH
  5
68
100
AcDbEntity
  8
road
  6
ByLayer
 62
  256
370
   -1
100
AcDbHatch
 10
0
 20
0
 30
0
210
0
220
0
230
1
  2
SOLID
 70
    1
 71
    0
 91
    1
 92
    0
 93
   36
 72
    1
 10
94
 20
16
 11
94
 21
26
 72
    1
 10
94
 20
26
 11
104
 21
26
 72
    1
 10
104
 20
26
 11
104
 21
16
 72
    1
 10
104
 20
16
 11
94
 21
16
 72
    1
 10
94
 20
26
 11
94
 21
36
 72
    1
 10
94
 20
36
 11
104
 21
36
 72
    1
 10
104
 20
36
 11
104
 21
26
 72
    1
 10
104
 20
26
 11
94
 21
26
 72
    1
 10
94
 20
36
 11
94
 21
46
 72
    1
 10
94
 20
46
 11
104
 21
46
 72
    1
 10
104
 20
46
 11
104
 21
36
 72
    1
 10
104
 20
36
 11
94
 21
36
 72
    1
 10
94
 20
46
 11
94
 21
56
 72
    1
 10
94
 20
56
 11
104
 21
56
 72
    1
 10
104
 20
56
 11
104
 21
46
 72
    1
 10
104
 20
46
 11
94
 21
46
 72
    1
 10
94
 20
56
 11
94
 21
66
 72
    1
 10
94
 20
66
 11
104
 21
66
 72
    1
 10
104
 20
66
 11
104
 21
56
 72
    1
 10
104
 20
56
 11
94
 21
56
 72
    1
 10
94
 20
66
 11
94
 21
76
 72
    1
 10
94
 20
76
 11
104
 21
76
 72
    1
 10
104
 20
76
 11
104
 21
66
 72
    1
 10
104
 20
66
 11
94
 21
66
 72
    1
 10
94
 20
76
 11
94
 21
86
 72
    1
 10
94
 20
86
 11
104
 21
86
 72
    1
 10
104
 20
86
 11
104
 21
76
 72
    1
 10
104
 20
76
 11
94
 21
76
 72
    1
 10
94
 20
86
 11
94
 21
96
 72
    1
 10
94
 20
96
 11
104
 21
96
 72
    1
 10
104
 20
96
 11
104
 21
86
 72
    1
 10
104
 20
86
 11
94
 21
86
 72
    1
 10
94
 20
96
 11
94
 21
106
 72
    1
 10
94
 20
106
 11
104
 21
106
 72
    1
 10
104
 20
106
 11
104
 21
96
 72
    1
 10
104
 20
96
 11
94
 21
96
 97
    0
 75
    0
 76
    1
 98
    0
  0
LWPOLYLINE
  5
69
100
AcDbEntity
  8
0
  6
ByLayer
 62
  256
370
   -1
100
AcDbPolyline
 90
    4
 70
    1
 43
0
 10
4
 20
6.000000000000006
 10
4
 20
16.00000000000001
 10
14
 20
16.00000000000001
 10
14
 20
6.000000000000005
  0
LWPOLYLINE
  5
6A
100
AcDbEntity
  8
0
  6
ByLayer
 62
  256
370
   -1
100
AcDbPolyline
 90
    4
 70
    1
 43
0
 10
14
 20
6.000000000000005
 10
14
 20
16.00000000000001
 10
24
 20
16.00000000000001
 10
24
 20
6.000000000000005
  0
LWPOLYLINE
  5
6B
100
AcDbEntity
  8
0
  6
ByLayer
 62
  256
370
   -1
100
AcDbPolyline
 90
    4
 70
    1
 43
0
 10
24
 20
6.000000000000005
 10
24
 20
16.00000000000001
 10
34
 20
16
 10
34
 20
6.000000000000004
  0
LWPOLYLINE
  5
6C
100
AcDbEntity
  8
0
  6
ByLayer
 62
  256
370
   -1
100
AcDbPolyline
 90
    4
 70
    1
 43
0
 10
34
 20
6.000000000000004
 10
34
 20
16
 10
44
 20
16
 10
44
 20
6.000000000000004
  0
LWPOLYLINE
  5
6D
100
AcDbEntity
  8
0
  6
ByLayer
 62
  256
370
   -1
100
AcDbPolyline
 90
    4
 70
    1
 43
0
 10
44
 20
6.000000000000004
 10
44
 20
16
 10
54
 20
16
 10
54
 20
6.000000000000003
  0
LWPOLYLINE
  5
6E
100
AcDbEntity
  8
0
  6
ByLayer
 62
  256
370
   -1
100
AcDbPolyline
 90
    4
 70
    1
 43
0
 10
54
 20
6.000000000000003
 10
54
 20
16
 10
64
 20
16
 10
64
 20
6.000000000000003
  0
LWPOLYLINE
  5
6F
100
AcDbEntity
  8
0
  6
ByLayer
 62
  256
370
   -1
100
AcDbPolyline
 90
    4
 70
    1
 43
0
 10
64
 20
6.000000000000003
 10
64
 20
16
 10
74
 20
16
 10
74
 20
6.000000000000002
  0
LWPOLYLINE
  5
70
100
AcDbEntity
  8
0
  6
ByLayer
 62
  256
370
   -1
100
AcDbPolyline
 90
    4
 70
    1
 43
0
 10
74
 20
6.000000000000002
 10
74
 20
16
 10
84
 20
16
 10
84
 20
6.000000000000001
  0
LWPOLYLINE
  5
71
100
AcDbEntity
  8
0
  6
ByLayer
 62
  256
370
   -1
100
AcDbPolyline
 90
    4
 70
    1
 43
0
 10
84
 20
6.000000000000001
 10
84
 20
16
 10
94
 20
16
 10
94
 20
6.000000000000001
  0
LWPOLYLINE
  5
72
100
AcDbEntity
  8
0
  6
ByLayer
 62
  256
370
   -1
100
AcDbPolyline
 90
    4
 70
    1
 43
0
 10
94
 20
6.000000000000001
 10
94
 20
16
 10
104
 20
16
 10
104
 20
6
  0
LWPOLYLINE
  5
73
100
AcDbEntity
  8
0
  6
ByLayer
 62
  256
370
   -1
100
AcDbPolyline
 90
    4
 70
    1
 43
0
 10
4
 20
16.00000000000001
 10
4
 20
26.00000000000001
 10
14
 20
26.00000000000001
 10
14
 20
16.00000000000001
  0
LWPOLYLINE
  5
74
100
AcDbEntity
  8
0
  6
ByLayer
 62
  256
370
   -1
100
AcDbPolyline
 90
    4
 70
    1
 43
0
 10
14
 20
16.00000000000001
 10
14
 20
26.00000000000001
 10
24
 20
26
 10
24
 20
16.00000000000001
  0
LWPOLYLINE
  5
75
100
AcDbEntity
  8
0
  6
ByLayer
 62
  256
370
   -1
100
AcDbPolyline
 90
    4
 70
    1
 43
0
 10
24
 20
16.00000000000001
 10
24
 20
26
 10
34
 20
26
 10
34
 20
16
  0
LWPOLYLINE
  5
76
100
AcDbEntity
  8
0
  6
ByLayer
 62
  256
370
   -1
100
AcDbPolyline
 90
    4
 70
    1
 43
0
 10
34
 20
16
 10
34
 20
26
 10
44
 20
26
 10
44
 20
16
  0
LWPOLYLINE
  5
77
100
AcDbEntity
  8
0
  6
ByLayer
 62
  256
370
   -1
100
AcDbPolyline
 90
    4
 70
    1
 43
0
 10
44
 20
16
 10
44
 20
26
 10
54
 20
26
 10
54
 20
16
  0
LWPOLYLINE
  5
78
100
AcDbEntity
  8
0
  6
ByLayer
 62
  256
370
   -1
100
AcDbPolyline
 90
    4
 70
    1
 43
0
 10
54
 20
16
 10
54
 20
26
 10
64
 20
26
 10
64
 20
16
  0
LWPOLYLINE
  5
79
100
AcDbEntity
  8
0
  6
ByLayer
 62
  256
370
   -1
100
AcDbPolyline
 90
    4
 70
    1
 43
0
 10
64
 20
16
 10
64
 20
26
 10
74
 20
26
 10
74
 20
16
  0
LWPOLYLINE
  5
7A
100
AcDbEntity
  8
0
  6
ByLayer
 62
  256
370
   -1
100
AcDbPolyline
 90
    4
 70
    1
 43
0
 10
74
 20
16
 10
74
 20
26
 10
84
 20
26
 10
84
 20
16
  0
LWPOLYLINE
  5
7B
100
AcDbEntity
  8
0
  6
ByLayer
 62
  256
370
   -1
100
AcDbPolyline
 90
    4
 70
    1
 43
0
 10
84
 20
16
 10
84
 20
26
 10
94
 20
26
 10
94
 20
16
  0
LWPOLYLINE
  5
7C
100
AcDbEntity
  8
0
  6
ByLayer
 62
  256
370
   -1
100
AcDbPolyline
 90
    4
 70
    1
 43
0
 10
4
 20
26.00000000000001
 10
4
 20
36.00000000000001
 10
14
 20
36.00000000000001
 10
14
 20
26.00000000000001
  0
LWPOLYLINE
  5
7D
100
AcDbEntity
  8
0
  6
ByLayer
 62
  256
370
   -1
100
AcDbPolyline
 90
    4
 70
    1
 43
0
 10
14
 20
26.00000000000001
 10
14
 20
36.00000000000001
 10
24
 20
36
 10
24
 20
26
  0
LWPOLYLINE
  5
7E
100
AcDbEntity
  8
0
  6
ByLayer
 62
  256
370
   -1
100
AcDbPolyline
 90
    4
 70
    1
 43
0
 10
24
 20
26
 10
24
 20
36
 10
34
 20
36
 10
34
 20
26
  0
LWPOLYLINE
  5
7F
100
AcDbEntity
  8
0
  6
ByLayer
 62
  256
370
   -1
100
AcDbPolyline
 90
    4
 70
    1
 43
0
 10
34
 20
26
 10
34
 20
36
 10
44
 20
36
 10
44
 20
26
  0
LWPOLYLINE
  5
80
100
AcDbEntity
  8
0
  6
ByLayer
 62
  256
370
   -1
100
AcDbPolyline
 90
    4
 70
    1
 43
0
 10
44
 20
26
 10
44
 20
36
 10
54
 20
36
 10
54
 20
26
  0
LWPOLYLINE
  5
81
100
AcDbEntity
  8
0
  6
ByLayer
 62
  256
370
   -1
100
AcDbPolyline
 90
    4
 70
    1
 43
0
 10
54
 20
26
 10
54
 20
36
 10
64
 20
36
 10
64
 20
26
  0
LWPOLYLINE
  5
82
100
AcDbEntity
  8
0
  6
ByLayer
 62
  256
370
   -1
100
AcDbPolyline
 90
    4
 70
    1
 43
0
 10
64
 20
26
 10
64
 20
36
 10
74
 20
36
 10
74
 20
26
  0
LWPOLYLINE
  5
83
100
AcDbEntity
  8
0
  6
ByLayer
 62
  256
370
   -1
100
AcDbPolyline
 90
    4
 70
    1
 43
0
 10
74
 20
26
 10
74
 20
36
 10
84
 20
36
 10
84
 20
26
  0
LWPOLYLINE
  5
84
100
AcDbEntity
  8
0
  6
ByLayer
 62
  256
370
   -1
100
AcDbPolyline
 90
    4
 70
    1
 43
0
 10
84
 20
26
 10
84
 20
36
 10
94
 20
36
 10
94
 20
26
  0
LWPOLYLINE
  5
85
100
AcDbEntity
  8
0
  6
ByLayer
 62
  256
370
   -1
100
AcDbPolyline
 90
    4
 70
    1
 43
0
 10
4
 20
36.00000000000001
 10
4
 20
46.00000000000001
 10
14
 20
46.00000000000001
 10
14
 20
36.00000000000001
  0
LWPOLYLINE
  5
86
100
AcDbEntity
  8
0
  6
ByLayer
 62
  256
370
   -1
100
AcDbPolyline
 90
    4
 70
    1
 43
0
 10
14
 20
36.00000000000001
 10
14
 20
46.00000000000001
 10
24
 20
46.00000000000001
 10
24
 20
36
  0
LWPOLYLINE
  5
87
100
AcDbEntity
  8
0
  6
ByLayer
 62
  256
370
   -1
100
AcDbPolyline
 90
    4
 70
    1
 43
0
 10
24
 20
36
 10
24
 20
46.00000000000001
 10
34
 20
46.00000000000001
 10
34
 20
36
  0
LWPOLYLINE
  5
88
100
AcDbEntity
  8
0
  6
ByLayer
 62
  256
370
   -1
100
AcDbPolyline
 90
    4
 70
    1
 43
0
 10
34
 20
36
 10
34
 20
46.00000000000001
 10
44
 20
46.00000000000001
 10
44
 20
36
  0
LWPOLYLINE
  5
89
100
AcDbEntity
  8
0
  6
ByLayer
 62
  256
370
   -1
100
AcDbPolyline
 90
    4
 70
    1
 43
0
 10
44
 20
36
 10
44
 20
46.00000000000001
 10
54
 20
46
 10
54
 20
36
  0
LWPOLYLINE
  5
8A
100
AcDbEntity
  8
0
  6
ByLayer
 62
  256
370
   -1
100
AcDbPolyline
 90
    4
 70
    1
 43
0
 10
54
 20
36
 10
54
 20
46
 10
64
 20
46
 10
64
 20
36
  0
LWPOLYLINE
  5
8B
100
AcDbEntity
  8
0
  6
ByLayer
 62
  256
370
   -1
100
AcDbPolyline
 90
    4
 70
    1
 43
0
 10
64
 20
36
 10
64
 20
46
 10
74
 20
46
 10
74
 20
36
  0
LWPOLYLINE
  5
8C
100
AcDbEntity
  8
0
  6
ByLayer
 62
  256
370
   -1
100
AcDbPolyline
 90
    4
 70
    1
 43
0
 10
74
 20
36
 10
74
 20
46
 10
84
 20
46
 10
84
 20
36
  0
LWPOLYLINE
  5
8D
100
AcDbEntity
  8
0
  6
ByLayer
 62
  256
370
   -1
100
AcDbPolyline
 90
    4
 70
    1
 43
0
 10
84
 20
36
 10
84
 20
46
 10
94
 20
46
 10
94
 20
36
  0
LWPOLYLINE
  5
8E
100
AcDbEntity
  8
0
  6
ByLayer
 62
  256
370
   -1
100
AcDbPolyline
 90
    4
 70
    1
 43
0
 10
4
 20
46.00000000000001
 10
4
 20
56.00000000000001
 10
14
 20
56.00000000000001
 10
14
 20
46.00000000000001
  0
LWPOLYLINE
  5
8F
100
AcDbEntity
  8
0
  6
ByLayer
 62
  256
370
   -1
100
AcDbPolyline
 90
    4
 70
    1
 43
0
 10
14
 20
46.00000000000001
 10
14
 20
56.00000000000001
 10
24
 20
56.00000000000001
 10
24
 20
46.00000000000001
  0
LWPOLYLINE
  5
90
100
AcDbEntity
  8
0
  6
ByLayer
 62
  256
370
   -1
100
AcDbPolyline
 90
    4
 70
    1
 43
0
 10
34
 20
46.00000000000001
 10
34
 20
56.00000000000001
 10
24
 20
56.00000000000001
 10
24
 20
46.00000000000001
  0
LWPOLYLINE
  5
91
100
AcDbEntity
  8
0
  6
ByLayer
 62
  256
370
   -1
100
AcDbPolyline
 90
    4
 70
    1
 43
0
 10
34
 20
46.00000000000001
 10
34
 20
56.00000000000001
 10
44
 20
56.00000000000001
 10
44
 20
46.00000000000001
  0
LWPOLYLINE
  5
92
100
AcDbEntity
  8
0
  6
ByLayer
 62
  256
370
   -1
100
AcDbPolyline
 90
    4
 70
    1
 43
0
 10
44
 20
46.00000000000001
 10
44
 20
56.00000000000001
 10
54
 20
56
 10
54
 20
46
  0
LWPOLYLINE
  5
93
100
AcDbEntity
  8
0
  6
ByLayer
 62
  256
370
   -1
100
AcDbPolyline
 90
    4
 70
    1
 43
0
 10
54
 20
46
 10
54
 20
56
 10
64
 20
56
 10
64
 20
46
  0
LWPOLYLINE
  5
94
100
AcDbEntity
  8
0
  6
ByLayer
 62
  256
370
   -1
100
AcDbPolyline
 90
    4
 70
    1
 43
0
 10
64
 20
46
 10
64
 20
56
 10
74
 20
56
 10
74
 20
46
  0
LWPOLYLINE
  5
95
100
AcDbEntity
  8
0
  6
ByLayer
 62
  256
370
   -1
100
AcDbPolyline
 90
    4
 70
    1
 43
0
 10
74
 20
46
 10
74
 20
56
 10
84
 20
56
 10
84
 20
46
  0
LWPOLYLINE
  5
96
100
AcDbEntity
  8
0
  6
ByLayer
 62
  256
370
   -1
100
AcDbPolyline
 90
    4
 70
    1
 43
0
 10
84
 20
46
 10
84
 20
56
 10
94
 20
56
 10
94
 20
46
  0
LWPOLYLINE
  5
97
100
AcDbEntity
  8
0
  6
ByLayer
 62
  256
370
   -1
100
AcDbPolyline
 90
    4
 70
    1
 43
0
 10
4
 20
56.00000000000001
 10
4
 20
66
 10
14
 20
66
 10
14
 20
56.00000000000001
  0
LWPOLYLINE
  5
98
100
AcDbEntity
  8
0
  6
ByLayer
 62
  256
370
   -1
100
AcDbPolyline
 90
    4
 70
    1
 43
0
 10
14
 20
56.00000000000001
 10
14
 20
66
 10
24
 20
66
 10
24
 20
56.00000000000001
  0
LWPOLYLINE
  5
99
100
AcDbEntity
  8
0
  6
ByLayer
 62
  256
370
   -1
100
AcDbPolyline
 90
    4
 70
    1
 43
0
 10
24
 20
56.00000000000001
 10
24
 20
66
 10
34
 20
66
 10
34
 20
56.00000000000001
  0
LWPOLYLINE
  5
9A
100
AcDbEntity
  8
0
  6
ByLayer
 62
  256
370
   -1
100
AcDbPolyline
 90
    4
 70
    1
 43
0
 10
34
 20
56.00000000000001
 10
34
 20
66
 10
44.00000000000001
 20
66
 10
44
 20
56.00000000000001
  0
LWPOLYLINE
  5
9B
100
AcDbEntity
  8
0
  6
ByLayer
 62
  256
370
   -1
100
AcDbPolyline
 90
    4
 70
    1
 43
0
 10
44
 20
56.00000000000001
 10
44.00000000000001
 20
66
 10
54.00000000000001
 20
66
 10
54
 20
56
  0
LWPOLYLINE
  5
9C
100
AcDbEntity
  8
0
  6
ByLayer
 62
  256
370
   -1
100
AcDbPolyline
 90
    4
 70
    1
 43
0
 10
54
 20
56
 10
54.00000000000001
 20
66
 10
64
 20
66
 10
64
 20
56
  0
LWPOLYLINE
  5
9D
100
AcDbEntity
  8
0
  6
ByLayer
 62
  256
370
   -1
100
AcDbPolyline
 90
    4
 70
    1
 43
0
 10
64
 20
56
 10
64
 20
66
 10
74
 20
66
 10
74
 20
56
  0
LWPOLYLINE
  5
9E
100
AcDbEntity
  8
0
  6
ByLayer
 62
  256
370
   -1
100
AcDbPolyline
 90
    4
 70
    1
 43
0
 10
74
 20
56
 10
74
 20
66
 10
84
 20
66
 10
84
 20
56
  0
LWPOLYLINE
  5
9F
100
AcDbEntity
  8
0
  6
ByLayer
 62
  256
370
   -1
100
AcDbPolyline
 90
    4
 70
    1
 43
0
 10
84
 20
56
 10
84
 20
66
 10
94
 20
66
 10
94
 20
56
  0
LWPOLYLINE
  5
A0
100
AcDbEntity
  8
0
  6
ByLayer
 62
  256
370
   -1
100
AcDbPolyline
 90
    4
 70
    1
 43
0
 10
4
 20
66
 10
4
 20
76
 10
14
 20
76
 10
14
 20
66
  0
LWPOLYLINE
  5
A1
100
AcDbEntity
  8
0
  6
ByLayer
 62
  256
370
   -1
100
AcDbPolyline
 90
    4
 70
    1
 43
0
 10
14
 20
66
 10
14
 20
76
 10
24
 20
76
 10
24
 20
66
  0
LWPOLYLINE
  5
A2
100
AcDbEntity
  8
0
  6
ByLayer
 62
  256
370
   -1
100
AcDbPolyline
 90
    4
 70
    1
 43
0
 10
24
 20
66
 10
24
 20
76
 10
34
 20
76
 10
34
 20
66
  0
LWPOLYLINE
  5
A3
100
AcDbEntity
  8
0
  6
ByLayer
 62
  256
370
   -1
100
AcDbPolyline
 90
    4
 70
    1
 43
0
 10
34
 20
76
 10
34
 20
76
 10
44.00000000000001
 20
76
 10
44.00000000000001
 20
76
  0
LWPOLYLINE
  5
A4
100
AcDbEntity
  8
0
  6
ByLayer
 62
  256
370
   -1
100
AcDbPolyline
 90
    4
 70
    1
 43
0
 10
44.00000000000001
 20
66
 10
44.00000000000001
 20
76
 10
54.00000000000001
 20
76
 10
54.00000000000001
 20
66
  0
LWPOLYLINE
  5
A5
100
AcDbEntity
  8
0
  6
ByLayer
 62
  256
370
   -1
100
AcDbPolyline
 90
    4
 70
    1
 43
0
 10
54.00000000000001
 20
66
 10
54.00000000000001
 20
76
 10
64
 20
76
 10
64
 20
66
  0
LWPOLYLINE
  5
A6
100
AcDbEntity
  8
0
  6
ByLayer
 62
  256
370
   -1
100
AcDbPolyline
 90
    4
 70
    1
 43
0
 10
64
 20
66
 10
64
 20
76
 10
74
 20
76
 10
74
 20
66
  0
LWPOLYLINE
  5
A7
100
AcDbEntity
  8
0
  6
ByLayer
 62
  256
370
   -1
100
AcDbPolyline
 90
    4
 70
    1
 43
0
 10
74
 20
66
 10
74
 20
76
 10
84
 20
76
 10
84
 20
66
  0
LWPOLYLINE
  5
A8
100
AcDbEntity
  8
0
  6
ByLayer
 62
  256
370
   -1
100
AcDbPolyline
 90
    4
 70
    1
 43
0
 10
84
 20
66
 10
84
 20
76
 10
94
 20
76
 10
94
 20
66
  0
LWPOLYLINE
  5
A9
100
AcDbEntity
  8
0
  6
ByLayer
 62
  256
370
   -1
100
AcDbPolyline
 90
    4
 70
    1
 43
0
 10
14
 20
76
 10
14
 20
86
 10
4
 20
86
 10
4
 20
76
  0
LWPOLYLINE
  5
AA
100
AcDbEntity
  8
0
  6
ByLayer
 62
  256
370
   -1
100
AcDbPolyline
 90
    4
 70
    1
 43
0
 10
24
 20
76
 10
24
 20
86
 10
14
 20
86
 10
14
 20
76
  0
LWPOLYLINE
  5
AB
100
AcDbEntity
  8
0
  6
ByLayer
 62
  256
370
   -1
100
AcDbPolyline
 90
    4
 70
    1
 43
0
 10
34
 20
76
 10
34
 20
86
 10
24
 20
86
 10
24
 20
76
  0
LWPOLYLINE
  5
AC
100
AcDbEntity
  8
0
  6
ByLayer
 62
  256
370
   -1
100
AcDbPolyline
 90
    4
 70
    1
 43
0
 10
44.00000000000001
 20
76
 10
44.00000000000001
 20
86
 10
34
 20
86
 10
34
 20
76
  0
LWPOLYLINE
  5
AD
100
AcDbEntity
  8
0
  6
ByLayer
 62
  256
370
   -1
100
AcDbPolyline
 90
    4
 70
    1
 43
0
 10
54.00000000000001
 20
76
 10
54.00000000000001
 20
86
 10
44.00000000000001
 20
86
 10
44.00000000000001
 20
76
  0
LWPOLYLINE
  5
AE
100
AcDbEntity
  8
0
  6
ByLayer
 62
  256
370
   -1
100
AcDbPolyline
 90
    4
 70
    1
 43
0
 10
64
 20
76
 10
64
 20
86
 10
54.00000000000001
 20
86
 10
54.00000000000001
 20
76
  0
LWPOLYLINE
  5
AF
100
AcDbEntity
  8
0
  6
ByLayer
 62
  256
370
   -1
100
AcDbPolyline
 90
    4
 70
    1
 43
0
 10
74
 20
76
 10
74
 20
86
 10
64
 20
86
 10
64
 20
76
  0
LWPOLYLINE
  5
B0
100
AcDbEntity
  8
0
  6
ByLayer
 62
  256
370
   -1
100
AcDbPolyline
 90
    4
 70
    1
 43
0
 10
84
 20
76
 10
84
 20
86
 10
74
 20
86
 10
74
 20
76
  0
LWPOLYLINE
  5
B1
100
AcDbEntity
  8
0
  6
ByLayer
 62
  256
370
   -1
100
AcDbPolyline
 90
    4
 70
    1
 43
0
 10
94
 20
76
 10
94
 20
86
 10
84
 20
86
 10
84
 20
76
  0
LWPOLYLINE
  5
B2
100
AcDbEntity
  8
0
  6
ByLayer
 62
  256
370
   -1
100
AcDbPolyline
 90
    4
 70
    1
 43
0
 10
4
 20
86
 10
4
 20
96
 10
14
 20
96
 10
14
 20
86
  0
LWPOLYLINE
  5
B3
100
AcDbEntity
  8
0
  6
ByLayer
 62
  256
370
   -1
100
AcDbPolyline
 90
    4
 70
    1
 43
0
 10
14
 20
86
 10
14
 20
96
 10
24
 20
96
 10
24
 20
86
  0
LWPOLYLINE
  5
B4
100
AcDbEntity
  8
0
  6
ByLayer
 62
  256
370
   -1
100
AcDbPolyline
 90
    4
 70
    1
 43
0
 10
24
 20
86
 10
24
 20
96
 10
34
 20
96
 10
34
 20
86
  0
LWPOLYLINE
  5
B5
100
AcDbEntity
  8
0
  6
ByLayer
 62
  256
370
   -1
100
AcDbPolyline
 90
    4
 70
    1
 43
0
 10
34
 20
86
 10
34
 20
96
 10
44.00000000000001
 20
96
 10
44.00000000000001
 20
86
  0
LWPOLYLINE
  5
B6
100
AcDbEntity
  8
0
  6
ByLayer
 62
  256
370
   -1
100
AcDbPolyline
 90
    4
 70
    1
 43
0
 10
44.00000000000001
 20
86
 10
44.00000000000001
 20
96
 10
54.00000000000001
 20
96
 10
54.00000000000001
 20
86
  0
LWPOLYLINE
  5
B7
100
AcDbEntity
  8
0
  6
ByLayer
 62
  256
370
   -1
100
AcDbPolyline
 90
    4
 70
    1
 43
0
 10
54.00000000000001
 20
86
 10
54.00000000000001
 20
96
 10
64
 20
96
 10
64
 20
86
  0
LWPOLYLINE
  5
B8
100
AcDbEntity
  8
0
  6
ByLayer
 62
  256
370
   -1
100
AcDbPolyline
 90
    4
 70
    1
 43
0
 10
64
 20
86
 10
64
 20
96
 10
74
 20
96
 10
74
 20
86
  0
LWPOLYLINE
  5
B9
100
AcDbEntity
  8
0
  6
ByLayer
 62
  256
370
   -1
100
AcDbPolyline
 90
    4
 70
    1
 43
0
 10
74
 20
86
 10
74
 20
96
 10
84
 20
96
 10
84
 20
86
  0
LWPOLYLINE
  5
BA
100
AcDbEntity
  8
0
  6
ByLayer
 62
  256
370
   -1
100
AcDbPolyline
 90
    4
 70
    1
 43
0
 10
84
 20
86
 10
84
 20
96
 10
94
 20
96
 10
94
 20
86
  0
LWPOLYLINE
  5
BB
100
AcDbEntity
  8
0
  6
ByLayer
 62
  256
370
   -1
100
AcDbPolyline
 90
    4
 70
    1
 43
0
 10
4
 20
96
 10
4
 20
106
 10
14
 20
106
 10
14
 20
96
  0
LWPOLYLINE
  5
BC
100
AcDbEntity
  8
0
  6
ByLayer
 62
  256
370
   -1
100
AcDbPolyline
 90
    4
 70
    1
 43
0
 10
14
 20
96
 10
14
 20
106
 10
24
 20
106
 10
24
 20
96
  0
LWPOLYLINE
  5
BD
100
AcDbEntity
  8
0
  6
ByLayer
 62
  256
370
   -1
100
AcDbPolyline
 90
    4
 70
    1
 43
0
 10
24
 20
96
 10
24
 20
106
 10
34
 20
106
 10
34
 20
96
  0
LWPOLYLINE
  5
BE
100
AcDbEntity
  8
0
  6
ByLayer
 62
  256
370
   -1
100
AcDbPolyline
 90
    4
 70
    1
 43
0
 10
34
 20
96
 10
34
 20
106
 10
44.00000000000001
 20
106
 10
44.00000000000001
 20
96
  0
LWPOLYLINE
  5
BF
100
AcDbEntity
  8
0
  6
ByLayer
 62
  256
370
   -1
100
AcDbPolyline
 90
    4
 70
    1
 43
0
 10
44.00000000000001
 20
96
 10
44.00000000000001
 20
106
 10
54.00000000000001
 20
106
 10
54.00000000000001
 20
96
  0
LWPOLYLINE
  5
C0
100
AcDbEntity
  8
0
  6
ByLayer
 62
  256
370
   -1
100
AcDbPolyline
 90
    4
 70
    1
 43
0
 10
54.00000000000001
 20
96
 10
54.00000000000001
 20
106
 10
64
 20
106
 10
64
 20
96
  0
LWPOLYLINE
  5
C1
100
AcDbEntity
  8
0
  6
ByLayer
 62
  256
370
   -1
100
AcDbPolyline
 90
    4
 70
    1
 43
0
 10
64
 20
96
 10
64
 20
106
 10
74
 20
106
 10
74
 20
96
  0
LWPOLYLINE
  5
C2
100
AcDbEntity
  8
0
  6
ByLayer
 62
  256
370
   -1
100
AcDbPolyline
 90
    4
 70
    1
 43
0
 10
74
 20
96
 10
74
 20
106
 10
84
 20
106
 10
84
 20
96
  0
LWPOLYLINE
  5
C3
100
AcDbEntity
  8
0
  6
ByLayer
 62
  256
370
   -1
100
AcDbPolyline
 90
    4
 70
    1
 43
0
 10
84
 20
96
 10
84
 20
106
 10
94
 20
106
 10
94
 20
96
  0
LWPOLYLINE
  5
C4
100
AcDbEntity
  8
0
  6
ByLayer
 62
  256
370
   -1
100
AcDbPolyline
 90
    4
 70
    1
 43
0
 10
4
 20
6.000000000000006
 10
4
 20
16.00000000000001
 10
14
 20
16.00000000000001
 10
14
 20
6.000000000000005
  0
LWPOLYLINE
  5
C5
100
AcDbEntity
  8
0
  6
ByLayer
 62
  256
370
   -1
100
AcDbPolyline
 90
    4
 70
    1
 43
0
 10
14
 20
6.000000000000005
 10
14
 20
16.00000000000001
 10
24
 20
16.00000000000001
 10
24
 20
6.000000000000005
  0
LWPOLYLINE
  5
C6
100
AcDbEntity
  8
0
  6
ByLayer
 62
  256
370
   -1
100
AcDbPolyline
 90
    4
 70
    1
 43
0
 10
24
 20
6.000000000000005
 10
24
 20
16.00000000000001
 10
34
 20
16
 10
34
 20
6.000000000000004
  0
LWPOLYLINE
  5
C7
100
AcDbEntity
  8
0
  6
ByLayer
 62
  256
370
   -1
100
AcDbPolyline
 90
    4
 70
    1
 43
0
 10
34
 20
6.000000000000004
 10
34
 20
16
 10
44
 20
16
 10
44
 20
6.000000000000004
  0
LWPOLYLINE
  5
C8
100
AcDbEntity
  8
0
  6
ByLayer
 62
  256
370
   -1
100
AcDbPolyline
 90
    4
 70
    1
 43
0
 10
44
 20
6.000000000000004
 10
44
 20
16
 10
54
 20
16
 10
54
 20
6.000000000000003
  0
LWPOLYLINE
  5
C9
100
AcDbEntity
  8
0
  6
ByLayer
 62
  256
370
   -1
100
AcDbPolyline
 90
    4
 70
    1
 43
0
 10
54
 20
6.000000000000003
 10
54
 20
16
 10
64
 20
16
 10
64
 20
6.000000000000003
  0
LWPOLYLINE
  5
CA
100
AcDbEntity
  8
0
  6
ByLayer
 62
  256
370
   -1
100
AcDbPolyline
 90
    4
 70
    1
 43
0
 10
64
 20
6.000000000000003
 10
64
 20
16
 10
74
 20
16
 10
74
 20
6.000000000000002
  0
LWPOLYLINE
  5
CB
100
AcDbEntity
  8
0
  6
ByLayer
 62
  256
370
   -1
100
AcDbPolyline
 90
    4
 70
    1
 43
0
 10
74
 20
6.000000000000002
 10
74
 20
16
 10
84
 20
16
 10
84
 20
6.000000000000001
  0
LWPOLYLINE
  5
CC
100
AcDbEntity
  8
0
  6
ByLayer
 62
  256
370
   -1
100
AcDbPolyline
 90
    4
 70
    1
 43
0
 10
84
 20
6.000000000000001
 10
84
 20
16
 10
94
 20
16
 10
94
 20
6.000000000000001
  0
LWPOLYLINE
  5
CD
100
AcDbEntity
  8
0
  6
ByLayer
 62
  256
370
   -1
100
AcDbPolyline
 90
    4
 70
    1
 43
0
 10
94
 20
6.000000000000001
 10
94
 20
16
 10
104
 20
16
 10
104
 20
6
  0
LWPOLYLINE
  5
CE
100
AcDbEntity
  8
0
  6
ByLayer
 62
  256
370
   -1
100
AcDbPolyline
 90
    4
 70
    1
 43
0
 10
4
 20
16.00000000000001
 10
4
 20
26.00000000000001
 10
14
 20
26.00000000000001
 10
14
 20
16.00000000000001
  0
LWPOLYLINE
  5
CF
100
AcDbEntity
  8
0
  6
ByLayer
 62
  256
370
   -1
100
AcDbPolyline
 90
    4
 70
    1
 43
0
 10
24
 20
16.00000000000001
 10
24
 20
26
 10
34
 20
26
 10
34
 20
16
  0
LWPOLYLINE
  5
D0
100
AcDbEntity
  8
0
  6
ByLayer
 62
  256
370
   -1
100
AcDbPolyline
 90
    4
 70
    1
 43
0
 10
34
 20
16
 10
34
 20
26
 10
44
 20
26
 10
44
 20
16
  0
LWPOLYLINE
  5
D1
100
AcDbEntity
  8
0
  6
ByLayer
 62
  256
370
   -1
100
AcDbPolyline
 90
    4
 70
    1
 43
0
 10
44
 20
16
 10
44
 20
26
 10
54
 20
26
 10
54
 20
16
  0
LWPOLYLINE
  5
D2
100
AcDbEntity
  8
0
  6
ByLayer
 62
  256
370
   -1
100
AcDbPolyline
 90
    4
 70
    1
 43
0
 10
54
 20
16
 10
54
 20
26
 10
64
 20
26
 10
64
 20
16
  0
LWPOLYLINE
  5
D3
100
AcDbEntity
  8
0
  6
ByLayer
 62
  256
370
   -1
100
AcDbPolyline
 90
    4
 70
    1
 43
0
 10
64
 20
16
 10
64
 20
26
 10
74
 20
26
 10
74
 20
16
  0
LWPOLYLINE
  5
D4
100
AcDbEntity
  8
0
  6
ByLayer
 62
  256
370
   -1
100
AcDbPolyline
 90
    4
 70
    1
 43
0
 10
74
 20
16
 10
74
 20
26
 10
84
 20
26
 10
84
 20
16
  0
LWPOLYLINE
  5
D5
100
AcDbEntity
  8
0
  6
ByLayer
 62
  256
370
   -1
100
AcDbPolyline
 90
    4
 70
    1
 43
0
 10
84
 20
16
 10
84
 20
26
 10
94
 20
26
 10
94
 20
16
  0
LWPOLYLINE
  5
D6
100
AcDbEntity
  8
0
  6
ByLayer
 62
  256
370
   -1
100
AcDbPolyline
 90
    4
 70
    1
 43
0
 10
4
 20
26.00000000000001
 10
4
 20
36.00000000000001
 10
14
 20
36.00000000000001
 10
14
 20
26.00000000000001
  0
LWPOLYLINE
  5
D7
100
AcDbEntity
  8
0
  6
ByLayer
 62
  256
370
   -1
100
AcDbPolyline
 90
    4
 70
    1
 43
0
 10
24
 20
26
 10
24
 20
36
 10
34
 20
36
 10
34
 20
26
  0
LWPOLYLINE
  5
D8
100
AcDbEntity
  8
0
  6
ByLayer
 62
  256
370
   -1
100
AcDbPolyline
 90
    4
 70
    1
 43
0
 10
34
 20
26
 10
34
 20
36
 10
44
 20
36
 10
44
 20
26
  0
LWPOLYLINE
  5
D9
100
AcDbEntity
  8
0
  6
ByLayer
 62
  256
370
   -1
100
AcDbPolyline
 90
    4
 70
    1
 43
0
 10
44
 20
26
 10
44
 20
36
 10
54
 20
36
 10
54
 20
26
  0
LWPOLYLINE
  5
DA
100
AcDbEntity
  8
0
  6
ByLayer
 62
  256
370
   -1
100
AcDbPolyline
 90
    4
 70
    1
 43
0
 10
54
 20
26
 10
54
 20
36
 10
64
 20
36
 10
64
 20
26
  0
LWPOLYLINE
  5
DB
100
AcDbEntity
  8
0
  6
ByLayer
 62
  256
370
   -1
100
AcDbPolyline
 90
    4
 70
    1
 43
0
 10
64
 20
26
 10
64
 20
36
 10
74
 20
36
 10
74
 20
26
  0
LWPOLYLINE
  5
DC
100
AcDbEntity
  8
0
  6
ByLayer
 62
  256
370
   -1
100
AcDbPolyline
 90
    4
 70
    1
 43
0
 10
74
 20
26
 10
74
 20
36
 10
84
 20
36
 10
84
 20
26
  0
LWPOLYLINE
  5
DD
100
AcDbEntity
  8
0
  6
ByLayer
 62
  256
370
   -1
100
AcDbPolyline
 90
    4
 70
    1
 43
0
 10
84
 20
26
 10
84
 20
36
 10
94
 20
36
 10
94
 20
26
  0
LWPOLYLINE
  5
DE
100
AcDbEntity
  8
0
  6
ByLayer
 62
  256
370
   -1
100
AcDbPolyline
 90
    4
 70
    1
 43
0
 10
4
 20
36.00000000000001
 10
4
 20
46.00000000000001
 10
14
 20
46.00000000000001
 10
14
 20
36.00000000000001
  0
LWPOLYLINE
  5
DF
100
AcDbEntity
  8
0
  6
ByLayer
 62
  256
370
   -1
100
AcDbPolyline
 90
    4
 70
    1
 43
0
 10
74
 20
36
 10
74
 20
46
 10
84
 20
46
 10
84
 20
36
  0
LWPOLYLINE
  5
E0
100
AcDbEntity
  8
0
  6
ByLayer
 62
  256
370
   -1
100
AcDbPolyline
 90
    4
 70
    1
 43
0
 10
84
 20
36
 10
84
 20
46
 10
94
 20
46
 10
94
 20
36
  0
LWPOLYLINE
  5
E1
100
AcDbEntity
  8
0
  6
ByLayer
 62
  256
370
   -1
100
AcDbPolyline
 90
    4
 70
    1
 43
0
 10
4
 20
46.00000000000001
 10
4
 20
56.00000000000001
 10
14
 20
56.00000000000001
 10
14
 20
46.00000000000001
  0
LWPOLYLINE
  5
E2
100
AcDbEntity
  8
0
  6
ByLayer
 62
  256
370
   -1
100
AcDbPolyline
 90
    4
 70
    1
 43
0
 10
14
 20
46.00000000000001
 10
14
 20
56.00000000000001
 10
24
 20
56.00000000000001
 10
24
 20
46.00000000000001
  0
LWPOLYLINE
  5
E3
100
AcDbEntity
  8
0
  6
ByLayer
 62
  256
370
   -1
100
AcDbPolyline
 90
    4
 70
    1
 43
0
 10
34
 20
46.00000000000001
 10
34
 20
56.00000000000001
 10
24
 20
56.00000000000001
 10
24
 20
46.00000000000001
  0
LWPOLYLINE
  5
E4
100
AcDbEntity
  8
0
  6
ByLayer
 62
  256
370
   -1
100
AcDbPolyline
 90
    4
 70
    1
 43
0
 10
34
 20
46.00000000000001
 10
34
 20
56.00000000000001
 10
44
 20
56.00000000000001
 10
44
 20
46.00000000000001
  0
LWPOLYLINE
  5
E5
100
AcDbEntity
  8
0
  6
ByLayer
 62
  256
370
   -1
100
AcDbPolyline
 90
    4
 70
    1
 43
0
 10
44
 20
46.00000000000001
 10
44
 20
56.00000000000001
 10
54
 20
56
 10
54
 20
46
  0
LWPOLYLINE
  5
E6
100
AcDbEntity
  8
0
  6
ByLayer
 62
  256
370
   -1
100
AcDbPolyline
 90
    4
 70
    1
 43
0
 10
54
 20
46
 10
54
 20
56
 10
64
 20
56
 10
64
 20
46
  0
LWPOLYLINE
  5
E7
100
AcDbEntity
  8
0
  6
ByLayer
 62
  256
370
   -1
100
AcDbPolyline
 90
    4
 70
    1
 43
0
 10
74
 20
46
 10
74
 20
56
 10
84
 20
56
 10
84
 20
46
  0
LWPOLYLINE
  5
E8
100
AcDbEntity
  8
0
  6
ByLayer
 62
  256
370
   -1
100
AcDbPolyline
 90
    4
 70
    1
 43
0
 10
84
 20
46
 10
84
 20
56
 10
94
 20
56
 10
94
 20
46
  0
LWPOLYLINE
  5
E9
100
AcDbEntity
  8
0
  6
ByLayer
 62
  256
370
   -1
100
AcDbPolyline
 90
    4
 70
    1
 43
0
 10
4
 20
56.00000000000001
 10
4
 20
66
 10
14
 20
66
 10
14
 20
56.00000000000001
  0
LWPOLYLINE
  5
EA
100
AcDbEntity
  8
0
  6
ByLayer
 62
  256
370
   -1
100
AcDbPolyline
 90
    4
 70
    1
 43
0
 10
14
 20
56.00000000000001
 10
14
 20
66
 10
24
 20
66
 10
24
 20
56.00000000000001
  0
LWPOLYLINE
  5
EB
100
AcDbEntity
  8
0
  6
ByLayer
 62
  256
370
   -1
100
AcDbPolyline
 90
    4
 70
    1
 43
0
 10
24
 20
56.00000000000001
 10
24
 20
66
 10
34
 20
66
 10
34
 20
56.00000000000001
  0
LWPOLYLINE
  5
EC
100
AcDbEntity
  8
0
  6
ByLayer
 62
  256
370
   -1
100
AcDbPolyline
 90
    4
 70
    1
 43
0
 10
34
 20
56.00000000000001
 10
34
 20
66
 10
44.00000000000001
 20
66
 10
44
 20
56.00000000000001
  0
LWPOLYLINE
  5
ED
100
AcDbEntity
  8
0
  6
ByLayer
 62
  256
370
   -1
100
AcDbPolyline
 90
    4
 70
    1
 43
0
 10
44
 20
56.00000000000001
 10
44.00000000000001
 20
66
 10
54.00000000000001
 20
66
 10
54
 20
56
  0
LWPOLYLINE
  5
EE
100
AcDbEntity
  8
0
  6
ByLayer
 62
  256
370
   -1
100
AcDbPolyline
 90
    4
 70
    1
 43
0
 10
54
 20
56
 10
54.00000000000001
 20
66
 10
64
 20
66
 10
64
 20
56
  0
LWPOLYLINE
  5
EF
100
AcDbEntity
  8
0
  6
ByLayer
 62
  256
370
   -1
100
AcDbPolyline
 90
    4
 70
    1
 43
0
 10
74
 20
56
 10
74
 20
66
 10
84
 20
66
 10
84
 20
56
  0
LWPOLYLINE
  5
F0
100
AcDbEntity
  8
0
  6
ByLayer
 62
  256
370
   -1
100
AcDbPolyline
 90
    4
 70
    1
 43
0
 10
84
 20
56
 10
84
 20
66
 10
94
 20
66
 10
94
 20
56
  0
LWPOLYLINE
  5
F1
100
AcDbEntity
  8
0
  6
ByLayer
 62
  256
370
   -1
100
AcDbPolyline
 90
    4
 70
    1
 43
0
 10
4
 20
66
 10
4
 20
76
 10
14
 20
76
 10
14
 20
66
  0
LWPOLYLINE
  5
F2
100
AcDbEntity
  8
0
  6
ByLayer
 62
  256
370
   -1
100
AcDbPolyline
 90
    4
 70
    1
 43
0
 10
14
 20
66
 10
14
 20
76
 10
24
 20
76
 10
24
 20
66
  0
LWPOLYLINE
  5
F3
100
AcDbEntity
  8
0
  6
ByLayer
 62
  256
370
   -1
100
AcDbPolyline
 90
    4
 70
    1
 43
0
 10
24
 20
66
 10
24
 20
76
 10
34
 20
76
 10
34
 20
66
  0
LWPOLYLINE
  5
F4
100
AcDbEntity
  8
0
  6
ByLayer
 62
  256
370
   -1
100
AcDbPolyline
 90
    4
 70
    1
 43
0
 10
34
 20
76
 10
34
 20
76
 10
44.00000000000001
 20
76
 10
44.00000000000001
 20
76
  0
LWPOLYLINE
  5
F5
100
AcDbEntity
  8
0
  6
ByLayer
 62
  256
370
   -1
100
AcDbPolyline
 90
    4
 70
    1
 43
0
 10
44.00000000000001
 20
66
 10
44.00000000000001
 20
76
 10
54.00000000000001
 20
76
 10
54.00000000000001
 20
66
  0
LWPOLYLINE
  5
F6
100
AcDbEntity
  8
0
  6
ByLayer
 62
  256
370
   -1
100
AcDbPolyline
 90
    4
 70
    1
 43
0
 10
54.00000000000001
 20
66
 10
54.00000000000001
 20
76
 10
64
 20
76
 10
64
 20
66
  0
LWPOLYLINE
  5
F7
100
AcDbEntity
  8
0
  6
ByLayer
 62
  256
370
   -1
100
AcDbPolyline
 90
    4
 70
    1
 43
0
 10
74
 20
66
 10
74
 20
76
 10
84
 20
76
 10
84
 20
66
  0
LWPOLYLINE
  5
F8
100
AcDbEntity
  8
0
  6
ByLayer
 62
  256
370
   -1
100
AcDbPolyline
 90
    4
 70
    1
 43
0
 10
84
 20
66
 10
84
 20
76
 10
94
 20
76
 10
94
 20
66
  0
LWPOLYLINE
  5
F9
100
AcDbEntity
  8
0
  6
ByLayer
 62
  256
370
   -1
100
AcDbPolyline
 90
    4
 70
    1
 43
0
 10
14
 20
76
 10
14
 20
86
 10
4
 20
86
 10
4
 20
76
  0
LWPOLYLINE
  5
FA
100
AcDbEntity
  8
0
  6
ByLayer
 62
  256
370
   -1
100
AcDbPolyline
 90
    4
 70
    1
 43
0
 10
24
 20
76
 10
24
 20
86
 10
14
 20
86
 10
14
 20
76
  0
LWPOLYLINE
  5
FB
100
AcDbEntity
  8
0
  6
ByLayer
 62
  256
370
   -1
100
AcDbPolyline
 90
    4
 70
    1
 43
0
 10
34
 20
76
 10
34
 20
86
 10
24
 20
86
 10
24
 20
76
  0
LWPOLYLINE
  5
FC
100
AcDbEntity
  8
0
  6
ByLayer
 62
  256
370
   -1
100
AcDbPolyline
 90
    4
 70
    1
 43
0
 10
44.00000000000001
 20
76
 10
44.00000000000001
 20
86
 10
34
 20
86
 10
34
 20
76
  0
LWPOLYLINE
  5
FD
100
AcDbEntity
  8
0
  6
ByLayer
 62
  256
370
   -1
100
AcDbPolyline
 90
    4
 70
    1
 43
0
 10
54.00000000000001
 20
76
 10
54.00000000000001
 20
86
 10
44.00000000000001
 20
86
 10
44.00000000000001
 20
76
  0
LWPOLYLINE
  5
FE
100
AcDbEntity
  8
0
  6
ByLayer
 62
  256
370
   -1
100
AcDbPolyline
 90
    4
 70
    1
 43
0
 10
64
 20
76
 10
64
 20
86
 10
54.00000000000001
 20
86
 10
54.00000000000001
 20
76
  0
LWPOLYLINE
  5
FF
100
AcDbEntity
  8
0
  6
ByLayer
 62
  256
370
   -1
100
AcDbPolyline
 90
    4
 70
    1
 43
0
 10
4
 20
86
 10
4
 20
96
 10
14
 20
96
 10
14
 20
86
  0
LWPOLYLINE
  5
100
100
AcDbEntity
  8
0
  6
ByLayer
 62
  256
370
   -1
100
AcDbPolyline
 90
    4
 70
    1
 43
0
 10
14
 20
86
 10
14
 20
96
 10
24
 20
96
 10
24
 20
86
  0
LWPOLYLINE
  5
101
100
AcDbEntity
  8
0
  6
ByLayer
 62
  256
370
   -1
100
AcDbPolyline
 90
    4
 70
    1
 43
0
 10
24
 20
86
 10
24
 20
96
 10
34
 20
96
 10
34
 20
86
  0
LWPOLYLINE
  5
102
100
AcDbEntity
  8
0
  6
ByLayer
 62
  256
370
   -1
100
AcDbPolyline
 90
    4
 70
    1
 43
0
 10
34
 20
86
 10
34
 20
96
 10
44.00000000000001
 20
96
 10
44.00000000000001
 20
86
  0
LWPOLYLINE
  5
103
100
AcDbEntity
  8
0
  6
ByLayer
 62
  256
370
   -1
100
AcDbPolyline
 90
    4
 70
    1
 43
0
 10
44.00000000000001
 20
86
 10
44.00000000000001
 20
96
 10
54.00000000000001
 20
96
 10
54.00000000000001
 20
86
  0
LWPOLYLINE
  5
104
100
AcDbEntity
  8
0
  6
ByLayer
 62
  256
370
   -1
100
AcDbPolyline
 90
    4
 70
    1
 43
0
 10
54.00000000000001
 20
86
 10
54.00000000000001
 20
96
 10
64
 20
96
 10
64
 20
86
  0
LWPOLYLINE
  5
105
100
AcDbEntity
  8
0
  6
ByLayer
 62
  256
370
   -1
100
AcDbPolyline
 90
    4
 70
    1
 43
0
 10
64
 20
86
 10
64
 20
96
 10
74
 20
96
 10
74
 20
86
  0
LWPOLYLINE
  5
106
100
AcDbEntity
  8
0
  6
ByLayer
 62
  256
370
   -1
100
AcDbPolyline
 90
    4
 70
    1
 43
0
 10
74
 20
86
 10
74
 20
96
 10
84
 20
96
 10
84
 20
86
  0
LWPOLYLINE
  5
107
100
AcDbEntity
  8
0
  6
ByLayer
 62
  256
370
   -1
100
AcDbPolyline
 90
    4
 70
    1
 43
0
 10
84
 20
86
 10
84
 20
96
 10
94
 20
96
 10
94
 20
86
  0
LWPOLYLINE
  5
108
100
AcDbEntity
  8
0
  6
ByLayer
 62
  256
370
   -1
100
AcDbPolyline
 90
    4
 70
    1
 43
0
 10
4
 20
96
 10
4
 20
106
 10
14
 20
106
 10
14
 20
96
  0
LWPOLYLINE
  5
109
100
AcDbEntity
  8
0
  6
ByLayer
 62
  256
370
   -1
100
AcDbPolyline
 90
    4
 70
    1
 43
0
 10
14
 20
96
 10
14
 20
106
 10
24
 20
106
 10
24
 20
96
  0
LWPOLYLINE
  5
10A
100
AcDbEntity
  8
0
  6
ByLayer
 62
  256
370
   -1
100
AcDbPolyline
 90
    4
 70
    1
 43
0
 10
24
 20
96
 10
24
 20
106
 10
34
 20
106
 10
34
 20
96
  0
LWPOLYLINE
  5
10B
100
AcDbEntity
  8
0
  6
ByLayer
 62
  256
370
   -1
100
AcDbPolyline
 90
    4
 70
    1
 43
0
 10
34
 20
96
 10
34
 20
106
 10
44.00000000000001
 20
106
 10
44.00000000000001
 20
96
  0
LWPOLYLINE
  5
10C
100
AcDbEntity
  8
0
  6
ByLayer
 62
  256
370
   -1
100
AcDbPolyline
 90
    4
 70
    1
 43
0
 10
44.00000000000001
 20
96
 10
44.00000000000001
 20
106
 10
54.00000000000001
 20
106
 10
54.00000000000001
 20
96
  0
LWPOLYLINE
  5
10D
100
AcDbEntity
  8
0
  6
ByLayer
 62
  256
370
   -1
100
AcDbPolyline
 90
    4
 70
    1
 43
0
 10
54.00000000000001
 20
96
 10
54.00000000000001
 20
106
 10
64
 20
106
 10
64
 20
96
  0
LWPOLYLINE
  5
10E
100
AcDbEntity
  8
0
  6
ByLayer
 62
  256
370
   -1
100
AcDbPolyline
 90
    4
 70
    1
 43
0
 10
64
 20
96
 10
64
 20
106
 10
74
 20
106
 10
74
 20
96
  0
LWPOLYLINE
  5
10F
100
AcDbEntity
  8
0
  6
ByLayer
 62
  256
370
   -1
100
AcDbPolyline
 90
    4
 70
    1
 43
0
 10
74
 20
96
 10
74
 20
106
 10
84
 20
106
 10
84
 20
96
  0
LWPOLYLINE
  5
110
100
AcDbEntity
  8
0
  6
ByLayer
 62
  256
370
   -1
100
AcDbPolyline
 90
    4
 70
    1
 43
0
 10
84
 20
96
 10
84
 20
106
 10
94
 20
106
 10
94
 20
96
  0
LWPOLYLINE
  5
111
100
AcDbEntity
  8
0
  6
ByLayer
 62
  256
370
   -1
100
AcDbPolyline
 90
    4
 70
    1
 43
0
 10
4
 20
106
 10
4
 20
116
 10
14
 20
116
 10
14
 20
106
  0
LWPOLYLINE
  5
112
100
AcDbEntity
  8
0
  6
ByLayer
 62
  256
370
   -1
100
AcDbPolyline
 90
    4
 70
    1
 43
0
 10
14
 20
106
 10
14
 20
116
 10
24
 20
116
 10
24
 20
106
  0
LWPOLYLINE
  5
113
100
AcDbEntity
  8
0
  6
ByLayer
 62
  256
370
   -1
100
AcDbPolyline
 90
    4
 70
    1
 43
0
 10
24
 20
106
 10
24
 20
116
 10
34
 20
116
 10
34
 20
106
  0
LWPOLYLINE
  5
114
100
AcDbEntity
  8
0
  6
ByLayer
 62
  256
370
   -1
100
AcDbPolyline
 90
    4
 70
    1
 43
0
 10
34
 20
106
 10
34
 20
116
 10
44.00000000000001
 20
116
 10
44.00000000000001
 20
106
  0
LWPOLYLINE
  5
115
100
AcDbEntity
  8
0
  6
ByLayer
 62
  256
370
   -1
100
AcDbPolyline
 90
    4
 70
    1
 43
0
 10
44.00000000000001
 20
106
 10
44.00000000000001
 20
116
 10
54.00000000000001
 20
116
 10
54.00000000000001
 20
106
  0
LWPOLYLINE
  5
116
100
AcDbEntity
  8
0
  6
ByLayer
 62
  256
370
   -1
100
AcDbPolyline
 90
    4
 70
    1
 43
0
 10
54.00000000000001
 20
106
 10
54.00000000000001
 20
116
 10
64
 20
116
 10
64
 20
106
  0
LWPOLYLINE
  5
117
100
AcDbEntity
  8
0
  6
ByLayer
 62
  256
370
   -1
100
AcDbPolyline
 90
    4
 70
    1
 43
0
 10
64
 20
106
 10
64
 20
116
 10
74
 20
116
 10
74
 20
106
  0
LWPOLYLINE
  5
118
100
AcDbEntity
  8
0
  6
ByLayer
 62
  256
370
   -1
100
AcDbPolyline
 90
    4
 70
    1
 43
0
 10
74
 20
106
 10
74
 20
116
 10
84
 20
116
 10
84
 20
106
  0
LWPOLYLINE
  5
119
100
AcDbEntity
  8
0
  6
ByLayer
 62
  256
370
   -1
100
AcDbPolyline
 90
    4
 70
    1
 43
0
 10
84
 20
106
 10
84
 20
116
 10
94
 20
116
 10
94
 20
106
  0
LWPOLYLINE
  5
11A
100
AcDbEntity
  8
0
  6
ByLayer
 62
  256
370
   -1
100
AcDbPolyline
 90
    4
 70
    1
 43
0
 10
4
 20
116
 10
4.000000000000014
 20
126
 10
14.00000000000001
 20
126
 10
14
 20
116
  0
LWPOLYLINE
  5
11B
100
AcDbEntity
  8
0
  6
ByLayer
 62
  256
370
   -1
100
AcDbPolyline
 90
    4
 70
    1
 43
0
 10
14
 20
116
 10
14.00000000000001
 20
126
 10
24.00000000000001
 20
126
 10
24
 20
116
  0
LWPOLYLINE
  5
11C
100
AcDbEntity
  8
0
  6
ByLayer
 62
  256
370
   -1
100
AcDbPolyline
 90
    4
 70
    1
 43
0
 10
24
 20
116
 10
24.00000000000001
 20
126
 10
34.00000000000001
 20
126
 10
34
 20
116
  0
LWPOLYLINE
  5
11D
100
AcDbEntity
  8
0
  6
ByLayer
 62
  256
370
   -1
100
AcDbPolyline
 90
    4
 70
    1
 43
0
 10
34
 20
116
 10
34.00000000000001
 20
126
 10
44.00000000000001
 20
126
 10
44.00000000000001
 20
116
  0
LWPOLYLINE
  5
11E
100
AcDbEntity
  8
0
  6
ByLayer
 62
  256
370
   -1
100
AcDbPolyline
 90
    4
 70
    1
 43
0
 10
44.00000000000001
 20
116
 10
44.00000000000001
 20
126
 10
54.00000000000001
 20
126
 10
54.00000000000001
 20
116
  0
LWPOLYLINE
  5
11F
100
AcDbEntity
  8
0
  6
ByLayer
 62
  256
370
   -1
100
AcDbPolyline
 90
    4
 70
    1
 43
0
 10
54.00000000000001
 20
116
 10
54.00000000000001
 20
126
 10
64
 20
126
 10
64
 20
116
  0
LWPOLYLINE
  5
120
100
AcDbEntity
  8
0
  6
ByLayer
 62
  256
370
   -1
100
AcDbPolyline
 90
    4
 70
    1
 43
0
 10
64
 20
116
 10
64
 20
126
 10
74
 20
126
 10
74
 20
116
  0
LWPOLYLINE
  5
121
100
AcDbEntity
  8
0
  6
ByLayer
 62
  256
370
   -1
100
AcDbPolyline
 90
    4
 70
    1
 43
0
 10
74
 20
116
 10
74
 20
126
 10
84
 20
126
 10
84
 20
116
  0
LWPOLYLINE
  5
122
100
AcDbEntity
  8
0
  6
ByLayer
 62
  256
370
   -1
100
AcDbPolyline
 90
    4
 70
    1
 43
0
 10
84
 20
116
 10
84
 20
126
 10
94
 20
126
 10
94
 20
116
  0
LWPOLYLINE
  5
123
100
AcDbEntity
  8
0
  6
ByLayer
 62
  256
370
   -1
100
AcDbPolyline
 90
    4
 70
    1
 43
0
 10
94
 20
116
 10
94
 20
126
 10
104
 20
126
 10
104
 20
116
  0
LWPOLYLINE
  5
124
100
AcDbEntity
  8
0
  6
ByLayer
 62
  256
370
   -1
100
AcDbPolyline
 90
    4
 70
    1
 43
0
 10
4.000000000000014
 20
126
 10
4.000000000000014
 20
136
 10
14.00000000000001
 20
136
 10
14.00000000000001
 20
126
  0
LWPOLYLINE
  5
125
100
AcDbEntity
  8
0
  6
ByLayer
 62
  256
370
   -1
100
AcDbPolyline
 90
    4
 70
    1
 43
0
 10
14.00000000000001
 20
126
 10
14.00000000000001
 20
136
 10
24.00000000000001
 20
136
 10
24.00000000000001
 20
126
  0
LWPOLYLINE
  5
126
100
AcDbEntity
  8
0
  6
ByLayer
 62
  256
370
   -1
100
AcDbPolyline
 90
    4
 70
    1
 43
0
 10
24.00000000000001
 20
126
 10
24.00000000000001
 20
136
 10
34.00000000000001
 20
136
 10
34.00000000000001
 20
126
  0
LWPOLYLINE
  5
127
100
AcDbEntity
  8
0
  6
ByLayer
 62
  256
370
   -1
100
AcDbPolyline
 90
    4
 70
    1
 43
0
 10
34.00000000000001
 20
126
 10
34.00000000000001
 20
136
 10
44.00000000000001
 20
136
 10
44.00000000000001
 20
126
  0
LWPOLYLINE
  5
128
100
AcDbEntity
  8
0
  6
ByLayer
 62
  256
370
   -1
100
AcDbPolyline
 90
    4
 70
    1
 43
0
 10
44.00000000000001
 20
126
 10
44.00000000000001
 20
136
 10
54.00000000000001
 20
136
 10
54.00000000000001
 20
126
  0
LWPOLYLINE
  5
129
100
AcDbEntity
  8
0
  6
ByLayer
 62
  256
370
   -1
100
AcDbPolyline
 90
    4
 70
    1
 43
0
 10
54.00000000000001
 20
126
 10
54.00000000000001
 20
136
 10
64
 20
136
 10
64
 20
126
  0
LWPOLYLINE
  5
12A
100
AcDbEntity
  8
0
  6
ByLayer
 62
  256
370
   -1
100
AcDbPolyline
 90
    4
 70
    1
 43
0
 10
64
 20
126
 10
64
 20
136
 10
74
 20
136
 10
74
 20
126
  0
LWPOLYLINE
  5
12B
100
AcDbEntity
  8
0
  6
ByLayer
 62
  256
370
   -1
100
AcDbPolyline
 90
    4
 70
    1
 43
0
 10
74
 20
126
 10
74
 20
136
 10
84
 20
136
 10
84
 20
126
  0
LWPOLYLINE
  5
12C
100
AcDbEntity
  8
0
  6
ByLayer
 62
  256
370
   -1
100
AcDbPolyline
 90
    4
 70
    1
 43
0
 10
84
 20
126
 10
84
 20
136
 10
94
 20
136
 10
94
 20
126
  0
LWPOLYLINE
  5
12D
100
AcDbEntity
  8
0
  6
ByLayer
 62
  256
370
   -1
100
AcDbPolyline
 90
    4
 70
    1
 43
0
 10
94
 20
126
 10
94
 20
136
 10
104
 20
136
 10
104
 20
126
  0
LWPOLYLINE
  5
12E
100
AcDbEntity
  8
0
  6
ByLayer
 62
  256
370
   -1
100
AcDbPolyline
 90
    4
 70
    1
 43
0
 10
4.000000000000014
 20
136
 10
4.000000000000014
 20
146
 10
14.00000000000001
 20
146
 10
14.00000000000001
 20
136
  0
LWPOLYLINE
  5
12F
100
AcDbEntity
  8
0
  6
ByLayer
 62
  256
370
   -1
100
AcDbPolyline
 90
    4
 70
    1
 43
0
 10
14.00000000000001
 20
136
 10
14.00000000000001
 20
146
 10
24.00000000000001
 20
146
 10
24.00000000000001
 20
136
  0
LWPOLYLINE
  5
130
100
AcDbEntity
  8
0
  6
ByLayer
 62
  256
370
   -1
100
AcDbPolyline
 90
    4
 70
    1
 43
0
 10
24.00000000000001
 20
136
 10
24.00000000000001
 20
146
 10
34.00000000000001
 20
146
 10
34.00000000000001
 20
136
  0
LWPOLYLINE
  5
131
100
AcDbEntity
  8
0
  6
ByLayer
 62
  256
370
   -1
100
AcDbPolyline
 90
    4
 70
    1
 43
0
 10
34.00000000000001
 20
136
 10
34.00000000000001
 20
146
 10
44.00000000000001
 20
146
 10
44.00000000000001
 20
136
  0
LWPOLYLINE
  5
132
100
AcDbEntity
  8
0
  6
ByLayer
 62
  256
370
   -1
100
AcDbPolyline
 90
    4
 70
    1
 43
0
 10
44.00000000000001
 20
136
 10
44.00000000000001
 20
146
 10
54.00000000000001
 20
146
 10
54.00000000000001
 20
136
  0
LWPOLYLINE
  5
133
100
AcDbEntity
  8
0
  6
ByLayer
 62
  256
370
   -1
100
AcDbPolyline
 90
    4
 70
    1
 43
0
 10
54.00000000000001
 20
136
 10
54.00000000000001
 20
146
 10
64
 20
146
 10
64
 20
136
  0
LWPOLYLINE
  5
134
100
AcDbEntity
  8
0
  6
ByLayer
 62
  256
370
   -1
100
AcDbPolyline
 90
    4
 70
    1
 43
0
 10
64
 20
136
 10
64
 20
146
 10
74
 20
146
 10
74
 20
136
  0
LWPOLYLINE
  5
135
100
AcDbEntity
  8
0
  6
ByLayer
 62
  256
370
   -1
100
AcDbPolyline
 90
    4
 70
    1
 43
0
 10
74
 20
136
 10
74
 20
146
 10
84
 20
146
 10
84
 20
136
  0
LWPOLYLINE
  5
136
100
AcDbEntity
  8
0
  6
ByLayer
 62
  256
370
   -1
100
AcDbPolyline
 90
    4
 70
    1
 43
0
 10
84
 20
136
 10
84
 20
146
 10
94.00000000000001
 20
146
 10
94
 20
136
  0
LWPOLYLINE
  5
137
100
AcDbEntity
  8
0
  6
ByLayer
 62
  256
370
   -1
100
AcDbPolyline
 90
    4
 70
    1
 43
0
 10
94
 20
136
 10
94.00000000000001
 20
146
 10
104
 20
146
 10
104
 20
136
  0
LWPOLYLINE
  5
138
100
AcDbEntity
  8
0
  6
ByLayer
 62
  256
370
   -1
100
AcDbPolyline
 90
    4
 70
    1
 43
0
 10
4.000000000000014
 20
146
 10
4.000000000000014
 20
156
 10
14.00000000000001
 20
156
 10
14.00000000000001
 20
146
  0
LWPOLYLINE
  5
139
100
AcDbEntity
  8
0
  6
ByLayer
 62
  256
370
   -1
100
AcDbPolyline
 90
    4
 70
    1
 43
0
 10
14.00000000000001
 20
146
 10
14.00000000000001
 20
156
 10
24.00000000000001
 20
156
 10
24.00000000000001
 20
146
  0
LWPOLYLINE
  5
13A
100
AcDbEntity
  8
0
  6
ByLayer
 62
  256
370
   -1
100
AcDbPolyline
 90
    4
 70
    1
 43
0
 10
34.00000000000001
 20
146
 10
34.00000000000001
 20
156
 10
24.00000000000001
 20
156
 10
24.00000000000001
 20
146
  0
LWPOLYLINE
  5
13B
100
AcDbEntity
  8
0
  6
ByLayer
 62
  256
370
   -1
100
AcDbPolyline
 90
    4
 70
    1
 43
0
 10
34.00000000000001
 20
146
 10
34.00000000000001
 20
156
 10
44.00000000000001
 20
156
 10
44.00000000000001
 20
146
  0
LWPOLYLINE
  5
13C
100
AcDbEntity
  8
0
  6
ByLayer
 62
  256
370
   -1
100
AcDbPolyline
 90
    4
 70
    1
 43
0
 10
44.00000000000001
 20
146
 10
44.00000000000001
 20
156
 10
54.00000000000001
 20
156
 10
54.00000000000001
 20
146
  0
LWPOLYLINE
  5
13D
100
AcDbEntity
  8
0
  6
ByLayer
 62
  256
370
   -1
100
AcDbPolyline
 90
    4
 70
    1
 43
0
 10
54.00000000000001
 20
146
 10
54.00000000000001
 20
156
 10
64
 20
156
 10
64
 20
146
  0
LWPOLYLINE
  5
13E
100
AcDbEntity
  8
0
  6
ByLayer
 62
  256
370
   -1
100
AcDbPolyline
 90
    4
 70
    1
 43
0
 10
64
 20
146
 10
64
 20
156
 10
74.00000000000001
 20
156
 10
74
 20
146
  0
LWPOLYLINE
  5
13F
100
AcDbEntity
  8
0
  6
ByLayer
 62
  256
370
   -1
100
AcDbPolyline
 90
    4
 70
    1
 43
0
 10
74
 20
146
 10
74.00000000000001
 20
156
 10
84.00000000000001
 20
156
 10
84
 20
146
  0
LWPOLYLINE
  5
140
100
AcDbEntity
  8
0
  6
ByLayer
 62
  256
370
   -1
100
AcDbPolyline
 90
    4
 70
    1
 43
0
 10
84
 20
146
 10
84.00000000000001
 20
156
 10
94.00000000000001
 20
156
 10
94.00000000000001
 20
146
  0
LWPOLYLINE
  5
141
100
AcDbEntity
  8
0
  6
ByLayer
 62
  256
370
   -1
100
AcDbPolyline
 90
    4
 70
    1
 43
0
 10
94.00000000000001
 20
146
 10
94.00000000000001
 20
156
 10
104
 20
156
 10
104
 20
146
  0
LWPOLYLINE
  5
142
100
AcDbEntity
  8
0
  6
ByLayer
 62
  256
370
   -1
100
AcDbPolyline
 90
    4
 70
    1
 43
0
 10
4.000000000000014
 20
156
 10
4.000000000000014
 20
166
 10
14.00000000000001
 20
166
 10
14.00000000000001
 20
156
  0
LWPOLYLINE
  5
143
100
AcDbEntity
  8
0
  6
ByLayer
 62
  256
370
   -1
100
AcDbPolyline
 90
    4
 70
    1
 43
0
 10
14.00000000000001
 20
156
 10
14.00000000000001
 20
166
 10
24.00000000000001
 20
166
 10
24.00000000000001
 20
156
  0
LWPOLYLINE
  5
144
100
AcDbEntity
  8
0
  6
ByLayer
 62
  256
370
   -1
100
AcDbPolyline
 90
    4
 70
    1
 43
0
 10
24.00000000000001
 20
156
 10
24.00000000000001
 20
166
 10
34.00000000000001
 20
166
 10
34.00000000000001
 20
156
  0
LWPOLYLINE
  5
145
100
AcDbEntity
  8
0
  6
ByLayer
 62
  256
370
   -1
100
AcDbPolyline
 90
    4
 70
    1
 43
0
 10
34.00000000000001
 20
156
 10
34.00000000000001
 20
166
 10
44.00000000000001
 20
166
 10
44.00000000000001
 20
156
  0
LWPOLYLINE
  5
146
100
AcDbEntity
  8
0
  6
ByLayer
 62
  256
370
   -1
100
AcDbPolyline
 90
    4
 70
    1
 43
0
 10
44.00000000000001
 20
156
 10
44.00000000000001
 20
166
 10
54.00000000000001
 20
166
 10
54.00000000000001
 20
156
  0
LWPOLYLINE
  5
147
100
AcDbEntity
  8
0
  6
ByLayer
 62
  256
370
   -1
100
AcDbPolyline
 90
    4
 70
    1
 43
0
 10
54.00000000000001
 20
156
 10
54.00000000000001
 20
166
 10
64
 20
166
 10
64
 20
156
  0
LWPOLYLINE
  5
148
100
AcDbEntity
  8
0
  6
ByLayer
 62
  256
370
   -1
100
AcDbPolyline
 90
    4
 70
    1
 43
0
 10
64
 20
156
 10
64
 20
166
 10
74.00000000000001
 20
166
 10
74.00000000000001
 20
156
  0
LWPOLYLINE
  5
149
100
AcDbEntity
  8
0
  6
ByLayer
 62
  256
370
   -1
100
AcDbPolyline
 90
    4
 70
    1
 43
0
 10
74.00000000000001
 20
156
 10
74.00000000000001
 20
166
 10
84.00000000000001
 20
166
 10
84.00000000000001
 20
156
  0
LWPOLYLINE
  5
14A
100
AcDbEntity
  8
0
  6
ByLayer
 62
  256
370
   -1
100
AcDbPolyline
 90
    4
 70
    1
 43
0
 10
84.00000000000001
 20
156
 10
84.00000000000001
 20
166
 10
94.00000000000001
 20
166
 10
94.00000000000001
 20
156
  0
LWPOLYLINE
  5
14B
100
AcDbEntity
  8
0
  6
ByLayer
 62
  256
370
   -1
100
AcDbPolyline
 90
    4
 70
    1
 43
0
 10
94.00000000000001
 20
156
 10
94.00000000000001
 20
166
 10
104
 20
166
 10
104
 20
156
  0
LWPOLYLINE
  5
14C
100
AcDbEntity
  8
0
  6
ByLayer
 62
  256
370
   -1
100
AcDbPolyline
 90
    4
 70
    1
 43
0
 10
4.000000000000014
 20
166
 10
4.000000000000014
 20
176
 10
14.00000000000001
 20
176
 10
14.00000000000001
 20
166
  0
LWPOLYLINE
  5
14D
100
AcDbEntity
  8
0
  6
ByLayer
 62
  256
370
   -1
100
AcDbPolyline
 90
    4
 70
    1
 43
0
 10
14.00000000000001
 20
166
 10
14.00000000000001
 20
176
 10
24.00000000000001
 20
176
 10
24.00000000000001
 20
166
  0
LWPOLYLINE
  5
14E
100
AcDbEntity
  8
0
  6
ByLayer
 62
  256
370
   -1
100
AcDbPolyline
 90
    4
 70
    1
 43
0
 10
24.00000000000001
 20
166
 10
24.00000000000001
 20
176
 10
34.00000000000001
 20
176
 10
34.00000000000001
 20
166
  0
LWPOLYLINE
  5
14F
100
AcDbEntity
  8
0
  6
ByLayer
 62
  256
370
   -1
100
AcDbPolyline
 90
    4
 70
    1
 43
0
 10
34.00000000000001
 20
176
 10
34.00000000000001
 20
176
 10
44.00000000000001
 20
176
 10
44.00000000000001
 20
176
  0
LWPOLYLINE
  5
150
100
AcDbEntity
  8
0
  6
ByLayer
 62
  256
370
   -1
100
AcDbPolyline
 90
    4
 70
    1
 43
0
 10
44.00000000000001
 20
166
 10
44.00000000000001
 20
176
 10
54.00000000000001
 20
176
 10
54.00000000000001
 20
166
  0
LWPOLYLINE
  5
151
100
AcDbEntity
  8
0
  6
ByLayer
 62
  256
370
   -1
100
AcDbPolyline
 90
    4
 70
    1
 43
0
 10
54.00000000000001
 20
166
 10
54.00000000000001
 20
176
 10
64
 20
176
 10
64
 20
166
  0
LWPOLYLINE
  5
152
100
AcDbEntity
  8
0
  6
ByLayer
 62
  256
370
   -1
100
AcDbPolyline
 90
    4
 70
    1
 43
0
 10
64
 20
166
 10
64
 20
176
 10
74.00000000000001
 20
176
 10
74.00000000000001
 20
166
  0
LWPOLYLINE
  5
153
100
AcDbEntity
  8
0
  6
ByLayer
 62
  256
370
   -1
100
AcDbPolyline
 90
    4
 70
    1
 43
0
 10
74.00000000000001
 20
166
 10
74.00000000000001
 20
176
 10
84.00000000000001
 20
176
 10
84.00000000000001
 20
166
  0
LWPOLYLINE
  5
154
100
AcDbEntity
  8
0
  6
ByLayer
 62
  256
370
   -1
100
AcDbPolyline
 90
    4
 70
    1
 43
0
 10
84.00000000000001
 20
166
 10
84.00000000000001
 20
176
 10
94.00000000000001
 20
176
 10
94.00000000000001
 20
166
  0
LWPOLYLINE
  5
155
100
AcDbEntity
  8
0
  6
ByLayer
 62
  256
370
   -1
100
AcDbPolyline
 90
    4
 70
    1
 43
0
 10
94.00000000000001
 20
176
 10
94.00000000000001
 20
176
 10
104
 20
176
 10
104
 20
176
  0
LWPOLYLINE
  5
156
100
AcDbEntity
  8
0
  6
ByLayer
 62
  256
370
   -1
100
AcDbPolyline
 90
    4
 70
    1
 43
0
 10
14.00000000000001
 20
176
 10
14.00000000000001
 20
186
 10
4.000000000000014
 20
186
 10
4.000000000000014
 20
176
  0
LWPOLYLINE
  5
157
100
AcDbEntity
  8
0
  6
ByLayer
 62
  256
370
   -1
100
AcDbPolyline
 90
    4
 70
    1
 43
0
 10
24.00000000000001
 20
176
 10
24.00000000000001
 20
186
 10
14.00000000000001
 20
186
 10
14.00000000000001
 20
176
  0
LWPOLYLINE
  5
158
100
AcDbEntity
  8
0
  6
ByLayer
 62
  256
370
   -1
100
AcDbPolyline
 90
    4
 70
    1
 43
0
 10
34.00000000000001
 20
176
 10
34.00000000000001
 20
186
 10
24.00000000000001
 20
186
 10
24.00000000000001
 20
176
  0
LWPOLYLINE
  5
159
100
AcDbEntity
  8
0
  6
ByLayer
 62
  256
370
   -1
100
AcDbPolyline
 90
    4
 70
    1
 43
0
 10
54.00000000000001
 20
176
 10
54.00000000000001
 20
186
 10
44.00000000000001
 20
186
 10
44.00000000000001
 20
176
  0
LWPOLYLINE
  5
15A
100
AcDbEntity
  8
0
  6
ByLayer
 62
  256
370
   -1
100
AcDbPolyline
 90
    4
 70
    1
 43
0
 10
64
 20
176
 10
64
 20
186
 10
54.00000000000001
 20
186
 10
54.00000000000001
 20
176
  0
LWPOLYLINE
  5
15B
100
AcDbEntity
  8
0
  6
ByLayer
 62
  256
370
   -1
100
AcDbPolyline
 90
    4
 70
    1
 43
0
 10
74.00000000000001
 20
176
 10
74.00000000000001
 20
186
 10
64
 20
186
 10
64
 20
176
  0
LWPOLYLINE
  5
15C
100
AcDbEntity
  8
0
  6
ByLayer
 62
  256
370
   -1
100
AcDbPolyline
 90
    4
 70
    1
 43
0
 10
84.00000000000001
 20
176
 10
84.00000000000001
 20
186
 10
74.00000000000001
 20
186
 10
74.00000000000001
 20
176
  0
LWPOLYLINE
  5
15D
100
AcDbEntity
  8
0
  6
ByLayer
 62
  256
370
   -1
100
AcDbPolyline
 90
    4
 70
    1
 43
0
 10
94.00000000000001
 20
176
 10
94.00000000000001
 20
186
 10
84.00000000000001
 20
186
 10
84.00000000000001
 20
176
  0
LWPOLYLINE
  5
15E
100
AcDbEntity
  8
0
  6
ByLayer
 62
  256
370
   -1
100
AcDbPolyline
 90
    4
 70
    1
 43
0
 10
94.00000000000001
 20
166
 10
94.00000000000001
 20
176
 10
104
 20
176
 10
104
 20
166
  0
LWPOLYLINE
  5
15F
100
AcDbEntity
  8
0
  6
ByLayer
 62
  256
370
   -1
100
AcDbPolyline
 90
    4
 70
    1
 43
0
 10
94.00000000000001
 20
176
 10
94.00000000000001
 20
186
 10
104
 20
186
 10
104
 20
176
  0
LWPOLYLINE
  5
160
100
AcDbEntity
  8
0
  6
ByLayer
 62
  256
370
   -1
100
AcDbPolyline
 90
    4
 70
    1
 43
0
 10
4.000000000000014
 20
186
 10
4.000000000000014
 20
196
 10
14.00000000000001
 20
196
 10
14.00000000000001
 20
186
  0
LWPOLYLINE
  5
161
100
AcDbEntity
  8
0
  6
ByLayer
 62
  256
370
   -1
100
AcDbPolyline
 90
    4
 70
    1
 43
0
 10
14.00000000000001
 20
186
 10
14.00000000000001
 20
196
 10
24.00000000000001
 20
196
 10
24.00000000000001
 20
186
  0
LWPOLYLINE
  5
162
100
AcDbEntity
  8
0
  6
ByLayer
 62
  256
370
   -1
100
AcDbPolyline
 90
    4
 70
    1
 43
0
 10
24.00000000000001
 20
186
 10
24.00000000000001
 20
196
 10
34.00000000000001
 20
196
 10
34.00000000000001
 20
186
  0
LWPOLYLINE
  5
163
100
AcDbEntity
  8
0
  6
ByLayer
 62
  256
370
   -1
100
AcDbPolyline
 90
    4
 70
    1
 43
0
 10
34.00000000000001
 20
186
 10
34.00000000000001
 20
196
 10
44.00000000000001
 20
196
 10
44.00000000000001
 20
186
  0
LWPOLYLINE
  5
164
100
AcDbEntity
  8
0
  6
ByLayer
 62
  256
370
   -1
100
AcDbPolyline
 90
    4
 70
    1
 43
0
 10
44.00000000000001
 20
186
 10
44.00000000000001
 20
196
 10
54.00000000000001
 20
196
 10
54.00000000000001
 20
186
  0
LWPOLYLINE
  5
165
100
AcDbEntity
  8
0
  6
ByLayer
 62
  256
370
   -1
100
AcDbPolyline
 90
    4
 70
    1
 43
0
 10
54.00000000000001
 20
186
 10
54.00000000000001
 20
196
 10
64
 20
196
 10
64
 20
186
  0
LWPOLYLINE
  5
166
100
AcDbEntity
  8
0
  6
ByLayer
 62
  256
370
   -1
100
AcDbPolyline
 90
    4
 70
    1
 43
0
 10
64
 20
186
 10
64
 20
196
 10
74.00000000000001
 20
196
 10
74.00000000000001
 20
186
  0
LWPOLYLINE
  5
167
100
AcDbEntity
  8
0
  6
ByLayer
 62
  256
370
   -1
100
AcDbPolyline
 90
    4
 70
    1
 43
0
 10
74.00000000000001
 20
186
 10
74.00000000000001
 20
196
 10
84.00000000000001
 20
196
 10
84.00000000000001
 20
186
  0
LWPOLYLINE
  5
168
100
AcDbEntity
  8
0
  6
ByLayer
 62
  256
370
   -1
100
AcDbPolyline
 90
    4
 70
    1
 43
0
 10
84.00000000000001
 20
186
 10
84.00000000000001
 20
196
 10
94.00000000000001
 20
196
 10
94.00000000000001
 20
186
  0
LWPOLYLINE
  5
169
100
AcDbEntity
  8
0
  6
ByLayer
 62
  256
370
   -1
100
AcDbPolyline
 90
    4
 70
    1
 43
0
 10
94.00000000000001
 20
186
 10
94.00000000000001
 20
196
 10
104
 20
196
 10
104
 20
186
  0
LWPOLYLINE
  5
16A
100
AcDbEntity
  8
0
  6
ByLayer
 62
  256
370
   -1
100
AcDbPolyline
 90
    4
 70
    1
 43
0
 10
4.000000000000014
 20
196
 10
4.000000000000014
 20
206
 10
14.00000000000001
 20
206
 10
14.00000000000001
 20
196
  0
LWPOLYLINE
  5
16B
100
AcDbEntity
  8
0
  6
ByLayer
 62
  256
370
   -1
100
AcDbPolyline
 90
    4
 70
    1
 43
0
 10
14.00000000000001
 20
196
 10
14.00000000000001
 20
206
 10
24.00000000000001
 20
206
 10
24.00000000000001
 20
196
  0
LWPOLYLINE
  5
16C
100
AcDbEntity
  8
0
  6
ByLayer
 62
  256
370
   -1
100
AcDbPolyline
 90
    4
 70
    1
 43
0
 10
24.00000000000001
 20
196
 10
24.00000000000001
 20
206
 10
34.00000000000001
 20
206
 10
34.00000000000001
 20
196
  0
LWPOLYLINE
  5
16D
100
AcDbEntity
  8
0
  6
ByLayer
 62
  256
370
   -1
100
AcDbPolyline
 90
    4
 70
    1
 43
0
 10
34.00000000000001
 20
196
 10
34.00000000000001
 20
206
 10
44.00000000000001
 20
206
 10
44.00000000000001
 20
196
  0
LWPOLYLINE
  5
16E
100
AcDbEntity
  8
0
  6
ByLayer
 62
  256
370
   -1
100
AcDbPolyline
 90
    4
 70
    1
 43
0
 10
44.00000000000001
 20
196
 10
44.00000000000001
 20
206
 10
54.00000000000001
 20
206
 10
54.00000000000001
 20
196
  0
LWPOLYLINE
  5
16F
100
AcDbEntity
  8
0
  6
ByLayer
 62
  256
370
   -1
100
AcDbPolyline
 90
    4
 70
    1
 43
0
 10
64
 20
196
 10
64
 20
206
 10
74.00000000000001
 20
206
 10
74.00000000000001
 20
196
  0
LWPOLYLINE
  5
170
100
AcDbEntity
  8
0
  6
ByLayer
 62
  256
370
   -1
100
AcDbPolyline
 90
    4
 70
    1
 43
0
 10
74.00000000000001
 20
196
 10
74.00000000000001
 20
206
 10
84.00000000000001
 20
206
 10
84.00000000000001
 20
196
  0
LWPOLYLINE
  5
171
100
AcDbEntity
  8
0
  6
ByLayer
 62
  256
370
   -1
100
AcDbPolyline
 90
    4
 70
    1
 43
0
 10
84.00000000000001
 20
196
 10
84.00000000000001
 20
206
 10
94.00000000000001
 20
206
 10
94.00000000000001
 20
196
  0
LWPOLYLINE
  5
172
100
AcDbEntity
  8
0
  6
ByLayer
 62
  256
370
   -1
100
AcDbPolyline
 90
    4
 70
    1
 43
0
 10
94.00000000000001
 20
196
 10
94.00000000000001
 20
206
 10
104
 20
206
 10
104
 20
196
  0
LWPOLYLINE
  5
173
100
AcDbEntity
  8
0
  6
ByLayer
 62
  256
370
   -1
100
AcDbPolyline
 90
    4
 70
    1
 43
0
 10
4.000000000000014
 20
206
 10
4.000000000000014
 20
216
 10
14.00000000000001
 20
216
 10
14.00000000000001
 20
206
  0
LWPOLYLINE
  5
174
100
AcDbEntity
  8
0
  6
ByLayer
 62
  256
370
   -1
100
AcDbPolyline
 90
    4
 70
    1
 43
0
 10
14.00000000000001
 20
206
 10
14.00000000000001
 20
216
 10
24.00000000000001
 20
216
 10
24.00000000000001
 20
206
  0
LWPOLYLINE
  5
175
100
AcDbEntity
  8
0
  6
ByLayer
 62
  256
370
   -1
100
AcDbPolyline
 90
    4
 70
    1
 43
0
 10
24.00000000000001
 20
206
 10
24.00000000000001
 20
216
 10
34.00000000000001
 20
216
 10
34.00000000000001
 20
206
  0
LWPOLYLINE
  5
176
100
AcDbEntity
  8
0
  6
ByLayer
 62
  256
370
   -1
100
AcDbPolyline
 90
    4
 70
    1
 43
0
 10
44.00000000000001
 20
206
 10
44.00000000000001
 20
216
 10
54.00000000000001
 20
216
 10
54.00000000000001
 20
206
  0
LWPOLYLINE
  5
177
100
AcDbEntity
  8
0
  6
ByLayer
 62
  256
370
   -1
100
AcDbPolyline
 90
    4
 70
    1
 43
0
 10
54.00000000000001
 20
206
 10
54.00000000000001
 20
216
 10
64
 20
216
 10
64
 20
206
  0
LWPOLYLINE
  5
178
100
AcDbEntity
  8
0
  6
ByLayer
 62
  256
370
   -1
100
AcDbPolyline
 90
    4
 70
    1
 43
0
 10
74.00000000000001
 20
206
 10
74.00000000000001
 20
216
 10
84.00000000000001
 20
216
 10
84.00000000000001
 20
206
  0
LWPOLYLINE
  5
179
100
AcDbEntity
  8
0
  6
ByLayer
 62
  256
370
   -1
100
AcDbPolyline
 90
    4
 70
    1
 43
0
 10
84.00000000000001
 20
206
 10
84.00000000000001
 20
216
 10
94.00000000000001
 20
216
 10
94.00000000000001
 20
206
  0
LWPOLYLINE
  5
17A
100
AcDbEntity
  8
0
  6
ByLayer
 62
  256
370
   -1
100
AcDbPolyline
 90
    4
 70
    1
 43
0
 10
94.00000000000001
 20
206
 10
94.00000000000001
 20
216
 10
104
 20
216
 10
104
 20
206
  0
LWPOLYLINE
  5
17B
100
AcDbEntity
  8
0
  6
ByLayer
 62
  256
370
   -1
100
AcDbPolyline
 90
    4
 70
    1
 43
0
 10
4.000000000000014
 20
216
 10
4.000000000000014
 20
226
 10
14.00000000000001
 20
226
 10
14.00000000000001
 20
216
  0
LWPOLYLINE
  5
17C
100
AcDbEntity
  8
0
  6
ByLayer
 62
  256
370
   -1
100
AcDbPolyline
 90
    4
 70
    1
 43
0
 10
14.00000000000001
 20
216
 10
14.00000000000001
 20
226
 10
24.00000000000001
 20
226
 10
24.00000000000001
 20
216
  0
LWPOLYLINE
  5
17D
100
AcDbEntity
  8
0
  6
ByLayer
 62
  256
370
   -1
100
AcDbPolyline
 90
    4
 70
    1
 43
0
 10
24.00000000000001
 20
216
 10
24.00000000000001
 20
226
 10
34.00000000000001
 20
226
 10
34.00000000000001
 20
216
  0
LWPOLYLINE
  5
17E
100
AcDbEntity
  8
0
  6
ByLayer
 62
  256
370
   -1
100
AcDbPolyline
 90
    4
 70
    1
 43
0
 10
44.00000000000001
 20
216
 10
44.00000000000001
 20
226
 10
54.00000000000001
 20
226
 10
54.00000000000001
 20
216
  0
LWPOLYLINE
  5
17F
100
AcDbEntity
  8
0
  6
ByLayer
 62
  256
370
   -1
100
AcDbPolyline
 90
    4
 70
    1
 43
0
 10
54.00000000000001
 20
216
 10
54.00000000000001
 20
226
 10
64
 20
226
 10
64
 20
216
  0
LWPOLYLINE
  5
180
100
AcDbEntity
  8
0
  6
ByLayer
 62
  256
370
   -1
100
AcDbPolyline
 90
    4
 70
    1
 43
0
 10
74.00000000000001
 20
216
 10
74.00000000000001
 20
226
 10
84.00000000000001
 20
226
 10
84.00000000000001
 20
216
  0
LWPOLYLINE
  5
181
100
AcDbEntity
  8
0
  6
ByLayer
 62
  256
370
   -1
100
AcDbPolyline
 90
    4
 70
    1
 43
0
 10
84.00000000000001
 20
216
 10
84.00000000000001
 20
226
 10
94.00000000000001
 20
226
 10
94.00000000000001
 20
216
  0
LWPOLYLINE
  5
182
100
AcDbEntity
  8
0
  6
ByLayer
 62
  256
370
   -1
100
AcDbPolyline
 90
    4
 70
    1
 43
0
 10
94.00000000000001
 20
216
 10
94.00000000000001
 20
226
 10
104
 20
226
 10
104
 20
216
  0
LWPOLYLINE
  5
183
100
AcDbEntity
  8
0
  6
ByLayer
 62
  256
370
   -1
100
AcDbPolyline
 90
    4
 70
    1
 43
0
 10
4.000000000000014
 20
226
 10
4.000000000000014
 20
236
 10
14.00000000000001
 20
236
 10
14.00000000000001
 20
226
  0
LWPOLYLINE
  5
184
100
AcDbEntity
  8
0
  6
ByLayer
 62
  256
370
   -1
100
AcDbPolyline
 90
    4
 70
    1
 43
0
 10
14.00000000000001
 20
226
 10
14.00000000000001
 20
236
 10
24.00000000000001
 20
236
 10
24.00000000000001
 20
226
  0
LWPOLYLINE
  5
185
100
AcDbEntity
  8
0
  6
ByLayer
 62
  256
370
   -1
100
AcDbPolyline
 90
    4
 70
    1
 43
0
 10
24.00000000000001
 20
226
 10
24.00000000000001
 20
236
 10
34.00000000000001
 20
236
 10
34.00000000000001
 20
226
  0
LWPOLYLINE
  5
186
100
AcDbEntity
  8
0
  6
ByLayer
 62
  256
370
   -1
100
AcDbPolyline
 90
    4
 70
    1
 43
0
 10
34.00000000000001
 20
226
 10
34.00000000000001
 20
236
 10
44.00000000000001
 20
236
 10
44.00000000000001
 20
226
  0
LWPOLYLINE
  5
187
100
AcDbEntity
  8
0
  6
ByLayer
 62
  256
370
   -1
100
AcDbPolyline
 90
    4
 70
    1
 43
0
 10
44.00000000000001
 20
226
 10
44.00000000000001
 20
236
 10
54.00000000000001
 20
236
 10
54.00000000000001
 20
226
  0
LWPOLYLINE
  5
188
100
AcDbEntity
  8
0
  6
ByLayer
 62
  256
370
   -1
100
AcDbPolyline
 90
    4
 70
    1
 43
0
 10
54.00000000000001
 20
226
 10
54.00000000000001
 20
236
 10
64
 20
236
 10
64
 20
226
  0
LWPOLYLINE
  5
189
100
AcDbEntity
  8
0
  6
ByLayer
 62
  256
370
   -1
100
AcDbPolyline
 90
    4
 70
    1
 43
0
 10
74.00000000000001
 20
226
 10
74.00000000000001
 20
236
 10
84.00000000000001
 20
236
 10
84.00000000000001
 20
226
  0
LWPOLYLINE
  5
18A
100
AcDbEntity
  8
0
  6
ByLayer
 62
  256
370
   -1
100
AcDbPolyline
 90
    4
 70
    1
 43
0
 10
84.00000000000001
 20
226
 10
84.00000000000001
 20
236
 10
94.00000000000001
 20
236
 10
94.00000000000001
 20
226
  0
LWPOLYLINE
  5
18B
100
AcDbEntity
  8
0
  6
ByLayer
 62
  256
370
   -1
100
AcDbPolyline
 90
    4
 70
    1
 43
0
 10
94.00000000000001
 20
226
 10
94.00000000000001
 20
236
 10
104
 20
236
 10
104
 20
226
  0
LWPOLYLINE
  5
18C
100
AcDbEntity
  8
0
  6
ByLayer
 62
  256
370
   -1
100
AcDbPolyline
 90
    4
 70
    1
 43
0
 10
4.000000000000014
 20
236
 10
4.000000000000014
 20
246
 10
14.00000000000001
 20
246
 10
14.00000000000001
 20
236
  0
LWPOLYLINE
  5
18D
100
AcDbEntity
  8
0
  6
ByLayer
 62
  256
370
   -1
100
AcDbPolyline
 90
    4
 70
    1
 43
0
 10
14.00000000000001
 20
236
 10
14.00000000000001
 20
246
 10
24.00000000000001
 20
246
 10
24.00000000000001
 20
236
  0
LWPOLYLINE
  5
18E
100
AcDbEntity
  8
0
  6
ByLayer
 62
  256
370
   -1
100
AcDbPolyline
 90
    4
 70
    1
 43
0
 10
24.00000000000001
 20
236
 10
24.00000000000001
 20
246
 10
34.00000000000001
 20
246
 10
34.00000000000001
 20
236
  0
LWPOLYLINE
  5
18F
100
AcDbEntity
  8
0
  6
ByLayer
 62
  256
370
   -1
100
AcDbPolyline
 90
    4
 70
    1
 43
0
 10
34.00000000000001
 20
236
 10
34.00000000000001
 20
246
 10
44.00000000000001
 20
246
 10
44.00000000000001
 20
236
  0
LWPOLYLINE
  5
190
100
AcDbEntity
  8
0
  6
ByLayer
 62
  256
370
   -1
100
AcDbPolyline
 90
    4
 70
    1
 43
0
 10
44.00000000000001
 20
236
 10
44.00000000000001
 20
246
 10
54.00000000000001
 20
246
 10
54.00000000000001
 20
236
  0
LWPOLYLINE
  5
191
100
AcDbEntity
  8
0
  6
ByLayer
 62
  256
370
   -1
100
AcDbPolyline
 90
    4
 70
    1
 43
0
 10
54.00000000000001
 20
236
 10
54.00000000000001
 20
246
 10
64
 20
246
 10
64
 20
236
  0
LWPOLYLINE
  5
192
100
AcDbEntity
  8
0
  6
ByLayer
 62
  256
370
   -1
100
AcDbPolyline
 90
    4
 70
    1
 43
0
 10
74.00000000000001
 20
236
 10
74.00000000000001
 20
246
 10
84.00000000000001
 20
246
 10
84.00000000000001
 20
236
  0
LWPOLYLINE
  5
193
100
AcDbEntity
  8
0
  6
ByLayer
 62
  256
370
   -1
100
AcDbPolyline
 90
    4
 70
    1
 43
0
 10
84.00000000000001
 20
236
 10
84.00000000000001
 20
246
 10
94.00000000000001
 20
246
 10
94.00000000000001
 20
236
  0
LWPOLYLINE
  5
194
100
AcDbEntity
  8
0
  6
ByLayer
 62
  256
370
   -1
100
AcDbPolyline
 90
    4
 70
    1
 43
0
 10
94.00000000000001
 20
236
 10
94.00000000000001
 20
246
 10
104
 20
246
 10
104
 20
236
  0
LWPOLYLINE
  5
195
100
AcDbEntity
  8
0
  6
ByLayer
 62
  256
370
   -1
100
AcDbPolyline
 90
    4
 70
    1
 43
0
 10
4.000000000000014
 20
246
 10
4.000000000000014
 20
256
 10
14.00000000000001
 20
256
 10
14.00000000000001
 20
246
  0
LWPOLYLINE
  5
196
100
AcDbEntity
  8
0
  6
ByLayer
 62
  256
370
   -1
100
AcDbPolyline
 90
    4
 70
    1
 43
0
 10
14.00000000000001
 20
246
 10
14.00000000000001
 20
256
 10
24.00000000000001
 20
256
 10
24.00000000000001
 20
246
  0
LWPOLYLINE
  5
197
100
AcDbEntity
  8
0
  6
ByLayer
 62
  256
370
   -1
100
AcDbPolyline
 90
    4
 70
    1
 43
0
 10
34.00000000000001
 20
246
 10
34.00000000000001
 20
256
 10
24.00000000000001
 20
256
 10
24.00000000000001
 20
246
  0
LWPOLYLINE
  5
198
100
AcDbEntity
  8
0
  6
ByLayer
 62
  256
370
   -1
100
AcDbPolyline
 90
    4
 70
    1
 43
0
 10
34.00000000000001
 20
246
 10
34.00000000000001
 20
256
 10
44.00000000000001
 20
256
 10
44.00000000000001
 20
246
  0
LWPOLYLINE
  5
199
100
AcDbEntity
  8
0
  6
ByLayer
 62
  256
370
   -1
100
AcDbPolyline
 90
    4
 70
    1
 43
0
 10
44.00000000000001
 20
246
 10
44.00000000000001
 20
256
 10
54.00000000000001
 20
256
 10
54.00000000000001
 20
246
  0
LWPOLYLINE
  5
19A
100
AcDbEntity
  8
0
  6
ByLayer
 62
  256
370
   -1
100
AcDbPolyline
 90
    4
 70
    1
 43
0
 10
54.00000000000001
 20
246
 10
54.00000000000001
 20
256
 10
64
 20
256
 10
64
 20
246
  0
LWPOLYLINE
  5
19B
100
AcDbEntity
  8
0
  6
ByLayer
 62
  256
370
   -1
100
AcDbPolyline
 90
    4
 70
    1
 43
0
 10
74.00000000000001
 20
246
 10
74.00000000000001
 20
256
 10
84.00000000000001
 20
256
 10
84.00000000000001
 20
246
  0
LWPOLYLINE
  5
19C
100
AcDbEntity
  8
0
  6
ByLayer
 62
  256
370
   -1
100
AcDbPolyline
 90
    4
 70
    1
 43
0
 10
84.00000000000001
 20
246
 10
84.00000000000001
 20
256
 10
94.00000000000001
 20
256
 10
94.00000000000001
 20
246
  0
LWPOLYLINE
  5
19D
100
AcDbEntity
  8
0
  6
ByLayer
 62
  256
370
   -1
100
AcDbPolyline
 90
    4
 70
    1
 43
0
 10
94.00000000000001
 20
246
 10
94.00000000000001
 20
256
 10
104
 20
256
 10
104
 20
246
  0
LWPOLYLINE
  5
19E
100
AcDbEntity
  8
0
  6
ByLayer
 62
  256
370
   -1
100
AcDbPolyline
 90
    4
 70
    1
 43
0
 10
4.000000000000014
 20
256
 10
4.000000000000014
 20
266
 10
14.00000000000001
 20
266
 10
14.00000000000001
 20
256
  0
LWPOLYLINE
  5
19F
100
AcDbEntity
  8
0
  6
ByLayer
 62
  256
370
   -1
100
AcDbPolyline
 90
    4
 70
    1
 43
0
 10
14.00000000000001
 20
256
 10
14.00000000000001
 20
266
 10
24.00000000000001
 20
266
 10
24.00000000000001
 20
256
  0
LWPOLYLINE
  5
1A0
100
AcDbEntity
  8
0
  6
ByLayer
 62
  256
370
   -1
100
AcDbPolyline
 90
    4
 70
    1
 43
0
 10
24.00000000000001
 20
256
 10
24.00000000000001
 20
266
 10
34.00000000000001
 20
266
 10
34.00000000000001
 20
256
  0
LWPOLYLINE
  5
1A1
100
AcDbEntity
  8
0
  6
ByLayer
 62
  256
370
   -1
100
AcDbPolyline
 90
    4
 70
    1
 43
0
 10
34.00000000000001
 20
256
 10
34.00000000000001
 20
266
 10
44.00000000000001
 20
266
 10
44.00000000000001
 20
256
  0
LWPOLYLINE
  5
1A2
100
AcDbEntity
  8
0
  6
ByLayer
 62
  256
370
   -1
100
AcDbPolyline
 90
    4
 70
    1
 43
0
 10
44.00000000000001
 20
256
 10
44.00000000000001
 20
266
 10
54.00000000000001
 20
266
 10
54.00000000000001
 20
256
  0
LWPOLYLINE
  5
1A3
100
AcDbEntity
  8
0
  6
ByLayer
 62
  256
370
   -1
100
AcDbPolyline
 90
    4
 70
    1
 43
0
 10
54.00000000000001
 20
256
 10
54.00000000000001
 20
266
 10
64
 20
266
 10
64
 20
256
  0
LWPOLYLINE
  5
1A4
100
AcDbEntity
  8
0
  6
ByLayer
 62
  256
370
   -1
100
AcDbPolyline
 90
    4
 70
    1
 43
0
 10
94.00000000000001
 20
256
 10
94.00000000000001
 20
266
 10
104
 20
266
 10
104
 20
256
  0
LWPOLYLINE
  5
1A5
100
AcDbEntity
  8
0
  6
ByLayer
 62
  256
370
   -1
100
AcDbPolyline
 90
    4
 70
    1
 43
0
 10
4.000000000000014
 20
266
 10
4.000000000000014
 20
276
 10
14.00000000000001
 20
276
 10
14.00000000000001
 20
266
  0
LWPOLYLINE
  5
1A6
100
AcDbEntity
  8
0
  6
ByLayer
 62
  256
370
   -1
100
AcDbPolyline
 90
    4
 70
    1
 43
0
 10
14.00000000000001
 20
266
 10
14.00000000000001
 20
276
 10
24.00000000000001
 20
276
 10
24.00000000000001
 20
266
  0
LWPOLYLINE
  5
1A7
100
AcDbEntity
  8
0
  6
ByLayer
 62
  256
370
   -1
100
AcDbPolyline
 90
    4
 70
    1
 43
0
 10
24.00000000000001
 20
266
 10
24.00000000000001
 20
276
 10
34.00000000000001
 20
276
 10
34.00000000000001
 20
266
  0
LWPOLYLINE
  5
1A8
100
AcDbEntity
  8
0
  6
ByLayer
 62
  256
370
   -1
100
AcDbPolyline
 90
    4
 70
    1
 43
0
 10
34.00000000000001
 20
276
 10
34.00000000000001
 20
276
 10
44.00000000000001
 20
276
 10
44.00000000000001
 20
276
  0
LWPOLYLINE
  5
1A9
100
AcDbEntity
  8
0
  6
ByLayer
 62
  256
370
   -1
100
AcDbPolyline
 90
    4
 70
    1
 43
0
 10
44.00000000000001
 20
266
 10
44.00000000000001
 20
276
 10
54.00000000000001
 20
276
 10
54.00000000000001
 20
266
  0
LWPOLYLINE
  5
1AA
100
AcDbEntity
  8
0
  6
ByLayer
 62
  256
370
   -1
100
AcDbPolyline
 90
    4
 70
    1
 43
0
 10
54.00000000000001
 20
266
 10
54.00000000000001
 20
276
 10
64
 20
276
 10
64
 20
266
  0
LWPOLYLINE
  5
1AB
100
AcDbEntity
  8
0
  6
ByLayer
 62
  256
370
   -1
100
AcDbPolyline
 90
    4
 70
    1
 43
0
 10
64
 20
266
 10
64
 20
276
 10
74.00000000000001
 20
276
 10
74.00000000000001
 20
266
  0
LWPOLYLINE
  5
1AC
100
AcDbEntity
  8
0
  6
ByLayer
 62
  256
370
   -1
100
AcDbPolyline
 90
    4
 70
    1
 43
0
 10
74.00000000000001
 20
266
 10
74.00000000000001
 20
276
 10
84.00000000000001
 20
276
 10
84.00000000000001
 20
266
  0
LWPOLYLINE
  5
1AD
100
AcDbEntity
  8
0
  6
ByLayer
 62
  256
370
   -1
100
AcDbPolyline
 90
    4
 70
    1
 43
0
 10
84.00000000000001
 20
266
 10
84.00000000000001
 20
276
 10
94.00000000000001
 20
276
 10
94.00000000000001
 20
266
  0
LWPOLYLINE
  5
1AE
100
AcDbEntity
  8
0
  6
ByLayer
 62
  256
370
   -1
100
AcDbPolyline
 90
    4
 70
    1
 43
0
 10
94.00000000000001
 20
276
 10
94.00000000000001
 20
276
 10
104
 20
276
 10
104
 20
276
  0
LWPOLYLINE
  5
1AF
100
AcDbEntity
  8
0
  6
ByLayer
 62
  256
370
   -1
100
AcDbPolyline
 90
    4
 70
    1
 43
0
 10
14.00000000000001
 20
276
 10
14.00000000000001
 20
286
 10
4.000000000000014
 20
286
 10
4.000000000000014
 20
276
  0
LWPOLYLINE
  5
1B0
100
AcDbEntity
  8
0
  6
ByLayer
 62
  256
370
   -1
100
AcDbPolyline
 90
    4
 70
    1
 43
0
 10
24.00000000000001
 20
276
 10
24.00000000000001
 20
286
 10
14.00000000000001
 20
286
 10
14.00000000000001
 20
276
  0
LWPOLYLINE
  5
1B1
100
AcDbEntity
  8
0
  6
ByLayer
 62
  256
370
   -1
100
AcDbPolyline
 90
    4
 70
    1
 43
0
 10
34.00000000000001
 20
276
 10
34.00000000000001
 20
286
 10
24.00000000000001
 20
286
 10
24.00000000000001
 20
276
  0
LWPOLYLINE
  5
1B2
100
AcDbEntity
  8
0
  6
ByLayer
 62
  256
370
   -1
100
AcDbPolyline
 90
    4
 70
    1
 43
0
 10
44.00000000000001
 20
276
 10
44.00000000000001
 20
286
 10
34.00000000000001
 20
286
 10
34.00000000000001
 20
276
  0
LWPOLYLINE
  5
1B3
100
AcDbEntity
  8
0
  6
ByLayer
 62
  256
370
   -1
100
AcDbPolyline
 90
    4
 70
    1
 43
0
 10
54.00000000000001
 20
276
 10
54.00000000000001
 20
286
 10
44.00000000000001
 20
286
 10
44.00000000000001
 20
276
  0
LWPOLYLINE
  5
1B4
100
AcDbEntity
  8
0
  6
ByLayer
 62
  256
370
   -1
100
AcDbPolyline
 90
    4
 70
    1
 43
0
 10
64
 20
276
 10
64
 20
286
 10
54.00000000000001
 20
286
 10
54.00000000000001
 20
276
  0
LWPOLYLINE
  5
1B5
100
AcDbEntity
  8
0
  6
ByLayer
 62
  256
370
   -1
100
AcDbPolyline
 90
    4
 70
    1
 43
0
 10
74.00000000000001
 20
276
 10
74.00000000000001
 20
286
 10
64
 20
286
 10
64
 20
276
  0
LWPOLYLINE
  5
1B6
100
AcDbEntity
  8
0
  6
ByLayer
 62
  256
370
   -1
100
AcDbPolyline
 90
    4
 70
    1
 43
0
 10
84.00000000000001
 20
276
 10
84.00000000000001
 20
286
 10
74.00000000000001
 20
286
 10
74.00000000000001
 20
276
  0
LWPOLYLINE
  5
1B7
100
AcDbEntity
  8
0
  6
ByLayer
 62
  256
370
   -1
100
AcDbPolyline
 90
    4
 70
    1
 43
0
 10
94.00000000000001
 20
276
 10
94.00000000000001
 20
286
 10
84.00000000000001
 20
286
 10
84.00000000000001
 20
276
  0
LWPOLYLINE
  5
1B8
100
AcDbEntity
  8
0
  6
ByLayer
 62
  256
370
   -1
100
AcDbPolyline
 90
    4
 70
    1
 43
0
 10
94.00000000000001
 20
266
 10
94.00000000000001
 20
276
 10
104
 20
276
 10
104
 20
266
  0
LWPOLYLINE
  5
1B9
100
AcDbEntity
  8
0
  6
ByLayer
 62
  256
370
   -1
100
AcDbPolyline
 90
    4
 70
    1
 43
0
 10
94.00000000000001
 20
276
 10
94.00000000000001
 20
286
 10
104
 20
286
 10
104
 20
276
  0
LWPOLYLINE
  5
1BA
100
AcDbEntity
  8
0
  6
ByLayer
 62
  256
370
   -1
100
AcDbPolyline
 90
    4
 70
    1
 43
0
 10
4.000000000000014
 20
286
 10
4.000000000000014
 20
296
 10
14.00000000000001
 20
296
 10
14.00000000000001
 20
286
  0
LWPOLYLINE
  5
1BB
100
AcDbEntity
  8
0
  6
ByLayer
 62
  256
370
   -1
100
AcDbPolyline
 90
    4
 70
    1
 43
0
 10
14.00000000000001
 20
286
 10
14.00000000000001
 20
296
 10
24.00000000000001
 20
296
 10
24.00000000000001
 20
286
  0
LWPOLYLINE
  5
1BC
100
AcDbEntity
  8
0
  6
ByLayer
 62
  256
370
   -1
100
AcDbPolyline
 90
    4
 70
    1
 43
0
 10
24.00000000000001
 20
286
 10
24.00000000000001
 20
296
 10
34.00000000000001
 20
296
 10
34.00000000000001
 20
286
  0
LWPOLYLINE
  5
1BD
100
AcDbEntity
  8
0
  6
ByLayer
 62
  256
370
   -1
100
AcDbPolyline
 90
    4
 70
    1
 43
0
 10
34.00000000000001
 20
286
 10
34.00000000000001
 20
296
 10
44.00000000000001
 20
296
 10
44.00000000000001
 20
286
  0
LWPOLYLINE
  5
1BE
100
AcDbEntity
  8
0
  6
ByLayer
 62
  256
370
   -1
100
AcDbPolyline
 90
    4
 70
    1
 43
0
 10
44.00000000000001
 20
286
 10
44.00000000000001
 20
296
 10
54.00000000000001
 20
296
 10
54.00000000000001
 20
286
  0
LWPOLYLINE
  5
1BF
100
AcDbEntity
  8
0
  6
ByLayer
 62
  256
370
   -1
100
AcDbPolyline
 90
    4
 70
    1
 43
0
 10
54.00000000000001
 20
286
 10
54.00000000000001
 20
296
 10
64
 20
296
 10
64
 20
286
  0
LWPOLYLINE
  5
1C0
100
AcDbEntity
  8
0
  6
ByLayer
 62
  256
370
   -1
100
AcDbPolyline
 90
    4
 70
    1
 43
0
 10
64
 20
286
 10
64
 20
296
 10
74.00000000000001
 20
296
 10
74.00000000000001
 20
286
  0
LWPOLYLINE
  5
1C1
100
AcDbEntity
  8
0
  6
ByLayer
 62
  256
370
   -1
100
AcDbPolyline
 90
    4
 70
    1
 43
0
 10
74.00000000000001
 20
286
 10
74.00000000000001
 20
296
 10
84.00000000000001
 20
296
 10
84.00000000000001
 20
286
  0
LWPOLYLINE
  5
1C2
100
AcDbEntity
  8
0
  6
ByLayer
 62
  256
370
   -1
100
AcDbPolyline
 90
    4
 70
    1
 43
0
 10
84.00000000000001
 20
286
 10
84.00000000000001
 20
296
 10
94.00000000000001
 20
296
 10
94.00000000000001
 20
286
  0
LWPOLYLINE
  5
1C3
100
AcDbEntity
  8
0
  6
ByLayer
 62
  256
370
   -1
100
AcDbPolyline
 90
    4
 70
    1
 43
0
 10
94.00000000000001
 20
286
 10
94.00000000000001
 20
296
 10
104
 20
296
 10
104
 20
286
  0
LWPOLYLINE
  5
1C4
100
AcDbEntity
  8
0
  6
ByLayer
 62
  256
370
   -1
100
AcDbPolyline
 90
    4
 70
    1
 43
0
 10
4.000000000000014
 20
296
 10
4.000000000000014
 20
306
 10
14.00000000000001
 20
306
 10
14.00000000000001
 20
296
  0
LWPOLYLINE
  5
1C5
100
AcDbEntity
  8
0
  6
ByLayer
 62
  256
370
   -1
100
AcDbPolyline
 90
    4
 70
    1
 43
0
 10
14.00000000000001
 20
296
 10
14.00000000000001
 20
306
 10
24.00000000000001
 20
306
 10
24.00000000000001
 20
296
  0
LWPOLYLINE
  5
1C6
100
AcDbEntity
  8
0
  6
ByLayer
 62
  256
370
   -1
100
AcDbPolyline
 90
    4
 70
    1
 43
0
 10
24.00000000000001
 20
296
 10
24.00000000000001
 20
306
 10
34.00000000000001
 20
306
 10
34.00000000000001
 20
296
  0
LWPOLYLINE
  5
1C7
100
AcDbEntity
  8
0
  6
ByLayer
 62
  256
370
   -1
100
AcDbPolyline
 90
    4
 70
    1
 43
0
 10
34.00000000000001
 20
296
 10
34.00000000000001
 20
306
 10
44.00000000000002
 20
306
 10
44.00000000000001
 20
296
  0
LWPOLYLINE
  5
1C8
100
AcDbEntity
  8
0
  6
ByLayer
 62
  256
370
   -1
100
AcDbPolyline
 90
    4
 70
    1
 43
0
 10
44.00000000000001
 20
296
 10
44.00000000000002
 20
306
 10
54.00000000000002
 20
306
 10
54.00000000000001
 20
296
  0
LWPOLYLINE
  5
1C9
100
AcDbEntity
  8
0
  6
ByLayer
 62
  256
370
   -1
100
AcDbPolyline
 90
    4
 70
    1
 43
0
 10
54.00000000000001
 20
296
 10
54.00000000000002
 20
306
 10
64.00000000000003
 20
306
 10
64
 20
296
  0
LWPOLYLINE
  5
1CA
100
AcDbEntity
  8
0
  6
ByLayer
 62
  256
370
   -1
100
AcDbPolyline
 90
    4
 70
    1
 43
0
 10
64
 20
296
 10
64.00000000000003
 20
306
 10
74.00000000000001
 20
306
 10
74.00000000000001
 20
296
  0
LWPOLYLINE
  5
1CB
100
AcDbEntity
  8
0
  6
ByLayer
 62
  256
370
   -1
100
AcDbPolyline
 90
    4
 70
    1
 43
0
 10
74.00000000000001
 20
296
 10
74.00000000000001
 20
306
 10
84.00000000000001
 20
306
 10
84.00000000000001
 20
296
  0
LWPOLYLINE
  5
1CC
100
AcDbEntity
  8
0
  6
ByLayer
 62
  256
370
   -1
100
AcDbPolyline
 90
    4
 70
    1
 43
0
 10
84.00000000000001
 20
296
 10
84.00000000000001
 20
306
 10
94.00000000000001
 20
306
 10
94.00000000000001
 20
296
  0
LWPOLYLINE
  5
1CD
100
AcDbEntity
  8
0
  6
ByLayer
 62
  256
370
   -1
100
AcDbPolyline
 90
    4
 70
    1
 43
0
 10
94.00000000000001
 20
296
 10
94.00000000000001
 20
306
 10
104
 20
306
 10
104
 20
296
  0
MTEXT
  5
1CE
100
AcDbEntity
  8
0
  6
ByLayer
 62
  256
370
   -1
100
AcDbMText
 10
8
 20
4.000000000000006
 30
0
 40
2
 41
1.333333333333333
 71
    1
 72
    1
  1
A
  7
standard
210
0
220
0
230
1
 50
90
 73
    2
 44
1
  0
MTEXT
  5
1CF
100
AcDbEntity
  8
0
  6
ByLayer
 62
  256
370
   -1
100
AcDbMText
 10
18
 20
4.000000000000005
 30
0
 40
2
 41
1.111111111111111
 71
    1
 72
    1
  1
B
  7
standard
210
0
220
0
230
1
 50
90
 73
    2
 44
1
  0
MTEXT
  5
1D0
100
AcDbEntity
  8
0
  6
ByLayer
 62
  256
370
   -1
100
AcDbMText
 10
28
 20
4.000000000000005
 30
0
 40
2
 41
0.8888888888890129
 71
    1
 72
    1
  1
C
  7
standard
210
0
220
0
230
1
 50
90
 73
    2
 44
1
  0
MTEXT
  5
1D1
100
AcDbEntity
  8
0
  6
ByLayer
 62
  256
370
   -1
100
AcDbMText
 10
38
 20
4.000000000000004
 30
0
 40
2
 41
1.111111111111235
 71
    1
 72
    1
  1
D
  7
standard
210
0
220
0
230
1
 50
90
 73
    2
 44
1
  0
MTEXT
  5
1D2
100
AcDbEntity
  8
0
  6
ByLayer
 62
  256
370
   -1
100
AcDbMText
 10
48
 20
4.000000000000004
 30
0
 40
2
 41
0.8888888888888888
 71
    1
 72
    1
  1
E
  7
standard
210
0
220
0
230
1
 50
90
 73
    2
 44
1
  0
MTEXT
  5
1D3
100
AcDbEntity
  8
0
  6
ByLayer
 62
  256
370
   -1
100
AcDbMText
 10
58
 20
4.000000000000004
 30
0
 40
2
 41
0.8888888888888888
 71
    1
 72
    1
  1
F
  7
standard
210
0
220
0
230
1
 50
90
 73
    2
 44
1
  0
MTEXT
  5
1D4
100
AcDbEntity
  8
0
  6
ByLayer
 62
  256
370
   -1
100
AcDbMText
 10
68
 20
4.000000000000002
 30
0
 40
2
 41
1.111111111111235
 71
    1
 72
    1
  1
G
  7
standard
210
0
220
0
230
1
 50
90
 73
    2
 44
1
  0
MTEXT
  5
1D5
100
AcDbEntity
  8
0
  6
ByLayer
 62
  256
370
   -1
100
AcDbMText
 10
78
 20
4.000000000000002
 30
0
 40
2
 41
1.111111111111111
 71
    1
 72
    1
  1
H
  7
standard
210
0
220
0
230
1
 50
90
 73
    2
 44
1
  0
MTEXT
  5
1D6
100
AcDbEntity
  8
0
  6
ByLayer
 62
  256
370
   -1
100
AcDbMText
 10
88
 20
4.000000000000001
 30
0
 40
2
 41
0
 71
    1
 72
    1
  1
I
  7
standard
210
0
220
0
230
1
 50
90
 73
    2
 44
1
  0
MTEXT
  5
1D7
100
AcDbEntity
  8
0
  6
ByLayer
 62
  256
370
   -1
100
AcDbMText
 10
98
 20
4
 30
0
 40
2
 41
0.6666666666667906
 71
    1
 72
    1
  1
J
  7
standard
210
0
220
0
230
1
 50
90
 73
    2
 44
1
  0
MTEXT
  5
1D8
100
AcDbEntity
  8
0
  6
ByLayer
 62
  256
370
   -1
100
AcDbMText
 10
1
 20
11.00000000000001
 30
0
 40
2
 41
0.4444444444444444
 71
    1
 72
    1
  1
1
  7
standard
210
0
220
0
230
1
 50
90
 73
    2
 44
1
  0
MTEXT
  5
1D9
100
AcDbEntity
  8
0
  6
ByLayer
 62
  256
370
   -1
100
AcDbMText
 10
1
 20
21.00000000000001
 30
0
 40
2
 41
0.8888888888888888
 71
    1
 72
    1
  1
2
  7
standard
210
0
220
0
230
1
 50
90
 73
    2
 44
1
  0
MTEXT
  5
1DA
100
AcDbEntity
  8
0
  6
ByLayer
 62
  256
370
   -1
100
AcDbMText
 10
1
 20
31.00000000000001
 30
0
 40
2
 41
0.8888888888890129
 71
    1
 72
    1
  1
3
  7
standard
210
0
220
0
230
1
 50
90
 73
    2
 44
1
  0
MTEXT
  5
1DB
100
AcDbEntity
  8
0
  6
ByLayer
 62
  256
370
   -1
100
AcDbMText
 10
1
 20
41.00000000000001
 30
0
 40
2
 41
1.111111111111111
 71
    1
 72
    1
  1
4
  7
standard
210
0
220
0
230
1
 50
90
 73
    2
 44
1
  0
MTEXT
  5
1DC
100
AcDbEntity
  8
0
  6
ByLayer
 62
  256
370
   -1
100
AcDbMText
 10
1
 20
51.00000000000001
 30
0
 40
2
 41
0.8888888888890129
 71
    1
 72
    1
  1
5
  7
standard
210
0
220
0
230
1
 50
90
 73
    2
 44
1
  0
MTEXT
  5
1DD
100
AcDbEntity
  8
0
  6
ByLayer
 62
  256
370
   -1
100
AcDbMText
 10
1
 20
61.00000000000001
 30
0
 40
2
 41
0.8888888888890129
 71
    1
 72
    1
  1
6
  7
standard
210
0
220
0
230
1
 50
90
 73
    2
 44
1
  0
MTEXT
  5
1DE
100
AcDbEntity
  8
0
  6
ByLayer
 62
  256
370
   -1
100
AcDbMText
 10
1
 20
71
 30
0
 40
2
 41
0.8888888888888888
 71
    1
 72
    1
  1
7
  7
standard
210
0
220
0
230
1
 50
90
 73
    2
 44
1
  0
MTEXT
  5
1DF
100
AcDbEntity
  8
0
  6
ByLayer
 62
  256
370
   -1
100
AcDbMText
 10
1
 20
81
 30
0
 40
2
 41
0.8888888888888888
 71
    1
 72
    1
  1
8
  7
standard
210
0
220
0
230
1
 50
90
 73
    2
 44
1
  0
MTEXT
  5
1E0
100
AcDbEntity
  8
0
  6
ByLayer
 62
  256
370
   -1
100
AcDbMText
 10
1
 20
91
 30
0
 40
2
 41
0.8888888888890129
 71
    1
 72
    1
  1
9
  7
standard
210
0
220
0
230
1
 50
90
 73
    2
 44
1
  0
MTEXT
  5
1E1
100
AcDbEntity
  8
0
  6
ByLayer
 62
  256
370
   -1
100
AcDbMText
 10
1
 20
100
 30
0
 40
2
 41
2
 71
    1
 72
    1
  1
10
  7
standard
210
0
220
0
230
1
 50
90
 73
    2
 44
1
  0
MTEXT
  5
1E2
100
AcDbEntity
  8
0
  6
ByLayer
 62
  256
370
   -1
100
AcDbMText
 10
1
 20
110
 30
0
 40
2
 41
1.555555555555556
 71
    1
 72
    1
  1
11
  7
standard
210
0
220
0
230
1
 50
90
 73
    2
 44
1
  0
MTEXT
  5
1E3
100
AcDbEntity
  8
0
  6
ByLayer
 62
  256
370
   -1
100
AcDbMText
 10
1
 20
120
 30
0
 40
2
 41
2
 71
    1
 72
    1
  1
12
  7
standard
210
0
220
0
230
1
 50
90
 73
    2
 44
1
  0
MTEXT
  5
1E4
100
AcDbEntity
  8
0
  6
ByLayer
 62
  256
370
   -1
100
AcDbMText
 10
1.000000000000014
 20
130
 30
0
 40
2
 41
2.000000000000124
 71
    1
 72
    1
  1
13
  7
standard
210
0
220
0
230
1
 50
90
 73
    2
 44
1
  0
MTEXT
  5
1E5
100
AcDbEntity
  8
0
  6
ByLayer
 62
  256
370
   -1
100
AcDbMText
 10
1.000000000000014
 20
140
 30
0
 40
2
 41
2.222222222222222
 71
    1
 72
    1
  1
14
  7
standard
210
0
220
0
230
1
 50
90
 73
    2
 44
1
  0
MTEXT
  5
1E6
100
AcDbEntity
  8
0
  6
ByLayer
 62
  256
370
   -1
100
AcDbMText
 10
1.000000000000014
 20
150
 30
0
 40
2
 41
2.000000000000124
 71
    1
 72
    1
  1
15
  7
standard
210
0
220
0
230
1
 50
90
 73
    2
 44
1
  0
MTEXT
  5
1E7
100
AcDbEntity
  8
0
  6
ByLayer
 62
  256
370
   -1
100
AcDbMText
 10
1.000000000000014
 20
160
 30
0
 40
2
 41
2.000000000000124
 71
    1
 72
    1
  1
16
  7
standard
210
0
220
0
230
1
 50
90
 73
    2
 44
1
  0
MTEXT
  5
1E8
100
AcDbEntity
  8
0
  6
ByLayer
 62
  256
370
   -1
100
AcDbMText
 10
1.000000000000014
 20
170
 30
0
 40
2
 41
2
 71
    1
 72
    1
  1
17
  7
standard
210
0
220
0
230
1
 50
90
 73
    2
 44
1
  0
MTEXT
  5
1E9
100
AcDbEntity
  8
0
  6
ByLayer
 62
  256
370
   -1
100
AcDbMText
 10
1.000000000000014
 20
180
 30
0
 40
2
 41
2
 71
    1
 72
    1
  1
18
  7
standard
210
0
220
0
230
1
 50
90
 73
    2
 44
1
  0
MTEXT
  5
1EA
100
AcDbEntity
  8
0
  6
ByLayer
 62
  256
370
   -1
100
AcDbMText
 10
1.000000000000014
 20
190
 30
0
 40
2
 41
2
 71
    1
 72
    1
  1
19
  7
standard
210
0
220
0
230
1
 50
90
 73
    2
 44
1
  0
MTEXT
  5
1EB
100
AcDbEntity
  8
0
  6
ByLayer
 62
  256
370
   -1
100
AcDbMText
 10
1.000000000000014
 20
200
 30
0
 40
2
 41
2.444444444444444
 71
    1
 72
    1
  1
20
  7
standard
210
0
220
0
230
1
 50
90
 73
    2
 44
1
  0
MTEXT
  5
1EC
100
AcDbEntity
  8
0
  6
ByLayer
 62
  256
370
   -1
100
AcDbMText
 10
1.000000000000014
 20
210
 30
0
 40
2
 41
2
 71
    1
 72
    1
  1
21
  7
standard
210
0
220
0
230
1
 50
90
 73
    2
 44
1
  0
MTEXT
  5
1ED
100
AcDbEntity
  8
0
  6
ByLayer
 62
  256
370
   -1
100
AcDbMText
 10
1.000000000000014
 20
220
 30
0
 40
2
 41
2.444444444444444
 71
    1
 72
    1
  1
22
  7
standard
210
0
220
0
230
1
 50
90
 73
    2
 44
1
  0
MTEXT
  5
1EE
100
AcDbEntity
  8
0
  6
ByLayer
 62
  256
370
   -1
100
AcDbMText
 10
1.000000000000014
 20
230
 30
0
 40
2
 41
2.444444444444568
 71
    1
 72
    1
  1
23
  7
standard
210
0
220
0
230
1
 50
90
 73
    2
 44
1
  0
MTEXT
  5
1EF
100
AcDbEntity
  8
0
  6
ByLayer
 62
  256
370
   -1
100
AcDbMText
 10
1.000000000000014
 20
240
 30
0
 40
2
 41
2.666666666666667
 71
    1
 72
    1
  1
24
  7
standard
210
0
220
0
230
1
 50
90
 73
    2
 44
1
  0
MTEXT
  5
1F0
100
AcDbEntity
  8
0
  6
ByLayer
 62
  256
370
   -1
100
AcDbMText
 10
1.000000000000014
 20
250
 30
0
 40
2
 41
2.444444444444568
 71
    1
 72
    1
  1
25
  7
standard
210
0
220
0
230
1
 50
90
 73
    2
 44
1
  0
MTEXT
  5
1F1
100
AcDbEntity
  8
0
  6
ByLayer
 62
  256
370
   -1
100
AcDbMText
 10
1.000000000000014
 20
260
 30
0
 40
2
 41
2.444444444444568
 71
    1
 72
    1
  1
26
  7
standard
210
0
220
0
230
1
 50
90
 73
    2
 44
1
  0
MTEXT
  5
1F2
100
AcDbEntity
  8
0
  6
ByLayer
 62
  256
370
   -1
100
AcDbMText
 10
1.000000000000014
 20
270
 30
0
 40
2
 41
2.444444444444444
 71
    1
 72
    1
  1
27
  7
standard
210
0
220
0
230
1
 50
90
 73
    2
 44
1
  0
MTEXT
  5
1F3
100
AcDbEntity
  8
0
  6
ByLayer
 62
  256
370
   -1
100
AcDbMText
 10
1.000000000000014
 20
280
 30
0
 40
2
 41
2.444444444444444
 71
    1
 72
    1
  1
28
  7
standard
210
0
220
0
230
1
 50
90
 73
    2
 44
1
  0
MTEXT
  5
1F4
100
AcDbEntity
  8
0
  6
ByLayer
 62
  256
370
   -1
100
AcDbMText
 10
1.000000000000014
 20
290
 30
0
 40
2
 41
2.444444444444444
 71
    1
 72
    1
  1
29
  7
standard
210
0
220
0
230
1
 50
90
 73
    2
 44
1
  0
MTEXT
  5
1F5
100
AcDbEntity
  8
0
  6
ByLayer
 62
  256
370
   -1
100
AcDbMText
 10
1.000000000000014
 20
300
 30
0
 40
2
 41
2.444444444444568
 71
    1
 72
    1
  1
30
  7
standard
210
0
220
0
230
1
 50
90
 73
    2
 44
1
  0
LWPOLYLINE
  5
1F6
100
AcDbEntity
  8
road
  6
ByLayer
 62
  256
370
   -1
100
AcDbPolyline
 90
    4
 70
    1
 43
0
 10
34.01833717065246
 20
165.9988255885316
 10
34.01833717065246
 20
175.9910403000137
 10
43.97372779233002
 20
175.9910403000137
 10
43.97372779233002
 20
165.9988255885316
  0
LWPOLYLINE
  5
1F7
100
AcDbEntity
  8
0
  6
ByLayer
 62
  256
370
   -1
100
AcDbPolyline
 90
    4
 70
    1
 43
0
 10
94
 20
16
 10
94
 20
26
 10
104
 20
26
 10
104
 20
16
  0
LWPOLYLINE
  5
1F8
100
AcDbEntity
  8
0
  6
ByLayer
 62
  256
370
   -1
100
AcDbPolyline
 90
    4
 70
    1
 43
0
 10
94
 20
26
 10
94
 20
36
 10
104
 20
36
 10
104
 20
26
  0
LWPOLYLINE
  5
1F9
100
AcDbEntity
  8
0
  6
ByLayer
 62
  256
370
   -1
100
AcDbPolyline
 90
    4
 70
    1
 43
0
 10
94
 20
36
 10
94
 20
46
 10
104
 20
46
 10
104
 20
36
  0
LWPOLYLINE
  5
1FA
100
AcDbEntity
  8
0
  6
ByLayer
 62
  256
370
   -1
100
AcDbPolyline
 90
    4
 70
    1
 43
0
 10
94
 20
46
 10
94
 20
56
 10
104
 20
56
 10
104
 20
46
  0
LWPOLYLINE
  5
1FB
100
AcDbEntity
  8
0
  6
ByLayer
 62
  256
370
   -1
100
AcDbPolyline
 90
    4
 70
    1
 43
0
 10
94
 20
56
 10
94
 20
66
 10
104
 20
66
 10
104
 20
56
  0
LWPOLYLINE
  5
1FC
100
AcDbEntity
  8
0
  6
ByLayer
 62
  256
370
   -1
100
AcDbPolyline
 90
    4
 70
    1
 43
0
 10
94
 20
66
 10
94
 20
76
 10
104
 20
76
 10
104
 20
66
  0
LWPOLYLINE
  5
1FD
100
AcDbEntity
  8
0
  6
ByLayer
 62
  256
370
   -1
100
AcDbPolyline
 90
    4
 70
    1
 43
0
 10
94
 20
76
 10
94
 20
86
 10
104
 20
86
 10
104
 20
76
  0
LWPOLYLINE
  5
1FE
100
AcDbEntity
  8
0
  6
ByLayer
 62
  256
370
   -1
100
AcDbPolyline
 90
    4
 70
    1
 43
0
 10
94
 20
86
 10
94
 20
96
 10
104
 20
96
 10
104
 20
86
  0
LWPOLYLINE
  5
1FF
100
AcDbEntity
  8
0
  6
ByLayer
 62
  256
370
   -1
100
AcDbPolyline
 90
    4
 70
    1
 43
0
 10
94
 20
96
 10
94
 20
106
 10
104
 20
106
 10
104
 20
96
  0
LWPOLYLINE
  5
200
100
AcDbEntity
  8
0
  6
ByLayer
 62
  256
370
   -1
100
AcDbPolyline
 90
    4
 70
    1
 43
0
 10
94
 20
106
 10
94
 20
116
 10
104
 20
116
 10
104
 20
106
  0
LWPOLYLINE
  5
201
100
AcDbEntity
  8
0
  6
ByLayer
 62
  256
370
   -1
100
AcDbPolyline
 90
    4
 70
    1
 43
0
 10
64
 20
206
 10
64
 20
216
 10
74.00000000000001
 20
216
 10
74.00000000000001
 20
206
  0
LWPOLYLINE
  5
202
100
AcDbEntity
  8
0
  6
ByLayer
 62
  256
370
   -1
100
AcDbPolyline
 90
    4
 70
    1
 43
0
 10
64
 20
216
 10
64
 20
226
 10
74.00000000000001
 20
226
 10
74.00000000000001
 20
216
  0
LWPOLYLINE
  5
203
100
AcDbEntity
  8
0
  6
ByLayer
 62
  256
370
   -1
100
AcDbPolyline
 90
    4
 70
    1
 43
0
 10
64
 20
226
 10
64
 20
236
 10
74.00000000000001
 20
236
 10
74.00000000000001
 20
226
  0
LWPOLYLINE
  5
204
100
AcDbEntity
  8
0
  6
ByLayer
 62
  256
370
   -1
100
AcDbPolyline
 90
    4
 70
    1
 43
0
 10
64
 20
236
 10
64
 20
246
 10
74.00000000000001
 20
246
 10
74.00000000000001
 20
236
  0
LWPOLYLINE
  5
205
100
AcDbEntity
  8
0
  6
ByLayer
 62
  256
370
   -1
100
AcDbPolyline
 90
    4
 70
    1
 43
0
 10
64
 20
246
 10
64
 20
256
 10
74.00000000000001
 20
256
 10
74.00000000000001
 20
246
  0
LWPOLYLINE
  5
206
100
AcDbEntity
  8
0
  6
ByLayer
 62
  256
370
   -1
100
AcDbPolyline
 90
    4
 70
    1
 43
0
 10
64
 20
256
 10
64
 20
266
 10
74.00000000000001
 20
266
 10
74.00000000000001
 20
256
  0
LWPOLYLINE
  5
207
100
AcDbEntity
  8
0
  6
ByLayer
 62
  256
370
   -1
100
AcDbPolyline
 90
    4
 70
    1
 43
0
 10
74.00000000000001
 20
256
 10
74.00000000000001
 20
266
 10
84.00000000000001
 20
266
 10
84.00000000000001
 20
256
  0
LWPOLYLINE
  5
208
100
AcDbEntity
  8
0
  6
ByLayer
 62
  256
370
   -1
100
AcDbPolyline
 90
    4
 70
    1
 43
0
 10
84.00000000000001
 20
256
 10
84.00000000000001
 20
266
 10
94.00000000000001
 20
266
 10
94.00000000000001
 20
256
  0
LWPOLYLINE
  5
209
100
AcDbEntity
  8
0
  6
ByLayer
 62
  256
370
   -1
100
AcDbPolyline
 90
    4
 70
    1
 43
0
 10
34.00000000000001
 20
156
 10
34.00000000000001
 20
166
 10
44.00000000000001
 20
166
 10
44.00000000000001
 20
156
  0
LWPOLYLINE
  5
20A
100
AcDbEntity
  8
0
  6
ByLayer
 62
  256
370
   -1
100
AcDbPolyline
 90
    4
 70
    1
 43
0
 10
34.00000000000001
 20
166
 10
34.00000000000001
 20
176
 10
44.00000000000001
 20
176
 10
44.00000000000001
 20
166
  0
LWPOLYLINE
  5
20B
100
AcDbEntity
  8
0
  6
ByLayer
 62
  256
370
   -1
100
AcDbPolyline
 90
    4
 70
    1
 43
0
 10
34.00000000000001
 20
176
 10
34.00000000000001
 20
186
 10
44.00000000000001
 20
186
 10
44.00000000000001
 20
176
  0
ENDSEC
  0
SECTION
  2
OBJECTS
  0
DICTIONARY
  5
C
330
0
100
AcDbDictionary
281
    1
  3
ACAD_GROUP
350
D
  0
DICTIONARY
  5
D
330
C
100
AcDbDictionary
281
    1
  0
PLOTSETTINGS
  5
20C
100
AcDbPlotSettings
  6
1x1
 40
0
 41
0
 42
0
 43
0
  0
ENDSEC
  0
EOF
