999
dxfrw 0.6.3
  0
SECTION
  2
HEADER
  9
$ACADVER
  1
AC1021
  9
$DWGCODEPAGE
  3
ANSI_1252
  9
$INSBASE
 10
0
 20
0
 30
0
  9
$EXTMIN
 10
0
 20
0
 30
0
  9
$EXTMAX
 10
11.7
 20
8.300000000000001
 30
0
  9
$LIMMIN
 10
0
 20
0
  9
$LIMMAX
 10
420
 20
297
  9
$ORTHOMODE
 70
    0
  9
$REGENMODE
 70
    1
  9
$FILLMODE
 70
    1
  9
$QTEXTMODE
 70
    0
  9
$MIRRTEXT
 70
    0
  9
$LTSCALE
 40
1
  9
$ATTMODE
 70
    0
  9
$TEXTSIZE
 40
2.5
  9
$TRACEWID
 40
15.68
  9
$TEXTSTYLE
  7
STANDARD
  9
$CLAYER
  8
Outer Structual
  9
$CELTYPE
  6
BYLAYER
  9
$CECOLOR
 62
  256
  9
$CELTSCALE
 40
1
  9
$DISPSILH
 70
    0
  9
$DIMSCALE
 40
1
  9
$DIMASZ
 40
0.1
  9
$DIMEXO
 40
0.625
  9
$DIMDLI
 40
3.75
  9
$DIMRND
 40
0
  9
$DIMDLE
 40
0
  9
$DIMEXE
 40
0.05
  9
$DIMTP
 40
0
  9
$DIMTM
 40
0
  9
$DIMTXT
 40
0.1
  9
$DIMCEN
 40
2.5
  9
$DIMTSZ
 40
0
  9
$DIMTOL
 70
    0
  9
$DIMLIM
 70
    0
  9
$DIMTIH
 70
    0
  9
$DIMTOH
 70
    0
  9
$DIMSE1
 70
    0
  9
$DIMSE2
 70
    0
  9
$DIMTAD
 70
    1
  9
$DIMZIN
 70
    1
  9
$DIMBLK
  1

  9
$DIMASO
 70
    1
  9
$DIMSHO
 70
    1
  9
$DIMPOST
  1

  9
$DIMAPOST
  1

  9
$DIMALT
 70
    0
  9
$DIMALTD
 70
    3
  9
$DIMALTF
 40
0.03937
  9
$DIMLFAC
 40
1
  9
$DIMTOFL
 70
    1
  9
$DIMTVP
 40
0
  9
$DIMTIX
 70
    0
  9
$DIMSOXD
 70
    0
  9
$DIMSAH
 70
    0
  9
$DIMBLK1
  1

  9
$DIMBLK2
  1

  9
$DIMSTYLE
  2
STANDARD
  9
$DIMCLRD
 70
    0
  9
$DIMCLRE
 70
    0
  9
$DIMCLRT
 70
    0
  9
$DIMTFAC
 40
1
  9
$DIMGAP
 40
0.025
  9
$DIMJUST
 70
    0
  9
$DIMSD1
 70
    0
  9
$DIMSD2
 70
    0
  9
$DIMTOLJ
 70
    0
  9
$DIMTZIN
 70
    8
  9
$DIMALTZ
 70
    0
  9
$DIMALTTZ
 70
    0
  9
$DIMUPT
 70
    0
  9
$DIMDEC
 70
    4
  9
$DIMTDEC
 70
    2
  9
$DIMALTU
 70
    2
  9
$DIMALTTD
 70
    3
  9
$DIMTXSTY
  7
standard
  9
$DIMAUNIT
 70
    0
  9
$DIMADEC
 70
    2
  9
$DIMALTRND
 40
0
  9
$DIMAZIN
 70
    0
  9
$DIMDSEP
 70
    0
  9
$DIMATFIT
 70
    3
  9
$DIMFRAC
 70
    0
  9
$DIMLDRBLK
  1
STANDARD
  9
$DIMLUNIT
 70
    2
  9
$DIMLWD
 70
   -2
  9
$DIMLWE
 70
   -2
  9
$DIMTMOVE
 70
    0
  9
$DIMFXL
 40
0.0394
  9
$DIMFXLON
 70
    0
  9
$DIMJOGANG
 40
0.7854
  9
$DIMTFILL
 70
    0
  9
$DIMTFILLCLR
 70
    0
  9
$DIMARCSYM
 70
    0
  9
$DIMLTYPE
  6

  9
$DIMLTEX1
  6

  9
$DIMLTEX2
  6

  9
$LUNITS
 70
    2
  9
$LUPREC
 70
    3
  9
$SKETCHINC
 40
1
  9
$FILLETRAD
 40
0
  9
$AUNITS
 70
    0
  9
$AUPREC
 70
    2
  9
$MENU
  1
.
  9
$ELEVATION
 40
0
  9
$PELEVATION
 40
0
  9
$THICKNESS
 40
0
  9
$LIMCHECK
 70
    0
  9
$CHAMFERA
 40
0
  9
$CHAMFERB
 40
0
  9
$CHAMFERC
 40
0
  9
$CHAMFERD
 40
0
  9
$SKPOLY
 70
    0
  9
$USRTIMER
 70
    1
  9
$ANGBASE
 50
0
  9
$ANGDIR
 70
    0
  9
$PDMODE
 70
   34
  9
$PDSIZE
 40
0
  9
$PLINEWID
 40
0
  9
$SPLFRAME
 70
    0
  9
$SPLINETYPE
 70
    2
  9
$SPLINESEGS
 70
    8
  9
$HANDSEED
  5
20000
  9
$SURFTAB1
 70
    6
  9
$SURFTAB2
 70
    6
  9
$SURFTYPE
 70
    6
  9
$SURFU
 70
    6
  9
$SURFV
 70
    6
  9
$UCSBASE
  2

  9
$UCSNAME
  2

  9
$UCSORG
 10
0
 20
0
 30
0
  9
$UCSXDIR
 10
1
 20
0
 30
0
  9
$UCSYDIR
 10
0
 20
1
 30
0
  9
$UCSORTHOREF
  2

  9
$UCSORTHOVIEW
 70
    0
  9
$UCSORGTOP
 10
0
 20
0
 30
0
  9
$UCSORGBOTTOM
 10
0
 20
0
 30
0
  9
$UCSORGLEFT
 10
0
 20
0
 30
0
  9
$UCSORGRIGHT
 10
0
 20
0
 30
0
  9
$UCSORGFRONT
 10
0
 20
0
 30
0
  9
$UCSORGBACK
 10
0
 20
0
 30
0
  9
$PUCSBASE
  2

  9
$PUCSNAME
  2

  9
$PUCSORG
 10
0
 20
0
 30
0
  9
$PUCSXDIR
 10
1
 20
0
 30
0
  9
$PUCSYDIR
 10
0
 20
1
 30
0
  9
$PUCSORTHOREF
  2

  9
$PUCSORTHOVIEW
 70
    0
  9
$PUCSORGTOP
 10
0
 20
0
 30
0
  9
$PUCSORGBOTTOM
 10
0
 20
0
 30
0
  9
$PUCSORGLEFT
 10
0
 20
0
 30
0
  9
$PUCSORGRIGHT
 10
0
 20
0
 30
0
  9
$PUCSORGFRONT
 10
0
 20
0
 30
0
  9
$PUCSORGBACK
 10
0
 20
0
 30
0
  9
$USERI1
 70
    0
  9
$USERI2
 70
    0
  9
$USERI3
 70
    0
  9
$USERI4
 70
    0
  9
$USERI5
 70
    0
  9
$USERR1
 40
0
  9
$USERR2
 40
0
  9
$USERR3
 40
0
  9
$USERR4
 40
0
  9
$USERR5
 40
0
  9
$WORLDVIEW
 70
    1
  9
$SHADEDGE
 70
    3
  9
$SHADEDIF
 70
   70
  9
$TILEMODE
 70
    1
  9
$MAXACTVP
 70
   64
  9
$PINSBASE
 10
0.01921070107200418
 20
0
 30
0
  9
$PLIMCHECK
 70
    0
  9
$PEXTMIN
 10
0
 20
0
 30
0
  9
$PEXTMAX
 10
0
 20
0
 30
0
  9
$GRIDMODE
 70
    1
  9
$SNAPSTYLE
 70
    0
  9
$GRIDUNIT
 10
0
 20
0
  9
$PLIMMIN
 10
0
 20
0
  9
$PLIMMAX
 10
11.693
 20
8.2677
  9
$UNITMODE
 70
    0
  9
$VISRETAIN
 70
    1
  9
$PLINEGEN
 70
    0
  9
$PSLTSCALE
 70
    1
  9
$TREEDEPTH
 70
 3020
  9
$CMLSTYLE
  2
Standard
  9
$CMLJUST
 70
    0
  9
$CMLSCALE
 40
20
  9
$PROXYGRAPHICS
 70
    1
  9
$MEASUREMENT
 70
    1
  9
$CELWEIGHT
370
   -1
  9
$ENDCAPS
280
    0
  9
$JOINSTYLE
280
    0
  9
$LWDISPLAY
290
    0
  9
$INSUNITS
 70
    0
  9
$HYPERLINKBASE
  1

  9
$STYLESHEET
  1

  9
$XEDIT
290
    1
  9
$CEPSNTYPE
380
    0
  9
$PSTYLEMODE
290
    1
  9
$EXTNAMES
290
    1
  9
$PSVPSCALE
 40
0.9961151509114453
  9
$OLESTARTUP
290
    0
  9
$SORTENTS
280
  127
  9
$INDEXCTL
280
    0
  9
$HIDETEXT
280
    1
  9
$XCLIPFRAME
290
    0
  9
$HALOGAP
280
    0
  9
$OBSCOLOR
 70
  257
  9
$OBSLTYPE
280
    0
  9
$INTERSECTIONDISPLAY
280
    0
  9
$INTERSECTIONCOLOR
 70
  257
  9
$DIMASSOC
280
    1
  9
$PROJECTNAME
  1

  9
$CAMERADISPLAY
290
    0
  9
$LENSLENGTH
 40
50
  9
$CAMERAHEIGHT
 40
0
  9
$STEPSPERSEC
 40
2
  9
$STEPSIZE
 40
50
  9
$3DDWFPREC
 40
2
  9
$PSOLWIDTH
 40
5
  9
$PSOLHEIGHT
 40
80
  9
$LOFTANG1
 40
1.570796326794897
  9
$LOFTANG2
 40
1.570796326794897
  9
$LOFTMAG1
 40
0
  9
$LOFTMAG2
 40
0
  9
$LOFTPARAM
 70
    7
  9
$LOFTNORMALS
280
    1
  9
$LATITUDE
 40
1
  9
$LONGITUDE
 40
1
  9
$NORTHDIRECTION
 40
0
  9
$TIMEZONE
 70
-8000
  9
$LIGHTGLYPHDISPLAY
280
    1
  9
$TILEMODELIGHTSYNCH
280
    1
  9
$SOLIDHIST
280
    1
  9
$SHOWHIST
280
    1
  9
$DWFFRAME
280
    2
  9
$DGNFRAME
280
    0
  9
$REALWORLDSCALE
290
    1
  9
$INTERFERECOLOR
 62
    1
  9
$CSHADOW
280
    0
  9
$SHADOWPLANELOCATION
 40
0
  0
ENDSEC
  0
SECTION
  2
CLASSES
  0
ENDSEC
  0
SECTION
  2
TABLES
  0
TABLE
  2
VPORT
  5
8
330
0
100
AcDbSymbolTable
 70
    1
  0
VPORT
  5
31
330
2
100
AcDbSymbolTableRecord
100
AcDbViewportTableRecord
  2
*ACTIVE
 70
    0
 10
0
 20
0
 11
1
 21
1
 12
2.869518202315251
 22
2.205889213933198
 13
0
 23
0
 14
10
 24
10
 15
10
 25
10
 16
0
 26
0
 36
1
 17
0
 27
0
 37
0
 40
2.749320094725644
 41
1.20320197044335
 42
50
 43
0
 44
0
 50
0
 51
0
 71
    0
 72
  100
 73
    1
 74
    3
 75
    0
 76
    1
 77
    0
 78
    0
281
    0
 65
    1
110
0
120
0
130
0
111
1
121
0
131
0
112
0
122
1
132
0
 79
    0
146
0
348
10020
 60
    7
 61
    5
292
1
282
    1
141
0
142
0
 63
  250
421
3358443
  0
ENDTAB
  0
TABLE
  2
LTYPE
  5
5
330
0
100
AcDbSymbolTable
 70
    4
  0
LTYPE
  5
14
330
5
100
AcDbSymbolTableRecord
100
AcDbLinetypeTableRecord
  2
ByBlock
 70
    0
  3

 72
   65
 73
    0
 40
0
  0
LTYPE
  5
15
330
5
100
AcDbSymbolTableRecord
100
AcDbLinetypeTableRecord
  2
ByLayer
 70
    0
  3

 72
   65
 73
    0
 40
0
  0
LTYPE
  5
16
330
5
100
AcDbSymbolTableRecord
100
AcDbLinetypeTableRecord
  2
Continuous
 70
    0
  3
Solid line
 72
   65
 73
    0
 40
0
  0
LTYPE
  5
32
330
5
100
AcDbSymbolTableRecord
100
AcDbLinetypeTableRecord
  2
DOT
 70
    0
  3
Dot . . . . . . . . . . . . . . . . . . . . . .
 72
   65
 73
    2
 40
6.35
 49
0
 74
    0
 49
-6.35
 74
    0
  0
LTYPE
  5
33
330
5
100
AcDbSymbolTableRecord
100
AcDbLinetypeTableRecord
  2
DOTTINY
 70
    0
  3
Dot (.15x) .....................................
 72
   65
 73
    2
 40
0.9525
 49
0
 74
    0
 49
-0.9525
 74
    0
  0
LTYPE
  5
34
330
5
100
AcDbSymbolTableRecord
100
AcDbLinetypeTableRecord
  2
DOT2
 70
    0
  3
Dot (.5x) .....................................
 72
   65
 73
    2
 40
3.175
 49
0
 74
    0
 49
-3.175
 74
    0
  0
LTYPE
  5
35
330
5
100
AcDbSymbolTableRecord
100
AcDbLinetypeTableRecord
  2
DOTX2
 70
    0
  3
Dot (2x) .  .  .  .  .  .  .  .  .  .  .  .  .
 72
   65
 73
    2
 40
12.7
 49
0
 74
    0
 49
-12.7
 74
    0
  0
LTYPE
  5
36
330
5
100
AcDbSymbolTableRecord
100
AcDbLinetypeTableRecord
  2
DASHED
 70
    0
  3
Dashed _ _ _ _ _ _ _ _ _ _ _ _ _ _ _ _ _
 72
   65
 73
    2
 40
19.05
 49
12.7
 74
    0
 49
-6.35
 74
    0
  0
LTYPE
  5
37
330
5
100
AcDbSymbolTableRecord
100
AcDbLinetypeTableRecord
  2
DASHEDTINY
 70
    0
  3
Dashed (.15x) _ _ _ _ _ _ _ _ _ _ _ _ _ _ _ _ _
 72
   65
 73
    2
 40
2.8575
 49
1.905
 74
    0
 49
-0.9525
 74
    0
  0
LTYPE
  5
38
330
5
100
AcDbSymbolTableRecord
100
AcDbLinetypeTableRecord
  2
DASHED2
 70
    0
  3
Dashed (.5x) _ _ _ _ _ _ _ _ _ _ _ _ _ _ _ _ _
 72
   65
 73
    2
 40
9.524999999999999
 49
6.35
 74
    0
 49
-3.175
 74
    0
  0
LTYPE
  5
39
330
5
100
AcDbSymbolTableRecord
100
AcDbLinetypeTableRecord
  2
DASHEDX2
 70
    0
  3
Dashed (2x) ____  ____  ____  ____  ____  ___
 72
   65
 73
    2
 40
38.09999999999999
 49
25.4
 74
    0
 49
-12.7
 74
    0
  0
LTYPE
  5
3A
330
5
100
AcDbSymbolTableRecord
100
AcDbLinetypeTableRecord
  2
DASHDOT
 70
    0
  3
Dash dot __ . __ . __ . __ . __ . __ . __ . __
 72
   65
 73
    4
 40
25.4
 49
12.7
 74
    0
 49
-6.35
 74
    0
 49
0
 74
    0
 49
-6.35
 74
    0
  0
LTYPE
  5
3B
330
5
100
AcDbSymbolTableRecord
100
AcDbLinetypeTableRecord
  2
DASHDOTTINY
 70
    0
  3
Dash dot (.15x) _._._._._._._._._._._._._._._.
 72
   65
 73
    4
 40
3.81
 49
1.905
 74
    0
 49
-0.9525
 74
    0
 49
0
 74
    0
 49
-0.9525
 74
    0
  0
LTYPE
  5
3C
330
5
100
AcDbSymbolTableRecord
100
AcDbLinetypeTableRecord
  2
DASHDOT2
 70
    0
  3
Dash dot (.5x) _._._._._._._._._._._._._._._.
 72
   65
 73
    4
 40
12.7
 49
6.35
 74
    0
 49
-3.175
 74
    0
 49
0
 74
    0
 49
-3.175
 74
    0
  0
LTYPE
  5
3D
330
5
100
AcDbSymbolTableRecord
100
AcDbLinetypeTableRecord
  2
DASHDOTX2
 70
    0
  3
Dash dot (2x) ____  .  ____  .  ____  .  ___
 72
   65
 73
    4
 40
50.8
 49
25.4
 74
    0
 49
-12.7
 74
    0
 49
0
 74
    0
 49
-12.7
 74
    0
  0
LTYPE
  5
3E
330
5
100
AcDbSymbolTableRecord
100
AcDbLinetypeTableRecord
  2
DIVIDE
 70
    0
  3
Divide ____ . . ____ . . ____ . . ____ . . ____
 72
   65
 73
    6
 40
31.75
 49
12.7
 74
    0
 49
-6.35
 74
    0
 49
0
 74
    0
 49
-6.35
 74
    0
 49
0
 74
    0
 49
-6.35
 74
    0
  0
LTYPE
  5
3F
330
5
100
AcDbSymbolTableRecord
100
AcDbLinetypeTableRecord
  2
DIVIDETINY
 70
    0
  3
Divide (.15x) __..__..__..__..__..__..__..__.._
 72
   65
 73
    6
 40
4.7625
 49
1.905
 74
    0
 49
-0.9525
 74
    0
 49
0
 74
    0
 49
-0.9525
 74
    0
 49
0
 74
    0
 49
-0.9525
 74
    0
  0
LTYPE
  5
40
330
5
100
AcDbSymbolTableRecord
100
AcDbLinetypeTableRecord
  2
DIVIDE2
 70
    0
  3
Divide (.5x) __..__..__..__..__..__..__..__.._
 72
   65
 73
    6
 40
15.875
 49
6.35
 74
    0
 49
-3.175
 74
    0
 49
0
 74
    0
 49
-3.175
 74
    0
 49
0
 74
    0
 49
-3.175
 74
    0
  0
LTYPE
  5
41
330
5
100
AcDbSymbolTableRecord
100
AcDbLinetypeTableRecord
  2
DIVIDEX2
 70
    0
  3
Divide (2x) ________  .  .  ________  .  .  _
 72
   65
 73
    6
 40
63.5
 49
25.4
 74
    0
 49
-12.7
 74
    0
 49
0
 74
    0
 49
-12.7
 74
    0
 49
0
 74
    0
 49
-12.7
 74
    0
  0
LTYPE
  5
42
330
5
100
AcDbSymbolTableRecord
100
AcDbLinetypeTableRecord
  2
BORDER
 70
    0
  3
Border __ __ . __ __ . __ __ . __ __ . __ __ .
 72
   65
 73
    6
 40
44.45
 49
12.7
 74
    0
 49
-6.35
 74
    0
 49
12.7
 74
    0
 49
-6.35
 74
    0
 49
0
 74
    0
 49
-6.35
 74
    0
  0
LTYPE
  5
43
330
5
100
AcDbSymbolTableRecord
100
AcDbLinetypeTableRecord
  2
BORDERTINY
 70
    0
  3
Border (.15x) __.__.__.__.__.__.__.__.__.__.__.
 72
   65
 73
    6
 40
6.6675
 49
1.905
 74
    0
 49
-0.9525
 74
    0
 49
1.905
 74
    0
 49
-0.9525
 74
    0
 49
0
 74
    0
 49
-0.9525
 74
    0
  0
LTYPE
  5
44
330
5
100
AcDbSymbolTableRecord
100
AcDbLinetypeTableRecord
  2
BORDER2
 70
    0
  3
Border (.5x) __.__.__.__.__.__.__.__.__.__.__.
 72
   65
 73
    6
 40
22.225
 49
6.35
 74
    0
 49
-3.175
 74
    0
 49
6.35
 74
    0
 49
-3.175
 74
    0
 49
0
 74
    0
 49
-3.175
 74
    0
  0
LTYPE
  5
45
330
5
100
AcDbSymbolTableRecord
100
AcDbLinetypeTableRecord
  2
BORDERX2
 70
    0
  3
Border (2x) ____  ____  .  ____  ____  .  ___
 72
   65
 73
    6
 40
88.89999999999999
 49
25.4
 74
    0
 49
-12.7
 74
    0
 49
25.4
 74
    0
 49
-12.7
 74
    0
 49
0
 74
    0
 49
-12.7
 74
    0
  0
LTYPE
  5
46
330
5
100
AcDbSymbolTableRecord
100
AcDbLinetypeTableRecord
  2
CENTER
 70
    0
  3
Center ____ _ ____ _ ____ _ ____ _ ____ _ ____
 72
   65
 73
    4
 40
50.8
 49
31.75
 74
    0
 49
-6.35
 74
    0
 49
6.35
 74
    0
 49
-6.35
 74
    0
  0
LTYPE
  5
47
330
5
100
AcDbSymbolTableRecord
100
AcDbLinetypeTableRecord
  2
CENTERTINY
 70
    0
  3
Center (.15x) ___ _ ___ _ ___ _ ___ _ ___ _ ___
 72
   65
 73
    4
 40
7.619999999999999
 49
4.7625
 74
    0
 49
-0.9525
 74
    0
 49
0.9525
 74
    0
 49
-0.9525
 74
    0
  0
LTYPE
  5
48
330
5
100
AcDbSymbolTableRecord
100
AcDbLinetypeTableRecord
  2
CENTER2
 70
    0
  3
Center (.5x) ___ _ ___ _ ___ _ ___ _ ___ _ ___
 72
   65
 73
    4
 40
28.575
 49
19.05
 74
    0
 49
-3.175
 74
    0
 49
3.175
 74
    0
 49
-3.175
 74
    0
  0
LTYPE
  5
49
330
5
100
AcDbSymbolTableRecord
100
AcDbLinetypeTableRecord
  2
CENTERX2
 70
    0
  3
Center (2x) ________  __  ________  __  _____
 72
   65
 73
    4
 40
101.6
 49
63.5
 74
    0
 49
-12.7
 74
    0
 49
12.7
 74
    0
 49
-12.7
 74
    0
  0
ENDTAB
  0
TABLE
  2
LAYER
  5
2
330
0
100
AcDbSymbolTable
 70
    1
  0
LAYER
  5
10
330
2
100
AcDbSymbolTableRecord
100
AcDbLayerTableRecord
  2
0
 70
    0
 62
    7
  6
CONTINUOUS
370
    0
390
F
  0
LAYER
  5
4A
330
2
100
AcDbSymbolTableRecord
100
AcDbLayerTableRecord
  2
Border
 70
    0
 62
    7
  6
CONTINUOUS
370
   -3
390
F
  0
LAYER
  5
4B
330
2
100
AcDbSymbolTableRecord
100
AcDbLayerTableRecord
  2
Centreline 
 70
    0
 62
    3
  6
CENTER2
370
   -3
390
F
  0
LAYER
  5
4C
330
2
100
AcDbSymbolTableRecord
100
AcDbLayerTableRecord
  2
Construction
 70
    0
 62
    5
  6
CONTINUOUS
370
   -3
390
F
  0
LAYER
  5
4D
330
2
100
AcDbSymbolTableRecord
100
AcDbLayerTableRecord
  2
Hidden
 70
    0
 62
    6
  6
CONTINUOUS
370
    0
390
F
  0
LAYER
  5
4E
330
2
100
AcDbSymbolTableRecord
100
AcDbLayerTableRecord
  2
Hidden Detail
 70
    1
 62
    7
  6
DASHEDTINY
370
   -3
390
F
  0
LAYER
  5
4F
330
2
100
AcDbSymbolTableRecord
100
AcDbLayerTableRecord
  2
Outer Structual
 70
    0
 62
    7
  6
CONTINUOUS
370
    0
390
F
  0
LAYER
  5
50
330
2
100
AcDbSymbolTableRecord
100
AcDbLayerTableRecord
  2
Thread
 70
    0
 62
    1
  6
CONTINUOUS
370
   -3
390
F
  0
ENDTAB
  0
TABLE
  2
STYLE
  5
3
330
0
100
AcDbSymbolTable
 70
    3
  0
STYLE
  5
51
330
2
100
AcDbSymbolTableRecord
100
AcDbTextStyleTableRecord
  2
STANDARD
 70
    0
 40
0
 41
1
 50
0
 71
    0
 42
1
  3
STANDARD
  4

  0
ENDTAB
  0
TABLE
  2
VIEW
  5
6
330
0
100
AcDbSymbolTable
 70
    0
  0
ENDTAB
  0
TABLE
  2
UCS
  5
7
330
0
100
AcDbSymbolTable
 70
    0
  0
ENDTAB
  0
TABLE
  2
APPID
  5
9
330
0
100
AcDbSymbolTable
 70
    1
  0
APPID
  5
12
330
9
100
AcDbSymbolTableRecord
100
AcDbRegAppTableRecord
  2
ACAD
 70
    0
  0
APPID
  5
52
330
9
100
AcDbSymbolTableRecord
100
AcDbRegAppTableRecord
  2
LibreCad
 70
    0
  0
ENDTAB
  0
TABLE
  2
DIMSTYLE
  5
A
330
0
100
AcDbSymbolTable
 70
    1
100
AcDbDimStyleTable
 71
    1
  0
DIMSTYLE
105
53
330
A
100
AcDbSymbolTableRecord
100
AcDbDimStyleTableRecord
  2
Standard
 70
    0
 40
1
 41
0.1
 42
0.625
 43
0.38
 44
0.05
 45
0
 46
0
 47
0
 48
0
 49
0.0394
140
0.1
141
0.09
142
0
143
25.4
144
1
145
0
146
1
147
0.025
148
0
 71
    0
 72
    0
 73
    0
 74
    1
 75
    0
 76
    0
 77
    0
 78
    1
 79
    0
170
    0
171
    2
172
    0
173
    0
174
    0
175
    0
176
    0
177
    0
178
    0
179
    2
271
    4
272
    4
273
    2
274
    2
275
    0
276
    0
277
    2
278
    0
279
    0
280
    0
281
    0
282
    0
283
    1
284
    0
285
    0
286
    0
288
    0
289
    3
340
51
  0
ENDTAB
  0
TABLE
  2
BLOCK_RECORD
  5
1
330
0
100
AcDbSymbolTable
 70
    2
  0
BLOCK_RECORD
  5
1F
330
1
100
AcDbSymbolTableRecord
100
AcDbBlockTableRecord
  2
*Model_Space
 70
    0
280
    1
281
    0
  0
BLOCK_RECORD
  5
1E
330
1
100
AcDbSymbolTableRecord
100
AcDbBlockTableRecord
  2
*Paper_Space
 70
    0
280
    1
281
    0
  0
ENDTAB
  0
ENDSEC
  0
SECTION
  2
BLOCKS
  0
BLOCK
  5
20
330
1F
100
AcDbEntity
  8
0
100
AcDbBlockBegin
  2
*Model_Space
 70
    0
 10
0
 20
0
 30
0
  3
*Model_Space
  1

  0
ENDBLK
  5
21
330
1F
100
AcDbEntity
  8
0
100
AcDbBlockEnd
  0
BLOCK
  5
1C
330
1B
100
AcDbEntity
  8
0
100
AcDbBlockBegin
  2
*Paper_Space
 70
    0
 10
0
 20
0
 30
0
  3
*Paper_Space
  1

  0
ENDBLK
  5
1D
330
1F
100
AcDbEntity
  8
0
100
AcDbBlockEnd
  0
ENDSEC
  0
SECTION
  2
ENTITIES
  0
HATCH
  5
54
100
AcDbEntity
  8
Outer Structual
  6
ByLayer
 62
  256
370
   -1
100
AcDbHatch
 10
0
 20
0
 30
0
210
0
220
0
230
1
  2
ansi31
 70
    0
 71
    0
 91
    1
 92
    0
 93
   12
 72
    1
 10
3.313
 20
3.373429923469387
 11
3.313
 21
3.061429923469387
 72
    1
 10
3.313
 20
3.061429923469387
 11
3.407
 21
3.061429923469387
 72
    1
 10
3.407
 20
3.061429923469387
 11
3.407
 21
3.466429923469387
 72
    1
 10
3.407
 20
3.466429923469387
 11
3.1875
 21
3.466429923469387
 72
    1
 10
3.1875
 20
3.466429923469387
 11
3.1875
 21
3.373429923469387
 72
    1
 10
3.1875
 20
3.373429923469387
 11
3.313
 21
3.373429923469387
 72
    1
 10
3.937
 20
3.373429923469387
 11
3.937
 21
3.061429923469387
 72
    1
 10
3.936999999999999
 20
3.061429923469387
 11
3.843
 21
3.061429923469387
 72
    1
 10
3.843
 20
3.061429923469387
 11
3.843
 21
3.466429923469387
 72
    1
 10
3.843
 20
3.466429923469387
 11
4.0625
 21
3.466429923469387
 72
    1
 10
4.0625
 20
3.466429923469387
 11
4.0625
 21
3.373429923469387
 72
    1
 10
4.0625
 20
3.373429923469387
 11
3.937
 21
3.373429923469387
 97
    0
 75
    0
 76
    1
 52
0
 41
0.01
 77
    0
 78
    0
 98
    0
  0
LWPOLYLINE
  5
55
100
AcDbEntity
  8
Hidden
  6
ByLayer
 62
  256
370
   -1
100
AcDbPolyline
 90
    4
 70
    1
 43
0
 10
0
 20
0
 10
11.7
 20
0
 10
11.7
 20
8.300000000000001
 10
0
 20
8.300000000000001
  0
LWPOLYLINE
  5
56
100
AcDbEntity
  8
Border
  6
ByLayer
 62
  256
370
   -1
100
AcDbPolyline
 90
    4
 70
    1
 43
0
 10
0.125
 20
0.125
 10
11.575
 20
0.125
 10
11.575
 20
8.175000000000001
 10
0.125
 20
8.175000000000001
  0
LWPOLYLINE
  5
57
100
AcDbEntity
  8
Border
  6
ByLayer
 62
  256
370
   -1
100
AcDbPolyline
 90
    4
 70
    1
 43
0
 10
0.312
 20
0.312
 10
11.388
 20
0.312
 10
11.388
 20
7.988
 10
0.312
 20
7.988
  0
LINE
  5
58
100
AcDbEntity
  8
Border
  6
ByLayer
 62
  256
370
   -1
100
AcDbLine
 10
6.888
 20
1.812
 11
11.388
 21
1.812
  0
LINE
  5
59
100
AcDbEntity
  8
Border
  6
ByLayer
 62
  256
370
   -1
100
AcDbLine
 10
6.888
 20
1.312
 11
11.388
 21
1.312
  0
LINE
  5
5A
100
AcDbEntity
  8
Border
  6
ByLayer
 62
  256
370
   -1
100
AcDbLine
 10
6.888
 20
0.8120000000000001
 11
11.388
 21
0.8120000000000001
  0
LINE
  5
5B
100
AcDbEntity
  8
Border
  6
ByLayer
 62
  256
370
   -1
100
AcDbLine
 10
9.138
 20
0.312
 11
9.138
 21
0.8120000000000001
  0
LINE
  5
5C
100
AcDbEntity
  8
Border
  6
ByLayer
 62
  256
370
   -1
100
AcDbLine
 10
6.888
 20
0.312
 11
6.888
 21
1.812
  0
MTEXT
  5
5D
100
AcDbEntity
  8
Border
  6
ByLayer
 62
  256
370
   -1
100
AcDbMText
 10
6.95
 20
0.8740000000000001
 30
0
 40
0.187
 41
0.6908611111111111
 71
    7
 72
    1
  1
NAME
  7
STANDARD
210
0
220
0
230
1
 50
0
 73
    2
 44
1
  0
MTEXT
  5
5E
100
AcDbEntity
  8
Border
  6
ByLayer
 62
  256
370
   -1
100
AcDbMText
 10
6.95
 20
0.3740000000000001
 30
0
 40
0.187
 41
0.6908611111111111
 71
    7
 72
    1
  1
DATE
  7
STANDARD
210
0
220
0
230
1
 50
0
 73
    2
 44
1
  0
MTEXT
  5
5F
100
AcDbEntity
  8
Border
  6
ByLayer
 62
  256
370
   -1
100
AcDbMText
 10
9.199999999999999
 20
0.374
 30
0
 40
0.187
 41
0.8934444444444445
 71
    7
 72
    1
  1
SCALE
  7
STANDARD
210
0
220
0
230
1
 50
0
 73
    2
 44
1
  0
MTEXT
  5
60
100
AcDbEntity
  8
Border
  6
ByLayer
 62
  256
370
   -1
100
AcDbMText
 10
6.95
 20
1.383428571428571
 30
0
 40
0.25
 41
3.006944444444444
 71
    7
 72
    1
  1
DRAWING NAME
  7
STANDARD
210
0
220
0
230
1
 50
0
 73
    2
 44
1
  0
LINE
  5
61
100
AcDbEntity
  8
Centreline 
  6
ByLayer
 62
  256
370
   -1
100
AcDbLine
 10
3.625
 20
6
 11
3.625
 21
2
  0
ARC
  5
62
100
AcDbEntity
  8
Outer Structual
  6
ByLayer
 62
  256
370
   -1
100
AcDbCircle
 10
4.688
 20
4.026960748697409
 40
0.062
100
AcDbArc
 50
246.979501761545
 51
0
  0
ARC
  5
63
100
AcDbEntity
  8
Outer Structual
  6
ByLayer
 62
  256
370
   -1
100
AcDbCircle
 10
4.687999999999999
 20
2.615896394159738
 40
0.062
100
AcDbArc
 50
4.103909462425894e-13
 51
113.0204982384558
  0
ARC
  5
64
100
AcDbEntity
  8
Outer Structual
  6
ByLayer
 62
  256
370
   -1
100
AcDbCircle
 10
2.561999999999999
 20
4.026960748697407
 40
0.062
100
AcDbArc
 50
180
 51
293.0204982384546
  0
ARC
  5
65
100
AcDbEntity
  8
Outer Structual
  6
ByLayer
 62
  256
370
   -1
100
AcDbCircle
 10
3.625
 20
5.117678571428576
 40
2.656250000000004
100
AcDbArc
 50
246.9795017615452
 51
293.0204982384546
  0
ARC
  5
66
100
AcDbEntity
  8
Outer Structual
  6
ByLayer
 62
  256
370
   -1
100
AcDbCircle
 10
2.561999999999999
 20
2.615896394159737
 40
0.062
100
AcDbArc
 50
66.97950176154686
 51
180.0000000000008
  0
LINE
  5
67
100
AcDbEntity
  8
Outer Structual
  6
ByLayer
 62
  256
370
   -1
100
AcDbLine
 10
2
 20
4.040428571428571
 11
2.031
 21
4.071428571428571
  0
LINE
  5
68
100
AcDbEntity
  8
Outer Structual
  6
ByLayer
 62
  256
370
   -1
100
AcDbLine
 10
2
 20
2.602428571428572
 11
2.031
 21
2.571428571428572
  0
LINE
  5
69
100
AcDbEntity
  8
Outer Structual
  6
ByLayer
 62
  256
370
   -1
100
AcDbLine
 10
5.219
 20
4.071428571428571
 11
5.25
 21
4.040428571428571
  0
LINE
  5
6A
100
AcDbEntity
  8
Outer Structual
  6
ByLayer
 62
  256
370
   -1
100
AcDbLine
 10
5.219
 20
2.571428571428572
 11
5.25
 21
2.602428571428572
  0
LINE
  5
6B
100
AcDbEntity
  8
Hidden Detail
  6
ByLayer
 62
  256
370
   -1
100
AcDbLine
 10
2.5
 20
4.026960748697407
 11
2.5
 21
2.615896394159736
  0
LINE
  5
6C
100
AcDbEntity
  8
Hidden Detail
  6
ByLayer
 62
  256
370
   -1
100
AcDbLine
 10
4.75
 20
4.026960748697409
 11
4.75
 21
2.615896394159738
  0
ARC
  5
6D
100
AcDbEntity
  8
Outer Structual
  6
ByLayer
 62
  256
370
   -1
100
AcDbCircle
 10
2.813
 20
4.299428571428571
 40
0.062
100
AcDbArc
 50
0
 51
90
  0
ARC
  5
6E
100
AcDbEntity
  8
Outer Structual
  6
ByLayer
 62
  256
370
   -1
100
AcDbCircle
 10
3.625
 20
1.525178571428571
 40
2.65625
100
AcDbArc
 50
107.3808358724139
 51
113.0204982384547
  0
LINE
  5
6F
100
AcDbEntity
  8
Outer Structual
  6
ByLayer
 62
  256
370
   -1
100
AcDbLine
 10
2.875
 20
4.299428571428571
 11
2.875
 21
4.119314084947479
  0
ARC
  5
70
100
AcDbEntity
  8
Outer Structual
  6
ByLayer
 62
  256
370
   -1
100
AcDbCircle
 10
2.813000000000001
 20
4.119314084947479
 40
0.062
100
AcDbArc
 50
287.3808358724137
 51
0
  0
LINE
  5
71
100
AcDbEntity
  8
Outer Structual
  6
ByLayer
 62
  256
370
   -1
100
AcDbLine
 10
4.375
 20
4.299428571428571
 11
4.375
 21
4.119314084947476
  0
ARC
  5
72
100
AcDbEntity
  8
Outer Structual
  6
ByLayer
 62
  256
370
   -1
100
AcDbCircle
 10
3.625
 20
1.525178571428571
 40
2.65625
100
AcDbArc
 50
66.97950176154531
 51
72.61916412758609
  0
ARC
  5
73
100
AcDbEntity
  8
Outer Structual
  6
ByLayer
 62
  256
370
   -1
100
AcDbCircle
 10
4.437
 20
4.119314084947476
 40
0.062
100
AcDbArc
 50
180
 51
252.6191641275865
  0
LINE
  5
74
100
AcDbEntity
  8
Outer Structual
  6
ByLayer
 62
  256
370
   -1
100
AcDbLine
 10
2.438
 20
3.633928571428571
 11
2.5
 21
3.633928571428572
  0
LINE
  5
75
100
AcDbEntity
  8
Outer Structual
  6
ByLayer
 62
  256
370
   -1
100
AcDbLine
 10
2.438
 20
3.008928571428572
 11
2.5
 21
3.008928571428572
  0
LINE
  5
76
100
AcDbEntity
  8
Outer Structual
  6
ByLayer
 62
  256
370
   -1
100
AcDbLine
 10
4.812
 20
3.633928571428572
 11
4.75
 21
3.633928571428572
  0
LINE
  5
77
100
AcDbEntity
  8
Outer Structual
  6
ByLayer
 62
  256
370
   -1
100
AcDbLine
 10
4.812
 20
3.008928571428572
 11
4.75
 21
3.008928571428572
  0
LINE
  5
78
100
AcDbEntity
  8
Outer Structual
  6
ByLayer
 62
  256
370
   -1
100
AcDbLine
 10
4.75
 20
4.040428571428571
 11
4.75
 21
4.026960748697409
  0
LINE
  5
79
100
AcDbEntity
  8
Outer Structual
  6
ByLayer
 62
  256
370
   -1
100
AcDbLine
 10
4.781
 20
4.071428571428571
 11
5.219
 21
4.071428571428571
  0
LINE
  5
7A
100
AcDbEntity
  8
Outer Structual
  6
ByLayer
 62
  256
370
   -1
100
AcDbLine
 10
4.75
 20
4.040428571428571
 11
4.781
 21
4.071428571428571
  0
LINE
  5
7B
100
AcDbEntity
  8
Outer Structual
  6
ByLayer
 62
  256
370
   -1
100
AcDbLine
 10
2.5
 20
4.040428571428571
 11
2.5
 21
4.026960748697407
  0
LINE
  5
7C
100
AcDbEntity
  8
Outer Structual
  6
ByLayer
 62
  256
370
   -1
100
AcDbLine
 10
2.031
 20
4.071428571428571
 11
2.469
 21
4.071428571428571
  0
LINE
  5
7D
100
AcDbEntity
  8
Outer Structual
  6
ByLayer
 62
  256
370
   -1
100
AcDbLine
 10
2.5
 20
4.040428571428571
 11
2.469
 21
4.071428571428571
  0
LINE
  5
7E
100
AcDbEntity
  8
Outer Structual
  6
ByLayer
 62
  256
370
   -1
100
AcDbLine
 10
2.031
 20
2.571428571428572
 11
2.469
 21
2.571428571428572
  0
LINE
  5
7F
100
AcDbEntity
  8
Outer Structual
  6
ByLayer
 62
  256
370
   -1
100
AcDbLine
 10
2.499999999999999
 20
2.615896394159736
 11
2.5
 21
2.602428571428572
  0
LINE
  5
80
100
AcDbEntity
  8
Outer Structual
  6
ByLayer
 62
  256
370
   -1
100
AcDbLine
 10
2.469
 20
2.571428571428572
 11
2.5
 21
2.602428571428572
  0
LINE
  5
81
100
AcDbEntity
  8
Outer Structual
  6
ByLayer
 62
  256
370
   -1
100
AcDbLine
 10
4.75
 20
2.615896394159738
 11
4.75
 21
2.602428571428572
  0
LINE
  5
82
100
AcDbEntity
  8
Outer Structual
  6
ByLayer
 62
  256
370
   -1
100
AcDbLine
 10
4.781
 20
2.571428571428572
 11
5.219
 21
2.571428571428572
  0
LINE
  5
83
100
AcDbEntity
  8
Outer Structual
  6
ByLayer
 62
  256
370
   -1
100
AcDbLine
 10
4.75
 20
2.602428571428572
 11
4.781
 21
2.571428571428572
  0
ARC
  5
84
100
AcDbEntity
  8
Outer Structual
  6
ByLayer
 62
  256
370
   -1
100
AcDbCircle
 10
4.437
 20
4.299428571428571
 40
0.062
100
AcDbArc
 50
89.53978062341413
 51
180
  0
LINE
  5
85
100
AcDbEntity
  8
Outer Structual
  6
ByLayer
 62
  256
370
   -1
100
AcDbLine
 10
4.437497999935901
 20
4.361426571364472
 11
4.4685
 21
4.392428571428571
  0
LINE
  5
86
100
AcDbEntity
  8
Hidden Detail
  6
ByLayer
 62
  256
370
   -1
100
AcDbLine
 10
2.8125
 20
4.361428571428571
 11
4.4375
 21
4.361428571428571
  0
LINE
  5
87
100
AcDbEntity
  8
Outer Structual
  6
ByLayer
 62
  256
370
   -1
100
AcDbLine
 10
2.8125
 20
4.361428571428571
 11
2.7815
 21
4.392428571428571
  0
LINE
  5
88
100
AcDbEntity
  8
Outer Structual
  6
ByLayer
 62
  256
370
   -1
100
AcDbLine
 10
2.7815
 20
4.646428571428571
 11
2.7815
 21
4.392428571428571
  0
LINE
  5
89
100
AcDbEntity
  8
Outer Structual
  6
ByLayer
 62
  256
370
   -1
100
AcDbLine
 10
2.7815
 20
4.646428571428571
 11
2.7965
 21
4.661428571428571
  0
LINE
  5
8A
100
AcDbEntity
  8
Outer Structual
  6
ByLayer
 62
  256
370
   -1
100
AcDbLine
 10
4.4685
 20
4.646428571428571
 11
4.4685
 21
4.392428571428571
  0
LINE
  5
8B
100
AcDbEntity
  8
Outer Structual
  6
ByLayer
 62
  256
370
   -1
100
AcDbLine
 10
4.4535
 20
4.661428571428571
 11
4.4685
 21
4.646428571428571
  0
LINE
  5
8C
100
AcDbEntity
  8
Centreline 
  6
ByLayer
 62
  256
370
   -1
100
AcDbLine
 10
1
 20
3.321428571428571
 11
7.25
 21
3.321428571428571
  0
LINE
  5
8D
100
AcDbEntity
  8
Outer Structual
  6
ByLayer
 62
  256
370
   -1
100
AcDbLine
 10
2.7965
 20
4.661428571428571
 11
3.061500000000195
 21
4.661429923469388
  0
LINE
  5
8E
100
AcDbEntity
  8
Outer Structual
  6
ByLayer
 62
  256
370
   -1
100
AcDbLine
 10
3.0765
 20
4.646430000000001
 11
3.0765
 21
4.16143
  0
LINE
  5
8F
100
AcDbEntity
  8
Outer Structual
  6
ByLayer
 62
  256
370
   -1
100
AcDbLine
 10
3.061500000000195
 20
4.661429923469388
 11
3.0765
 21
4.646430000000001
  0
LINE
  5
90
100
AcDbEntity
  8
Outer Structual
  6
ByLayer
 62
  256
370
   -1
100
AcDbLine
 10
4.188499999999805
 20
4.661429923469387
 11
4.4535
 21
4.661428571428571
  0
LINE
  5
91
100
AcDbEntity
  8
Outer Structual
  6
ByLayer
 62
  256
370
   -1
100
AcDbLine
 10
4.1735
 20
4.64643
 11
4.1735
 21
4.16143
  0
LINE
  5
92
100
AcDbEntity
  8
Outer Structual
  6
ByLayer
 62
  256
370
   -1
100
AcDbLine
 10
4.188499999999805
 20
4.661429923469387
 11
4.1735
 21
4.64643
  0
LINE
  5
93
100
AcDbEntity
  8
Outer Structual
  6
ByLayer
 62
  256
370
   -1
100
AcDbLine
 10
4.812
 20
3.688428571428572
 11
5.235
 21
3.688428571428572
  0
LINE
  5
94
100
AcDbEntity
  8
Outer Structual
  6
ByLayer
 62
  256
370
   -1
100
AcDbLine
 10
5.25
 20
4.040428571428571
 11
5.25
 21
3.703428571428572
  0
LINE
  5
95
100
AcDbEntity
  8
Outer Structual
  6
ByLayer
 62
  256
370
   -1
100
AcDbLine
 10
5.235
 20
3.688428571428572
 11
5.25
 21
3.703428571428572
  0
LINE
  5
96
100
AcDbEntity
  8
Outer Structual
  6
ByLayer
 62
  256
370
   -1
100
AcDbLine
 10
4.812
 20
2.954428571428572
 11
5.235
 21
2.954428571428573
  0
LINE
  5
97
100
AcDbEntity
  8
Outer Structual
  6
ByLayer
 62
  256
370
   -1
100
AcDbLine
 10
5.25
 20
2.939428571428572
 11
5.25
 21
2.602428571428572
  0
LINE
  5
98
100
AcDbEntity
  8
Outer Structual
  6
ByLayer
 62
  256
370
   -1
100
AcDbLine
 10
5.235
 20
2.954428571428573
 11
5.25
 21
2.939428571428572
  0
LINE
  5
99
100
AcDbEntity
  8
Outer Structual
  6
ByLayer
 62
  256
370
   -1
100
AcDbLine
 10
2
 20
4.040428571428571
 11
2
 21
3.703428571428572
  0
LINE
  5
9A
100
AcDbEntity
  8
Outer Structual
  6
ByLayer
 62
  256
370
   -1
100
AcDbLine
 10
2.015
 20
3.688428571428572
 11
2.438
 21
3.688428571428572
  0
LINE
  5
9B
100
AcDbEntity
  8
Outer Structual
  6
ByLayer
 62
  256
370
   -1
100
AcDbLine
 10
2
 20
3.703428571428572
 11
2.015
 21
3.688428571428572
  0
LINE
  5
9C
100
AcDbEntity
  8
Outer Structual
  6
ByLayer
 62
  256
370
   -1
100
AcDbLine
 10
2
 20
2.939428571428572
 11
2
 21
2.602428571428572
  0
LINE
  5
9D
100
AcDbEntity
  8
Outer Structual
  6
ByLayer
 62
  256
370
   -1
100
AcDbLine
 10
2.015
 20
2.954428571428572
 11
2.438
 21
2.954428571428572
  0
LINE
  5
9E
100
AcDbEntity
  8
Outer Structual
  6
ByLayer
 62
  256
370
   -1
100
AcDbLine
 10
2
 20
2.939428571428572
 11
2.015
 21
2.954428571428572
  0
LINE
  5
9F
100
AcDbEntity
  8
Outer Structual
  6
ByLayer
 62
  256
370
   -1
100
AcDbLine
 10
5.25
 20
3.703428571428572
 11
5.25
 21
2.939428571428572
  0
LINE
  5
A0
100
AcDbEntity
  8
Outer Structual
  6
ByLayer
 62
  256
370
   -1
100
AcDbLine
 10
3.061500000000195
 20
4.661429923469388
 11
4.188499999999805
 21
4.661429923469387
  0
LINE
  5
A1
100
AcDbEntity
  8
Outer Structual
  6
ByLayer
 62
  256
370
   -1
100
AcDbLine
 10
2
 20
3.703428571428572
 11
2
 21
2.939428571428572
  0
LINE
  5
A2
100
AcDbEntity
  8
Outer Structual
  6
ByLayer
 62
  256
370
   -1
100
AcDbLine
 10
2.015
 20
3.68843
 11
2.015
 21
2.95443
  0
LINE
  5
A3
100
AcDbEntity
  8
Outer Structual
  6
ByLayer
 62
  256
370
   -1
100
AcDbLine
 10
5.235
 20
3.68843
 11
5.235
 21
2.95443
  0
LINE
  5
A4
100
AcDbEntity
  8
Outer Structual
  6
ByLayer
 62
  256
370
   -1
100
AcDbLine
 10
3.0765
 20
4.64643
 11
4.1735
 21
4.64643
  0
LINE
  5
A5
100
AcDbEntity
  8
Outer Structual
  6
ByLayer
 62
  256
370
   -1
100
AcDbLine
 10
3.313
 20
3.373429923469387
 11
3.313
 21
3.061429923469387
  0
LINE
  5
A6
100
AcDbEntity
  8
Outer Structual
  6
ByLayer
 62
  256
370
   -1
100
AcDbLine
 10
3.937
 20
3.373429923469387
 11
3.937
 21
3.061429923469387
  0
LINE
  5
A7
100
AcDbEntity
  8
Outer Structual
  6
ByLayer
 62
  256
370
   -1
100
AcDbLine
 10
3.1875
 20
3.466429923469387
 11
3.1875
 21
3.373429923469387
  0
LINE
  5
A8
100
AcDbEntity
  8
Outer Structual
  6
ByLayer
 62
  256
370
   -1
100
AcDbLine
 10
4.0625
 20
3.466429923469387
 11
4.0625
 21
3.373429923469387
  0
LINE
  5
A9
100
AcDbEntity
  8
Outer Structual
  6
ByLayer
 62
  256
370
   -1
100
AcDbLine
 10
3.1875
 20
3.373429923469387
 11
3.313
 21
3.373429923469387
  0
LINE
  5
AA
100
AcDbEntity
  8
Outer Structual
  6
ByLayer
 62
  256
370
   -1
100
AcDbLine
 10
4.0625
 20
3.373429923469387
 11
3.937
 21
3.373429923469387
  0
LINE
  5
AB
100
AcDbEntity
  8
Outer Structual
  6
ByLayer
 62
  256
370
   -1
100
AcDbLine
 10
3.407
 20
3.466429923469387
 11
3.407
 21
3.061429923469387
  0
LINE
  5
AC
100
AcDbEntity
  8
Outer Structual
  6
ByLayer
 62
  256
370
   -1
100
AcDbLine
 10
3.843
 20
3.466429923469387
 11
3.843
 21
3.061429923469387
  0
LINE
  5
AD
100
AcDbEntity
  8
Outer Structual
  6
ByLayer
 62
  256
370
   -1
100
AcDbLine
 10
3.1875
 20
3.466429923469387
 11
3.407
 21
3.466429923469387
  0
LINE
  5
AE
100
AcDbEntity
  8
Outer Structual
  6
ByLayer
 62
  256
370
   -1
100
AcDbLine
 10
3.843
 20
3.466429923469387
 11
4.0625
 21
3.466429923469387
  0
LINE
  5
AF
100
AcDbEntity
  8
Outer Structual
  6
ByLayer
 62
  256
370
   -1
100
AcDbLine
 10
3.313
 20
3.061429923469387
 11
3.407
 21
3.061429923469387
  0
LINE
  5
B0
100
AcDbEntity
  8
Outer Structual
  6
ByLayer
 62
  256
370
   -1
100
AcDbLine
 10
3.843
 20
3.061429923469387
 11
3.936999999999999
 21
3.061429923469387
  0
LINE
  5
B1
100
AcDbEntity
  8
Thread
  6
ByLayer
 62
  256
370
   -1
100
AcDbLine
 10
2
 20
2.908928571428572
 11
2.423
 21
2.908928571428572
  0
LINE
  5
B2
100
AcDbEntity
  8
Outer Structual
  6
ByLayer
 62
  256
370
   -1
100
AcDbLine
 10
2.438
 20
2.923928571428572
 11
2.438
 21
3.008928571428572
  0
LINE
  5
B3
100
AcDbEntity
  8
Outer Structual
  6
ByLayer
 62
  256
370
   -1
100
AcDbLine
 10
2.423
 20
2.908928571428572
 11
2.438
 21
2.923928571428572
  0
LINE
  5
B4
100
AcDbEntity
  8
Thread
  6
ByLayer
 62
  256
370
   -1
100
AcDbLine
 10
2
 20
3.733928571428572
 11
2.423
 21
3.733928571428572
  0
LINE
  5
B5
100
AcDbEntity
  8
Outer Structual
  6
ByLayer
 62
  256
370
   -1
100
AcDbLine
 10
2.438
 20
3.633928571428571
 11
2.438
 21
3.718928571428572
  0
LINE
  5
B6
100
AcDbEntity
  8
Outer Structual
  6
ByLayer
 62
  256
370
   -1
100
AcDbLine
 10
2.423
 20
3.733928571428572
 11
2.438
 21
3.718928571428572
  0
LINE
  5
B7
100
AcDbEntity
  8
Thread
  6
ByLayer
 62
  256
370
   -1
100
AcDbLine
 10
3.0315
 20
4.66143
 11
3.0315
 21
4.17643
  0
LINE
  5
B8
100
AcDbEntity
  8
Thread
  6
ByLayer
 62
  256
370
   -1
100
AcDbLine
 10
4.2185
 20
4.66143
 11
4.2185
 21
4.17643
  0
LINE
  5
B9
100
AcDbEntity
  8
Outer Structual
  6
ByLayer
 62
  256
370
   -1
100
AcDbLine
 10
4.812
 20
3.633928571428572
 11
4.812
 21
3.718928571428572
  0
LINE
  5
BA
100
AcDbEntity
  8
Thread
  6
ByLayer
 62
  256
370
   -1
100
AcDbLine
 10
4.827
 20
3.733928571428572
 11
5.25
 21
3.733928571428572
  0
LINE
  5
BB
100
AcDbEntity
  8
Outer Structual
  6
ByLayer
 62
  256
370
   -1
100
AcDbLine
 10
4.812
 20
3.718928571428572
 11
4.827
 21
3.733928571428572
  0
LINE
  5
BC
100
AcDbEntity
  8
Thread
  6
ByLayer
 62
  256
370
   -1
100
AcDbLine
 10
4.827
 20
2.908928571428572
 11
5.25
 21
2.908928571428572
  0
LINE
  5
BD
100
AcDbEntity
  8
Outer Structual
  6
ByLayer
 62
  256
370
   -1
100
AcDbLine
 10
4.812
 20
2.923928571428572
 11
4.812
 21
3.008928571428572
  0
LINE
  5
BE
100
AcDbEntity
  8
Outer Structual
  6
ByLayer
 62
  256
370
   -1
100
AcDbLine
 10
4.827
 20
2.908928571428572
 11
4.812
 21
2.923928571428572
  0
LINE
  5
BF
100
AcDbEntity
  8
Outer Structual
  6
ByLayer
 62
  256
370
   -1
100
AcDbLine
 10
2.5
 20
2.908928571428571
 11
2.5
 21
3.008928571428572
  0
LINE
  5
C0
100
AcDbEntity
  8
Thread
  6
ByLayer
 62
  256
370
   -1
100
AcDbLine
 10
3.337
 20
3.373429923469387
 11
3.337
 21
3.061429923469387
  0
LINE
  5
C1
100
AcDbEntity
  8
Thread
  6
ByLayer
 62
  256
370
   -1
100
AcDbLine
 10
3.913
 20
3.373429923469387
 11
3.913
 21
3.061429923469387
  0
LINE
  5
C2
100
AcDbEntity
  8
Outer Structual
  6
ByLayer
 62
  256
370
   -1
100
AcDbLine
 10
3.913
 20
3.373
 11
3.937
 21
3.37343
  0
LINE
  5
C3
100
AcDbEntity
  8
Outer Structual
  6
ByLayer
 62
  256
370
   -1
100
AcDbLine
 10
3.313
 20
3.373429923469387
 11
3.337
 21
3.373429923469387
  0
LINE
  5
C4
100
AcDbEntity
  8
Outer Structual
  6
ByLayer
 62
  256
370
   -1
100
AcDbLine
 10
4.1735
 20
4.16143
 11
4.187500000000001
 21
4.16143
  0
ARC
  5
C5
100
AcDbEntity
  8
Outer Structual
  6
ByLayer
 62
  256
370
   -1
100
AcDbCircle
 10
4.187500000000001
 20
4.13043
 40
0.031
100
AcDbArc
 50
0
 51
90
  0
LINE
  5
C6
100
AcDbEntity
  8
Outer Structual
  6
ByLayer
 62
  256
370
   -1
100
AcDbLine
 10
3.0765
 20
4.16143
 11
3.0625
 21
4.16143
  0
ARC
  5
C7
100
AcDbEntity
  8
Outer Structual
  6
ByLayer
 62
  256
370
   -1
100
AcDbCircle
 10
3.0625
 20
4.13043
 40
0.031
100
AcDbArc
 50
90
 51
180
  0
LINE
  5
C8
100
AcDbEntity
  8
Thread
  6
ByLayer
 62
  256
370
   -1
100
AcDbLine
 10
3.0315
 20
4.17643
 11
3.031499999999999
 21
4.13043
  0
LINE
  5
C9
100
AcDbEntity
  8
Outer Structual
  6
ByLayer
 62
  256
370
   -1
100
AcDbLine
 10
2.5
 20
2.908928571428571
 11
2.539740176612703
 21
2.908928571428571
  0
ARC
  5
CA
100
AcDbEntity
  8
Outer Structual
  6
ByLayer
 62
  256
370
   -1
100
AcDbCircle
 10
2.539740176612703
 20
2.970928571428571
 40
0.062
100
AcDbArc
 50
270
 51
309.4992613240812
  0
LINE
  5
CB
100
AcDbEntity
  8
Outer Structual
  6
ByLayer
 62
  256
370
   -1
100
AcDbLine
 10
3.1875
 20
3.373429923469387
 11
3.147759823387297
 21
3.373429923469387
  0
LINE
  5
CC
100
AcDbEntity
  8
Outer Structual
  6
ByLayer
 62
  256
370
   -1
100
AcDbLine
 10
2.579176409488392
 20
2.923087338829751
 11
3.108323590511608
 21
3.359271156068207
  0
ARC
  5
CD
100
AcDbEntity
  8
Outer Structual
  6
ByLayer
 62
  256
370
   -1
100
AcDbCircle
 10
3.147759823387297
 20
3.311429923469387
 40
0.062
100
AcDbArc
 50
90
 51
129.4992613240812
  0
LINE
  5
CE
100
AcDbEntity
  8
Outer Structual
  6
ByLayer
 62
  256
370
   -1
100
AcDbLine
 10
3.315181794727901
 20
3.061429923469387
 11
2.967538950061492
 21
2.774862804791727
  0
ARC
  5
CF
100
AcDbEntity
  8
Outer Structual
  6
ByLayer
 62
  256
370
   -1
100
AcDbCircle
 10
3.006975182937182
 20
2.727021572192907
 40
0.062
100
AcDbArc
 50
129.4992613240812
 51
255.5054166950169
  0
LINE
  5
D0
100
AcDbEntity
  8
Outer Structual
  6
ByLayer
 62
  256
370
   -1
100
AcDbLine
 10
4.75
 20
3.008928571428572
 11
4.75
 21
2.888951005641315
  0
ARC
  5
D1
100
AcDbEntity
  8
Outer Structual
  6
ByLayer
 62
  256
370
   -1
100
AcDbCircle
 10
3.625
 20
5.117678571428576
 40
2.531250000000004
100
AcDbArc
 50
255.5054166950163
 51
295.4989838727782
  0
ARC
  5
D2
100
AcDbEntity
  8
Outer Structual
  6
ByLayer
 62
  256
370
   -1
100
AcDbCircle
 10
4.687999999999999
 20
2.888951005641315
 40
0.062
100
AcDbArc
 50
295.4989838727774
 51
0
  0
LINE
  5
D3
100
AcDbEntity
  8
Outer Structual
  6
ByLayer
 62
  256
370
   -1
100
AcDbLine
 10
3.031499999999999
 20
4.13043
 11
3.031499999999999
 21
3.970080678364553
  0
ARC
  5
D4
100
AcDbEntity
  8
Outer Structual
  6
ByLayer
 62
  256
370
   -1
100
AcDbCircle
 10
2.9695
 20
3.970080678364553
 40
0.062
100
AcDbArc
 50
285.0085369398073
 51
0
  0
LINE
  5
D5
100
AcDbEntity
  8
Outer Structual
  6
ByLayer
 62
  256
370
   -1
100
AcDbLine
 10
2.5
 20
3.633928571428572
 11
2.5
 21
3.685012723047627
  0
ARC
  5
D6
100
AcDbEntity
  8
Outer Structual
  6
ByLayer
 62
  256
370
   -1
100
AcDbCircle
 10
3.625
 20
1.525178571428571
 40
2.46925
100
AcDbArc
 50
105.0085369398073
 51
116.2049085022321
  0
ARC
  5
D7
100
AcDbEntity
  8
Outer Structual
  6
ByLayer
 62
  256
370
   -1
100
AcDbCircle
 10
2.562
 20
3.685012723047627
 40
0.062
100
AcDbArc
 50
116.2049085022322
 51
179.9999999999996
  0
LINE
  5
D8
100
AcDbEntity
  8
Thread
  6
ByLayer
 62
  256
370
   -1
100
AcDbLine
 10
4.2185
 20
4.17643
 11
4.218500000000001
 21
4.13043
  0
LINE
  5
D9
100
AcDbEntity
  8
Outer Structual
  6
ByLayer
 62
  256
370
   -1
100
AcDbLine
 10
4.2185
 20
4.13043
 11
4.218499999999999
 21
3.970080678364551
  0
ARC
  5
DA
100
AcDbEntity
  8
Outer Structual
  6
ByLayer
 62
  256
370
   -1
100
AcDbCircle
 10
4.2805
 20
3.97008067836455
 40
0.062
100
AcDbArc
 50
179.9999999999996
 51
254.9914630601929
  0
LINE
  5
DB
100
AcDbEntity
  8
Outer Structual
  6
ByLayer
 62
  256
370
   -1
100
AcDbLine
 10
4.0625
 20
3.373429923469387
 11
4.1255
 21
3.373429923469387
  0
ARC
  5
DC
100
AcDbEntity
  8
Outer Structual
  6
ByLayer
 62
  256
370
   -1
100
AcDbCircle
 10
4.1255
 20
3.560429923469387
 40
0.187
100
AcDbArc
 50
270
 51
0
  0
LINE
  5
DD
100
AcDbEntity
  8
Outer Structual
  6
ByLayer
 62
  256
370
   -1
100
AcDbLine
 10
4.3125
 20
3.560429923469387
 11
4.3125
 21
3.849743544170784
  0
ARC
  5
DE
100
AcDbEntity
  8
Outer Structual
  6
ByLayer
 62
  256
370
   -1
100
AcDbCircle
 10
4.2505
 20
3.849743544170784
 40
0.062
100
AcDbArc
 50
0
 51
74.93942753039785
  0
LINE
  5
DF
100
AcDbEntity
  8
Outer Structual
  6
ByLayer
 62
  256
370
   -1
100
AcDbLine
 10
3.937
 20
3.061429923469387
 11
4.07223473034401
 21
3.061429923469387
  0
ARC
  5
E0
100
AcDbEntity
  8
Outer Structual
  6
ByLayer
 62
  256
370
   -1
100
AcDbCircle
 10
4.07223473034401
 20
3.311429923469387
 40
0.25
100
AcDbArc
 50
270
 51
319.4795120611442
  0
LINE
  5
E1
100
AcDbEntity
  8
Outer Structual
  6
ByLayer
 62
  256
370
   -1
100
AcDbLine
 10
4.26228
 20
3.149
 11
4.63953
 21
3.67259
  0
ARC
  5
E2
100
AcDbEntity
  8
Outer Structual
  6
ByLayer
 62
  256
370
   -1
100
AcDbCircle
 10
4.688
 20
3.63393
 40
0.062
100
AcDbArc
 50
359.9986798207494
 51
501.4142516321391
  0
LINE
  5
E3
100
AcDbEntity
  8
Outer Structual
  6
ByLayer
 62
  256
370
   -1
100
AcDbLine
 10
2.8125
 20
4.361428571428571
 11
2.813
 21
4.361428571428571
  0
LINE
  5
E4
100
AcDbEntity
  8
Outer Structual
  6
ByLayer
 62
  256
370
   -1
100
AcDbLine
 10
2.7965
 20
4.66143
 11
3.061500000000195
 21
4.661429923469388
  0
CIRCLE
  5
E5
100
AcDbEntity
  8
Outer Structual
  6
ByLayer
 62
    1
370
    0
100
AcDbCircle
 10
2.438
 20
2.95443
 40
0.052246
  0
CIRCLE
  5
E6
100
AcDbEntity
  8
Outer Structual
  6
ByLayer
 62
    1
370
    0
100
AcDbCircle
 10
2
 20
2.90893
 40
0.052246
  0
CIRCLE
  5
E7
100
AcDbEntity
  8
Outer Structual
  6
ByLayer
 62
    1
370
    0
100
AcDbCircle
 10
2.438
 20
3.68843
 40
0.052246
  0
CIRCLE
  5
E8
100
AcDbEntity
  8
Outer Structual
  6
ByLayer
 62
    1
370
    0
100
AcDbCircle
 10
2
 20
3.73393
 40
0.052246
  0
CIRCLE
  5
E9
100
AcDbEntity
  8
Outer Structual
  6
ByLayer
 62
    1
370
    0
100
AcDbCircle
 10
4.812
 20
3.68843
 40
0.052246
  0
CIRCLE
  5
EA
100
AcDbEntity
  8
Outer Structual
  6
ByLayer
 62
    1
370
    0
100
AcDbCircle
 10
5.25
 20
3.73393
 40
0.052246
  0
CIRCLE
  5
EB
100
AcDbEntity
  8
Outer Structual
  6
ByLayer
 62
    1
370
    0
100
AcDbCircle
 10
4.812
 20
2.95443
 40
0.052246
  0
CIRCLE
  5
EC
100
AcDbEntity
  8
Outer Structual
  6
ByLayer
 62
    1
370
    0
100
AcDbCircle
 10
5.25
 20
2.90893
 40
0.052246
  0
ENDSEC
  0
SECTION
  2
OBJECTS
  0
DICTIONARY
  5
C
330
0
100
AcDbDictionary
281
    1
  3
ACAD_GROUP
350
D
  0
DICTIONARY
  5
D
330
C
100
AcDbDictionary
281
    1
  0
PLOTSETTINGS
  5
ED
100
AcDbPlotSettings
  6
1x1
 40
0
 41
0
 42
0
 43
0
  0
ENDSEC
  0
EOF
