999
dxfrw 0.6.3
  0
SECTION
  2
HEADER
  9
$ACADVER
  1
AC1021
  9
$DWGCODEPAGE
  3
ANSI_1252
  9
$INSBASE
 10
0
 20
0
 30
0
  9
$EXTMIN
 10
-1.647619444444444
 20
-4.538911179345546
 30
0
  9
$EXTMAX
 10
10.10799329575719
 20
12.2
 30
0
  9
$LIMMIN
 10
0
 20
0
  9
$LIMMAX
 10
420
 20
297
  9
$ORTHOMODE
 70
    0
  9
$REGENMODE
 70
    1
  9
$FILLMODE
 70
    1
  9
$QTEXTMODE
 70
    0
  9
$MIRRTEXT
 70
    0
  9
$LTSCALE
 40
1
  9
$ATTMODE
 70
    0
  9
$TEXTSIZE
 40
2.5
  9
$TRACEWID
 40
15.68
  9
$TEXTSTYLE
  7
STANDARD
  9
$CLAYER
  8
0
  9
$CELTYPE
  6
BYLAYER
  9
$CECOLOR
 62
  256
  9
$CELTSCALE
 40
1
  9
$DISPSILH
 70
    0
  9
$DIMSCALE
 40
1
  9
$DIMASZ
 40
0.0025
  9
$DIMEXO
 40
0.000625
  9
$DIMDLI
 40
3.75
  9
$DIMRND
 40
0
  9
$DIMDLE
 40
0
  9
$DIMEXE
 40
0.00125
  9
$DIMTP
 40
0
  9
$DIMTM
 40
0
  9
$DIMTXT
 40
0.0025
  9
$DIMCEN
 40
2.5
  9
$DIMTSZ
 40
0
  9
$DIMTOL
 70
    0
  9
$DIMLIM
 70
    0
  9
$DIMTIH
 70
    0
  9
$DIMTOH
 70
    0
  9
$DIMSE1
 70
    0
  9
$DIMSE2
 70
    0
  9
$DIMTAD
 70
    1
  9
$DIMZIN
 70
    1
  9
$DIMBLK
  1

  9
$DIMASO
 70
    1
  9
$DIMSHO
 70
    1
  9
$DIMPOST
  1

  9
$DIMAPOST
  1

  9
$DIMALT
 70
    0
  9
$DIMALTD
 70
    3
  9
$DIMALTF
 40
0.03937
  9
$DIMLFAC
 40
1
  9
$DIMTOFL
 70
    1
  9
$DIMTVP
 40
0
  9
$DIMTIX
 70
    0
  9
$DIMSOXD
 70
    0
  9
$DIMSAH
 70
    0
  9
$DIMBLK1
  1

  9
$DIMBLK2
  1

  9
$DIMSTYLE
  2
Standard
  9
$DIMCLRD
 70
    0
  9
$DIMCLRE
 70
    0
  9
$DIMCLRT
 70
    0
  9
$DIMTFAC
 40
1
  9
$DIMGAP
 40
0.000625
  9
$DIMJUST
 70
    0
  9
$DIMSD1
 70
    0
  9
$DIMSD2
 70
    0
  9
$DIMTOLJ
 70
    0
  9
$DIMTZIN
 70
    8
  9
$DIMALTZ
 70
    0
  9
$DIMALTTZ
 70
    0
  9
$DIMUPT
 70
    0
  9
$DIMDEC
 70
    4
  9
$DIMTDEC
 70
    2
  9
$DIMALTU
 70
    2
  9
$DIMALTTD
 70
    3
  9
$DIMTXSTY
  7
standard
  9
$DIMAUNIT
 70
    0
  9
$DIMADEC
 70
    0
  9
$DIMALTRND
 40
0
  9
$DIMAZIN
 70
    0
  9
$DIMDSEP
 70
    0
  9
$DIMATFIT
 70
    3
  9
$DIMFRAC
 70
    0
  9
$DIMLDRBLK
  1
STANDARD
  9
$DIMLUNIT
 70
    2
  9
$DIMLWD
 70
   -2
  9
$DIMLWE
 70
   -2
  9
$DIMTMOVE
 70
    0
  9
$DIMFXL
 40
0.001
  9
$DIMFXLON
 70
    0
  9
$DIMJOGANG
 40
0.7854
  9
$DIMTFILL
 70
    0
  9
$DIMTFILLCLR
 70
    0
  9
$DIMARCSYM
 70
    0
  9
$DIMLTYPE
  6

  9
$DIMLTEX1
  6

  9
$DIMLTEX2
  6

  9
$LUNITS
 70
    2
  9
$LUPREC
 70
    4
  9
$SKETCHINC
 40
1
  9
$FILLETRAD
 40
0
  9
$AUNITS
 70
    0
  9
$AUPREC
 70
    2
  9
$MENU
  1
.
  9
$ELEVATION
 40
0
  9
$PELEVATION
 40
0
  9
$THICKNESS
 40
0
  9
$LIMCHECK
 70
    0
  9
$CHAMFERA
 40
0
  9
$CHAMFERB
 40
0
  9
$CHAMFERC
 40
0
  9
$CHAMFERD
 40
0
  9
$SKPOLY
 70
    0
  9
$USRTIMER
 70
    1
  9
$ANGBASE
 50
0
  9
$ANGDIR
 70
    0
  9
$PDMODE
 70
   34
  9
$PDSIZE
 40
0
  9
$PLINEWID
 40
0
  9
$SPLFRAME
 70
    0
  9
$SPLINETYPE
 70
    2
  9
$SPLINESEGS
 70
    8
  9
$HANDSEED
  5
20000
  9
$SURFTAB1
 70
    6
  9
$SURFTAB2
 70
    6
  9
$SURFTYPE
 70
    6
  9
$SURFU
 70
    6
  9
$SURFV
 70
    6
  9
$UCSBASE
  2

  9
$UCSNAME
  2

  9
$UCSORG
 10
0
 20
0
 30
0
  9
$UCSXDIR
 10
1
 20
0
 30
0
  9
$UCSYDIR
 10
0
 20
1
 30
0
  9
$UCSORTHOREF
  2

  9
$UCSORTHOVIEW
 70
    0
  9
$UCSORGTOP
 10
0
 20
0
 30
0
  9
$UCSORGBOTTOM
 10
0
 20
0
 30
0
  9
$UCSORGLEFT
 10
0
 20
0
 30
0
  9
$UCSORGRIGHT
 10
0
 20
0
 30
0
  9
$UCSORGFRONT
 10
0
 20
0
 30
0
  9
$UCSORGBACK
 10
0
 20
0
 30
0
  9
$PUCSBASE
  2

  9
$PUCSNAME
  2

  9
$PUCSORG
 10
0
 20
0
 30
0
  9
$PUCSXDIR
 10
1
 20
0
 30
0
  9
$PUCSYDIR
 10
0
 20
1
 30
0
  9
$PUCSORTHOREF
  2

  9
$PUCSORTHOVIEW
 70
    0
  9
$PUCSORGTOP
 10
0
 20
0
 30
0
  9
$PUCSORGBOTTOM
 10
0
 20
0
 30
0
  9
$PUCSORGLEFT
 10
0
 20
0
 30
0
  9
$PUCSORGRIGHT
 10
0
 20
0
 30
0
  9
$PUCSORGFRONT
 10
0
 20
0
 30
0
  9
$PUCSORGBACK
 10
0
 20
0
 30
0
  9
$USERI1
 70
    0
  9
$USERI2
 70
    0
  9
$USERI3
 70
    0
  9
$USERI4
 70
    0
  9
$USERI5
 70
    0
  9
$USERR1
 40
0
  9
$USERR2
 40
0
  9
$USERR3
 40
0
  9
$USERR4
 40
0
  9
$USERR5
 40
0
  9
$WORLDVIEW
 70
    1
  9
$SHADEDGE
 70
    3
  9
$SHADEDIF
 70
   70
  9
$TILEMODE
 70
    1
  9
$MAXACTVP
 70
   64
  9
$PINSBASE
 10
0.06300597686888858
 20
0.1341360700926476
 30
0
  9
$PLIMCHECK
 70
    0
  9
$PEXTMIN
 10
0
 20
0
 30
0
  9
$PEXTMAX
 10
0
 20
0
 30
0
  9
$GRIDMODE
 70
    1
  9
$SNAPSTYLE
 70
    0
  9
$GRIDUNIT
 10
0
 20
0
  9
$PLIMMIN
 10
0
 20
0
  9
$PLIMMAX
 10
0.297
 20
0.42
  9
$UNITMODE
 70
    0
  9
$VISRETAIN
 70
    1
  9
$PLINEGEN
 70
    0
  9
$PSLTSCALE
 70
    1
  9
$TREEDEPTH
 70
 3020
  9
$CMLSTYLE
  2
Standard
  9
$CMLJUST
 70
    0
  9
$CMLSCALE
 40
20
  9
$PROXYGRAPHICS
 70
    1
  9
$MEASUREMENT
 70
    1
  9
$CELWEIGHT
370
   -1
  9
$ENDCAPS
280
    0
  9
$JOINSTYLE
280
    0
  9
$LWDISPLAY
290
    0
  9
$INSUNITS
 70
    6
  9
$HYPERLINKBASE
  1

  9
$STYLESHEET
  1

  9
$XEDIT
290
    1
  9
$CEPSNTYPE
380
    0
  9
$PSTYLEMODE
290
    1
  9
$EXTNAMES
290
    1
  9
$PSVPSCALE
 40
0.02
  9
$OLESTARTUP
290
    0
  9
$SORTENTS
280
  127
  9
$INDEXCTL
280
    0
  9
$HIDETEXT
280
    1
  9
$XCLIPFRAME
290
    0
  9
$HALOGAP
280
    0
  9
$OBSCOLOR
 70
  257
  9
$OBSLTYPE
280
    0
  9
$INTERSECTIONDISPLAY
280
    0
  9
$INTERSECTIONCOLOR
 70
  257
  9
$DIMASSOC
280
    1
  9
$PROJECTNAME
  1

  9
$CAMERADISPLAY
290
    0
  9
$LENSLENGTH
 40
50
  9
$CAMERAHEIGHT
 40
0
  9
$STEPSPERSEC
 40
2
  9
$STEPSIZE
 40
50
  9
$3DDWFPREC
 40
2
  9
$PSOLWIDTH
 40
5
  9
$PSOLHEIGHT
 40
80
  9
$LOFTANG1
 40
1.570796326794897
  9
$LOFTANG2
 40
1.570796326794897
  9
$LOFTMAG1
 40
0
  9
$LOFTMAG2
 40
0
  9
$LOFTPARAM
 70
    7
  9
$LOFTNORMALS
280
    1
  9
$LATITUDE
 40
1
  9
$LONGITUDE
 40
1
  9
$NORTHDIRECTION
 40
0
  9
$TIMEZONE
 70
-8000
  9
$LIGHTGLYPHDISPLAY
280
    1
  9
$TILEMODELIGHTSYNCH
280
    1
  9
$SOLIDHIST
280
    1
  9
$SHOWHIST
280
    1
  9
$DWFFRAME
280
    2
  9
$DGNFRAME
280
    0
  9
$REALWORLDSCALE
290
    1
  9
$INTERFERECOLOR
 62
    1
  9
$CSHADOW
280
    0
  9
$SHADOWPLANELOCATION
 40
0
  0
ENDSEC
  0
SECTION
  2
CLASSES
  0
ENDSEC
  0
SECTION
  2
TABLES
  0
TABLE
  2
VPORT
  5
8
330
0
100
AcDbSymbolTable
 70
    1
  0
VPORT
  5
31
330
2
100
AcDbSymbolTableRecord
100
AcDbViewportTableRecord
  2
*ACTIVE
 70
    0
 10
0
 20
0
 11
1
 21
1
 12
7.890232751604795
 22
2.127939941020252
 13
0
 23
0
 14
10
 24
10
 15
10
 25
10
 16
0
 26
0
 36
1
 17
0
 27
0
 37
0
 40
17.65558089678189
 41
1.789976133651551
 42
50
 43
0
 44
0
 50
0
 51
0
 71
    0
 72
  100
 73
    1
 74
    3
 75
    0
 76
    1
 77
    0
 78
    0
281
    0
 65
    1
110
0
120
0
130
0
111
1
121
0
131
0
112
0
122
1
132
0
 79
    0
146
0
348
10020
 60
    7
 61
    5
292
1
282
    1
141
0
142
0
 63
  250
421
3358443
  0
ENDTAB
  0
TABLE
  2
LTYPE
  5
5
330
0
100
AcDbSymbolTable
 70
    4
  0
LTYPE
  5
14
330
5
100
AcDbSymbolTableRecord
100
AcDbLinetypeTableRecord
  2
ByBlock
 70
    0
  3

 72
   65
 73
    0
 40
0
  0
LTYPE
  5
15
330
5
100
AcDbSymbolTableRecord
100
AcDbLinetypeTableRecord
  2
ByLayer
 70
    0
  3

 72
   65
 73
    0
 40
0
  0
LTYPE
  5
16
330
5
100
AcDbSymbolTableRecord
100
AcDbLinetypeTableRecord
  2
Continuous
 70
    0
  3
Solid line
 72
   65
 73
    0
 40
0
  0
LTYPE
  5
32
330
5
100
AcDbSymbolTableRecord
100
AcDbLinetypeTableRecord
  2
DOT
 70
    0
  3
Dot . . . . . . . . . . . . . . . . . . . . . .
 72
   65
 73
    2
 40
6.35
 49
0
 74
    0
 49
-6.35
 74
    0
  0
LTYPE
  5
33
330
5
100
AcDbSymbolTableRecord
100
AcDbLinetypeTableRecord
  2
DOTTINY
 70
    0
  3
Dot (.15x) .....................................
 72
   65
 73
    2
 40
0.9525
 49
0
 74
    0
 49
-0.9525
 74
    0
  0
LTYPE
  5
34
330
5
100
AcDbSymbolTableRecord
100
AcDbLinetypeTableRecord
  2
DOT2
 70
    0
  3
Dot (.5x) .....................................
 72
   65
 73
    2
 40
3.175
 49
0
 74
    0
 49
-3.175
 74
    0
  0
LTYPE
  5
35
330
5
100
AcDbSymbolTableRecord
100
AcDbLinetypeTableRecord
  2
DOTX2
 70
    0
  3
Dot (2x) .  .  .  .  .  .  .  .  .  .  .  .  .
 72
   65
 73
    2
 40
12.7
 49
0
 74
    0
 49
-12.7
 74
    0
  0
LTYPE
  5
36
330
5
100
AcDbSymbolTableRecord
100
AcDbLinetypeTableRecord
  2
DASHED
 70
    0
  3
Dashed _ _ _ _ _ _ _ _ _ _ _ _ _ _ _ _ _
 72
   65
 73
    2
 40
19.05
 49
12.7
 74
    0
 49
-6.35
 74
    0
  0
LTYPE
  5
37
330
5
100
AcDbSymbolTableRecord
100
AcDbLinetypeTableRecord
  2
DASHEDTINY
 70
    0
  3
Dashed (.15x) _ _ _ _ _ _ _ _ _ _ _ _ _ _ _ _ _
 72
   65
 73
    2
 40
2.8575
 49
1.905
 74
    0
 49
-0.9525
 74
    0
  0
LTYPE
  5
38
330
5
100
AcDbSymbolTableRecord
100
AcDbLinetypeTableRecord
  2
DASHED2
 70
    0
  3
Dashed (.5x) _ _ _ _ _ _ _ _ _ _ _ _ _ _ _ _ _
 72
   65
 73
    2
 40
9.524999999999999
 49
6.35
 74
    0
 49
-3.175
 74
    0
  0
LTYPE
  5
39
330
5
100
AcDbSymbolTableRecord
100
AcDbLinetypeTableRecord
  2
DASHEDX2
 70
    0
  3
Dashed (2x) ____  ____  ____  ____  ____  ___
 72
   65
 73
    2
 40
38.09999999999999
 49
25.4
 74
    0
 49
-12.7
 74
    0
  0
LTYPE
  5
3A
330
5
100
AcDbSymbolTableRecord
100
AcDbLinetypeTableRecord
  2
DASHDOT
 70
    0
  3
Dash dot __ . __ . __ . __ . __ . __ . __ . __
 72
   65
 73
    4
 40
25.4
 49
12.7
 74
    0
 49
-6.35
 74
    0
 49
0
 74
    0
 49
-6.35
 74
    0
  0
LTYPE
  5
3B
330
5
100
AcDbSymbolTableRecord
100
AcDbLinetypeTableRecord
  2
DASHDOTTINY
 70
    0
  3
Dash dot (.15x) _._._._._._._._._._._._._._._.
 72
   65
 73
    4
 40
3.81
 49
1.905
 74
    0
 49
-0.9525
 74
    0
 49
0
 74
    0
 49
-0.9525
 74
    0
  0
LTYPE
  5
3C
330
5
100
AcDbSymbolTableRecord
100
AcDbLinetypeTableRecord
  2
DASHDOT2
 70
    0
  3
Dash dot (.5x) _._._._._._._._._._._._._._._.
 72
   65
 73
    4
 40
12.7
 49
6.35
 74
    0
 49
-3.175
 74
    0
 49
0
 74
    0
 49
-3.175
 74
    0
  0
LTYPE
  5
3D
330
5
100
AcDbSymbolTableRecord
100
AcDbLinetypeTableRecord
  2
DASHDOTX2
 70
    0
  3
Dash dot (2x) ____  .  ____  .  ____  .  ___
 72
   65
 73
    4
 40
50.8
 49
25.4
 74
    0
 49
-12.7
 74
    0
 49
0
 74
    0
 49
-12.7
 74
    0
  0
LTYPE
  5
3E
330
5
100
AcDbSymbolTableRecord
100
AcDbLinetypeTableRecord
  2
DIVIDE
 70
    0
  3
Divide ____ . . ____ . . ____ . . ____ . . ____
 72
   65
 73
    6
 40
31.75
 49
12.7
 74
    0
 49
-6.35
 74
    0
 49
0
 74
    0
 49
-6.35
 74
    0
 49
0
 74
    0
 49
-6.35
 74
    0
  0
LTYPE
  5
3F
330
5
100
AcDbSymbolTableRecord
100
AcDbLinetypeTableRecord
  2
DIVIDETINY
 70
    0
  3
Divide (.15x) __..__..__..__..__..__..__..__.._
 72
   65
 73
    6
 40
4.7625
 49
1.905
 74
    0
 49
-0.9525
 74
    0
 49
0
 74
    0
 49
-0.9525
 74
    0
 49
0
 74
    0
 49
-0.9525
 74
    0
  0
LTYPE
  5
40
330
5
100
AcDbSymbolTableRecord
100
AcDbLinetypeTableRecord
  2
DIVIDE2
 70
    0
  3
Divide (.5x) __..__..__..__..__..__..__..__.._
 72
   65
 73
    6
 40
15.875
 49
6.35
 74
    0
 49
-3.175
 74
    0
 49
0
 74
    0
 49
-3.175
 74
    0
 49
0
 74
    0
 49
-3.175
 74
    0
  0
LTYPE
  5
41
330
5
100
AcDbSymbolTableRecord
100
AcDbLinetypeTableRecord
  2
DIVIDEX2
 70
    0
  3
Divide (2x) ________  .  .  ________  .  .  _
 72
   65
 73
    6
 40
63.5
 49
25.4
 74
    0
 49
-12.7
 74
    0
 49
0
 74
    0
 49
-12.7
 74
    0
 49
0
 74
    0
 49
-12.7
 74
    0
  0
LTYPE
  5
42
330
5
100
AcDbSymbolTableRecord
100
AcDbLinetypeTableRecord
  2
BORDER
 70
    0
  3
Border __ __ . __ __ . __ __ . __ __ . __ __ .
 72
   65
 73
    6
 40
44.45
 49
12.7
 74
    0
 49
-6.35
 74
    0
 49
12.7
 74
    0
 49
-6.35
 74
    0
 49
0
 74
    0
 49
-6.35
 74
    0
  0
LTYPE
  5
43
330
5
100
AcDbSymbolTableRecord
100
AcDbLinetypeTableRecord
  2
BORDERTINY
 70
    0
  3
Border (.15x) __.__.__.__.__.__.__.__.__.__.__.
 72
   65
 73
    6
 40
6.6675
 49
1.905
 74
    0
 49
-0.9525
 74
    0
 49
1.905
 74
    0
 49
-0.9525
 74
    0
 49
0
 74
    0
 49
-0.9525
 74
    0
  0
LTYPE
  5
44
330
5
100
AcDbSymbolTableRecord
100
AcDbLinetypeTableRecord
  2
BORDER2
 70
    0
  3
Border (.5x) __.__.__.__.__.__.__.__.__.__.__.
 72
   65
 73
    6
 40
22.225
 49
6.35
 74
    0
 49
-3.175
 74
    0
 49
6.35
 74
    0
 49
-3.175
 74
    0
 49
0
 74
    0
 49
-3.175
 74
    0
  0
LTYPE
  5
45
330
5
100
AcDbSymbolTableRecord
100
AcDbLinetypeTableRecord
  2
BORDERX2
 70
    0
  3
Border (2x) ____  ____  .  ____  ____  .  ___
 72
   65
 73
    6
 40
88.89999999999999
 49
25.4
 74
    0
 49
-12.7
 74
    0
 49
25.4
 74
    0
 49
-12.7
 74
    0
 49
0
 74
    0
 49
-12.7
 74
    0
  0
LTYPE
  5
46
330
5
100
AcDbSymbolTableRecord
100
AcDbLinetypeTableRecord
  2
CENTER
 70
    0
  3
Center ____ _ ____ _ ____ _ ____ _ ____ _ ____
 72
   65
 73
    4
 40
50.8
 49
31.75
 74
    0
 49
-6.35
 74
    0
 49
6.35
 74
    0
 49
-6.35
 74
    0
  0
LTYPE
  5
47
330
5
100
AcDbSymbolTableRecord
100
AcDbLinetypeTableRecord
  2
CENTERTINY
 70
    0
  3
Center (.15x) ___ _ ___ _ ___ _ ___ _ ___ _ ___
 72
   65
 73
    4
 40
7.619999999999999
 49
4.7625
 74
    0
 49
-0.9525
 74
    0
 49
0.9525
 74
    0
 49
-0.9525
 74
    0
  0
LTYPE
  5
48
330
5
100
AcDbSymbolTableRecord
100
AcDbLinetypeTableRecord
  2
CENTER2
 70
    0
  3
Center (.5x) ___ _ ___ _ ___ _ ___ _ ___ _ ___
 72
   65
 73
    4
 40
28.575
 49
19.05
 74
    0
 49
-3.175
 74
    0
 49
3.175
 74
    0
 49
-3.175
 74
    0
  0
LTYPE
  5
49
330
5
100
AcDbSymbolTableRecord
100
AcDbLinetypeTableRecord
  2
CENTERX2
 70
    0
  3
Center (2x) ________  __  ________  __  _____
 72
   65
 73
    4
 40
101.6
 49
63.5
 74
    0
 49
-12.7
 74
    0
 49
12.7
 74
    0
 49
-12.7
 74
    0
  0
ENDTAB
  0
TABLE
  2
LAYER
  5
2
330
0
100
AcDbSymbolTable
 70
    1
  0
LAYER
  5
10
330
2
100
AcDbSymbolTableRecord
100
AcDbLayerTableRecord
  2
0
 70
    0
 62
    7
  6
CONTINUOUS
370
   -3
390
F
  0
ENDTAB
  0
TABLE
  2
STYLE
  5
3
330
0
100
AcDbSymbolTable
 70
    3
  0
STYLE
  5
4A
330
2
100
AcDbSymbolTableRecord
100
AcDbTextStyleTableRecord
  2
romanc
 70
    0
 40
0
 41
1
 50
0
 71
    0
 42
1
  3
romanc
  4

  0
STYLE
  5
4B
330
2
100
AcDbSymbolTableRecord
100
AcDbTextStyleTableRecord
  2
Standard
 70
    0
 40
0
 41
1
 50
0
 71
    0
 42
1
  3
Standard
  4

  0
ENDTAB
  0
TABLE
  2
VIEW
  5
6
330
0
100
AcDbSymbolTable
 70
    0
  0
ENDTAB
  0
TABLE
  2
UCS
  5
7
330
0
100
AcDbSymbolTable
 70
    0
  0
ENDTAB
  0
TABLE
  2
APPID
  5
9
330
0
100
AcDbSymbolTable
 70
    1
  0
APPID
  5
12
330
9
100
AcDbSymbolTableRecord
100
AcDbRegAppTableRecord
  2
ACAD
 70
    0
  0
APPID
  5
4C
330
9
100
AcDbSymbolTableRecord
100
AcDbRegAppTableRecord
  2
LibreCad
 70
    0
  0
ENDTAB
  0
TABLE
  2
DIMSTYLE
  5
A
330
0
100
AcDbSymbolTable
 70
    1
100
AcDbDimStyleTable
 71
    1
  0
DIMSTYLE
105
4D
330
A
100
AcDbSymbolTableRecord
100
AcDbDimStyleTableRecord
  2
Standard
 70
    0
 40
1
 41
0.0025
 42
0.000625
 43
0.38
 44
0.00125
 45
0
 46
0
 47
0
 48
0
 49
0.001
140
0.0025
141
0.09
142
0
143
25.4
144
1
145
0
146
1
147
0.000625
148
0
 71
    0
 72
    0
 73
    0
 74
    1
 75
    0
 76
    0
 77
    0
 78
    1
 79
    0
170
    0
171
    2
172
    0
173
    0
174
    0
175
    0
176
    0
177
    0
178
    0
179
    0
271
    4
272
    4
273
    2
274
    2
275
    0
276
    0
277
    2
278
    0
279
    0
280
    0
281
    0
282
    0
283
    1
284
    0
285
    0
286
    0
288
    0
289
    3
340
standard
341

371
   -2
372
   -2
  0
ENDTAB
  0
TABLE
  2
BLOCK_RECORD
  5
1
330
0
100
AcDbSymbolTable
 70
    2
  0
BLOCK_RECORD
  5
1F
330
1
100
AcDbSymbolTableRecord
100
AcDbBlockTableRecord
  2
*Model_Space
 70
    0
280
    1
281
    0
  0
BLOCK_RECORD
  5
1E
330
1
100
AcDbSymbolTableRecord
100
AcDbBlockTableRecord
  2
*Paper_Space
 70
    0
280
    1
281
    0
  0
BLOCK_RECORD
  5
4E
330
1
100
AcDbSymbolTableRecord
100
AcDbBlockTableRecord
  2
A$C4358031c
 70
    0
280
    1
281
    0
  0
BLOCK_RECORD
  5
51
330
1
100
AcDbSymbolTableRecord
100
AcDbBlockTableRecord
  2
A$C11e897d3
 70
    0
280
    1
281
    0
  0
BLOCK_RECORD
  5
54
330
1
100
AcDbSymbolTableRecord
100
AcDbBlockTableRecord
  2
A$Cb8c8c7dd
 70
    0
280
    1
281
    0
  0
BLOCK_RECORD
  5
57
330
1
100
AcDbSymbolTableRecord
100
AcDbBlockTableRecord
  2
A$C7830226c
 70
    0
280
    1
281
    0
  0
BLOCK_RECORD
  5
5A
330
1
100
AcDbSymbolTableRecord
100
AcDbBlockTableRecord
  2
A$C17c32099
 70
    0
280
    1
281
    0
  0
BLOCK_RECORD
  5
5D
330
1
100
AcDbSymbolTableRecord
100
AcDbBlockTableRecord
  2
A$Cf98065e6
 70
    0
280
    1
281
    0
  0
ENDTAB
  0
ENDSEC
  0
SECTION
  2
BLOCKS
  0
BLOCK
  5
20
330
1F
100
AcDbEntity
  8
0
100
AcDbBlockBegin
  2
*Model_Space
 70
    0
 10
0
 20
0
 30
0
  3
*Model_Space
  1

  0
ENDBLK
  5
21
330
1F
100
AcDbEntity
  8
0
100
AcDbBlockEnd
  0
BLOCK
  5
1C
330
1B
100
AcDbEntity
  8
0
100
AcDbBlockBegin
  2
*Paper_Space
 70
    0
 10
0
 20
0
 30
0
  3
*Paper_Space
  1

  0
ENDBLK
  5
1D
330
1F
100
AcDbEntity
  8
0
100
AcDbBlockEnd
  0
BLOCK
  5
4F
330
4E
100
AcDbEntity
  8
0
100
AcDbBlockBegin
  2
A$C4358031c
 70
    0
 10
0
 20
0
  3
A$C4358031c
  1

  0
SPLINE
  5
60
100
AcDbEntity
  8
0
  6
ByLayer
 62
  256
370
   -1
100
AcDbSpline
210
0
220
0
230
0
 70
    8
 71
    3
 72
   25
 73
   21
 74
    0
 42
1e-07
 43
1e-07
 40
0
 40
0
 40
0
 40
0
 40
0.0555556
 40
0.1111111
 40
0.1666667
 40
0.2222222
 40
0.2777778
 40
0.3333333
 40
0.3888889
 40
0.4444444
 40
0.5
 40
0.5555555999999999
 40
0.6111111
 40
0.6666666999999999
 40
0.7222221999999999
 40
0.7777778
 40
0.8333332999999999
 40
0.8888889
 40
0.9444444
 40
1
 40
1
 40
1
 40
1
 10
0
 20
0
 30
0
 10
0.5
 20
0
 30
0
 10
1
 20
0
 30
0
 10
1.5
 20
0
 30
0
 10
2
 20
0
 30
0
 10
2.5
 20
-0.5
 30
0
 10
3
 20
-1
 30
0
 10
3.5
 20
0
 30
0
 10
4
 20
1
 30
0
 10
4.5
 20
0.5
 30
0
 10
5
 20
0
 30
0
 10
5.5
 20
0.5
 30
0
 10
6
 20
1
 30
0
 10
6.5
 20
1
 30
0
 10
7
 20
1
 30
0
 10
7.5
 20
0
 30
0
 10
8
 20
-1
 30
0
 10
8.5
 20
0
 30
0
 10
9
 20
1
 30
0
 10
9.5
 20
1.5
 30
0
 10
10
 20
2
 30
0
  0
ENDBLK
  5
50
330
4E
100
AcDbEntity
  8
0
100
AcDbBlockEnd
  0
BLOCK
  5
52
330
51
100
AcDbEntity
  8
0
100
AcDbBlockBegin
  2
A$C11e897d3
 70
    0
 10
0
 20
0
  3
A$C11e897d3
  1

  0
SPLINE
  5
61
100
AcDbEntity
  8
0
  6
ByLayer
 62
  256
370
   -1
100
AcDbSpline
210
0
220
0
230
0
 70
    8
 71
    3
 72
   25
 73
   21
 74
    0
 42
1e-07
 43
1e-07
 40
0
 40
0
 40
0
 40
0
 40
0.0555556
 40
0.1111111
 40
0.1666667
 40
0.2222222
 40
0.2777778
 40
0.3333333
 40
0.3888889
 40
0.4444444
 40
0.5
 40
0.5555555999999999
 40
0.6111111
 40
0.6666666999999999
 40
0.7222221999999999
 40
0.7777778
 40
0.8333332999999999
 40
0.8888889
 40
0.9444444
 40
1
 40
1
 40
1
 40
1
 10
0
 20
0
 30
0
 10
0.5
 20
0
 30
0
 10
1
 20
0
 30
0
 10
1.5
 20
-0.5
 30
0
 10
2
 20
-1
 30
0
 10
2.5
 20
-1.5
 30
0
 10
3
 20
-2
 30
0
 10
3.5
 20
-0.5
 30
0
 10
4
 20
1
 30
0
 10
4.5
 20
0
 30
0
 10
5
 20
-1
 30
0
 10
5.5
 20
-0.5
 30
0
 10
6
 20
0
 30
0
 10
6.5
 20
1
 30
0
 10
7
 20
2
 30
0
 10
7.5
 20
0.5
 30
0
 10
8
 20
-1
 30
0
 10
8.5
 20
-0.5
 30
0
 10
9
 20
0
 30
0
 10
9.5
 20
0.5
 30
0
 10
10
 20
1
 30
0
  0
ENDBLK
  5
53
330
51
100
AcDbEntity
  8
0
100
AcDbBlockEnd
  0
BLOCK
  5
55
330
54
100
AcDbEntity
  8
0
100
AcDbBlockBegin
  2
A$Cb8c8c7dd
 70
    0
 10
0
 20
0
  3
A$Cb8c8c7dd
  1

  0
SPLINE
  5
62
100
AcDbEntity
  8
0
  6
ByLayer
 62
  256
370
   -1
100
AcDbSpline
210
0
220
0
230
0
 70
    8
 71
    3
 72
   25
 73
   21
 74
    0
 42
1e-07
 43
1e-07
 40
0
 40
0
 40
0
 40
0
 40
0.0555556
 40
0.1111111
 40
0.1666667
 40
0.2222222
 40
0.2777778
 40
0.3333333
 40
0.3888889
 40
0.4444444
 40
0.5
 40
0.5555555999999999
 40
0.6111111
 40
0.6666666999999999
 40
0.7222221999999999
 40
0.7777778
 40
0.8333332999999999
 40
0.8888889
 40
0.9444444
 40
1
 40
1
 40
1
 40
1
 10
0
 20
0
 30
0
 10
0.5
 20
0
 30
0
 10
1
 20
0
 30
0
 10
1.5
 20
0
 30
0
 10
2
 20
0
 30
0
 10
2.5
 20
-0.5
 30
0
 10
3
 20
-1
 30
0
 10
3.5
 20
0
 30
0
 10
4
 20
1
 30
0
 10
4.5
 20
0.5
 30
0
 10
5
 20
0
 30
0
 10
5.5
 20
0.5
 30
0
 10
6
 20
1
 30
0
 10
6.5
 20
1
 30
0
 10
7
 20
1
 30
0
 10
7.5
 20
0
 30
0
 10
8
 20
-1
 30
0
 10
8.5
 20
0
 30
0
 10
9
 20
1
 30
0
 10
9.5
 20
1.5
 30
0
 10
10
 20
2
 30
0
  0
LWPOLYLINE
  5
63
100
AcDbEntity
  8
0
  6
ByLayer
 62
  256
370
   -1
100
AcDbPolyline
 90
   21
 70
    0
 43
0
 10
0
 20
0
 10
0.5
 20
0
 10
1
 20
0
 10
1.5
 20
0
 10
2
 20
0
 10
2.5
 20
-0.5
 10
3
 20
-1
 10
3.5
 20
0
 10
4
 20
1
 10
4.5
 20
0.5
 10
5
 20
0
 10
5.5
 20
0.5
 10
6
 20
1
 10
6.5
 20
1
 10
7
 20
1
 10
7.5
 20
0
 10
8
 20
-1
 10
8.5
 20
0
 10
9
 20
1
 10
9.5
 20
1.5
 10
10
 20
2
  0
ENDBLK
  5
56
330
54
100
AcDbEntity
  8
0
100
AcDbBlockEnd
  0
BLOCK
  5
58
330
57
100
AcDbEntity
  8
0
100
AcDbBlockBegin
  2
A$C7830226c
 70
    0
 10
0
 20
0
  3
A$C7830226c
  1

  0
SPLINE
  5
64
100
AcDbEntity
  8
0
  6
ByLayer
 62
  256
370
   -1
100
AcDbSpline
210
0
220
0
230
0
 70
    8
 71
    3
 72
   25
 73
   21
 74
    0
 42
1e-07
 43
1e-07
 40
0
 40
0
 40
0
 40
0
 40
0.0555556
 40
0.1111111
 40
0.1666667
 40
0.2222222
 40
0.2777778
 40
0.3333333
 40
0.3888889
 40
0.4444444
 40
0.5
 40
0.5555555999999999
 40
0.6111111
 40
0.6666666999999999
 40
0.7222221999999999
 40
0.7777778
 40
0.8333332999999999
 40
0.8888889
 40
0.9444444
 40
1
 40
1
 40
1
 40
1
 10
0
 20
0
 30
0
 10
0.5
 20
0
 30
0
 10
1
 20
0
 30
0
 10
1.5
 20
-0.5
 30
0
 10
2
 20
-1
 30
0
 10
2.5
 20
-1.5
 30
0
 10
3
 20
-2
 30
0
 10
3.5
 20
-0.5
 30
0
 10
4
 20
1
 30
0
 10
4.5
 20
0
 30
0
 10
5
 20
-1
 30
0
 10
5.5
 20
-0.5
 30
0
 10
6
 20
0
 30
0
 10
6.5
 20
1
 30
0
 10
7
 20
2
 30
0
 10
7.5
 20
0.5
 30
0
 10
8
 20
-1
 30
0
 10
8.5
 20
-0.5
 30
0
 10
9
 20
0
 30
0
 10
9.5
 20
0.5
 30
0
 10
10
 20
1
 30
0
  0
LWPOLYLINE
  5
65
100
AcDbEntity
  8
0
  6
ByLayer
 62
  256
370
   -1
100
AcDbPolyline
 90
   21
 70
    0
 43
0
 10
0
 20
0
 10
0.5
 20
0
 10
1
 20
0
 10
1.5
 20
-0.5
 10
2
 20
-1
 10
2.5
 20
-1.5
 10
3
 20
-2
 10
3.5
 20
-0.5
 10
4
 20
1
 10
4.5
 20
0
 10
5
 20
-1
 10
5.5
 20
-0.5
 10
6
 20
0
 10
6.5
 20
1
 10
7
 20
2
 10
7.5
 20
0.5
 10
8
 20
-1
 10
8.5
 20
-0.5
 10
9
 20
0
 10
9.5
 20
0.5
 10
10
 20
1
  0
ENDBLK
  5
59
330
57
100
AcDbEntity
  8
0
100
AcDbBlockEnd
  0
BLOCK
  5
5B
330
5A
100
AcDbEntity
  8
0
100
AcDbBlockBegin
  2
A$C17c32099
 70
    0
 10
0
 20
0
  3
A$C17c32099
  1

  0
SPLINE
  5
66
100
AcDbEntity
  8
0
  6
ByLayer
 62
  256
370
   -1
100
AcDbSpline
210
0
220
0
230
0
 70
    8
 71
    3
 72
   25
 73
   21
 74
    0
 42
1e-07
 43
1e-07
 40
0
 40
0
 40
0
 40
0
 40
0.0555556
 40
0.1111111
 40
0.1666667
 40
0.2222222
 40
0.2777778
 40
0.3333333
 40
0.3888889
 40
0.4444444
 40
0.5
 40
0.5555555999999999
 40
0.6111111
 40
0.6666666999999999
 40
0.7222221999999999
 40
0.7777778
 40
0.8333332999999999
 40
0.8888889
 40
0.9444444
 40
1
 40
1
 40
1
 40
1
 10
0
 20
3
 30
0
 10
0.5
 20
3.5
 30
0
 10
1
 20
4
 30
0
 10
1.5
 20
4
 30
0
 10
2
 20
4
 30
0
 10
2.5
 20
3
 30
0
 10
3
 20
2
 30
0
 10
3.5
 20
3
 30
0
 10
4
 20
4
 30
0
 10
4.5
 20
3.5
 30
0
 10
5
 20
3
 30
0
 10
5.5
 20
3
 30
0
 10
6
 20
3
 30
0
 10
6.5
 20
3.5
 30
0
 10
7
 20
4
 30
0
 10
7.5
 20
3.5
 30
0
 10
8
 20
3
 30
0
 10
8.5
 20
3
 30
0
 10
9
 20
3
 30
0
 10
9.5
 20
3.5
 30
0
 10
10
 20
4
 30
0
  0
LWPOLYLINE
  5
67
100
AcDbEntity
  8
0
  6
ByLayer
 62
  256
370
   -1
100
AcDbPolyline
 90
   21
 70
    0
 43
0
 10
0
 20
3
 10
0.5
 20
3.5
 10
1
 20
4
 10
1.5
 20
4
 10
2
 20
4
 10
2.5
 20
3
 10
3
 20
2
 10
3.5
 20
3
 10
4
 20
4
 10
4.5
 20
3.5
 10
5
 20
3
 10
5.5
 20
3
 10
6
 20
3
 10
6.5
 20
3.5
 10
7
 20
4
 10
7.5
 20
3.5
 10
8
 20
3
 10
8.5
 20
3
 10
9
 20
3
 10
9.5
 20
3.5
 10
10
 20
4
  0
ENDBLK
  5
5C
330
5A
100
AcDbEntity
  8
0
100
AcDbBlockEnd
  0
BLOCK
  5
5E
330
5D
100
AcDbEntity
  8
0
100
AcDbBlockBegin
  2
A$Cf98065e6
 70
    0
 10
0
 20
0
  3
A$Cf98065e6
  1

  0
SPLINE
  5
68
100
AcDbEntity
  8
0
  6
ByLayer
 62
  256
370
   -1
100
AcDbSpline
210
0
220
0
230
0
 70
    8
 71
    3
 72
   25
 73
   21
 74
    0
 42
1e-07
 43
1e-07
 40
0
 40
0
 40
0
 40
0
 40
0.0555556
 40
0.1111111
 40
0.1666667
 40
0.2222222
 40
0.2777778
 40
0.3333333
 40
0.3888889
 40
0.4444444
 40
0.5
 40
0.5555555999999999
 40
0.6111111
 40
0.6666666999999999
 40
0.7222221999999999
 40
0.7777778
 40
0.8333332999999999
 40
0.8888889
 40
0.9444444
 40
1
 40
1
 40
1
 40
1
 10
0
 20
0
 30
0
 10
0.5
 20
0.5
 30
0
 10
1
 20
0.9999999999999996
 30
0
 10
1.5
 20
0.9999999999999996
 30
0
 10
2
 20
0.9999999999999996
 30
0
 10
2.5
 20
0
 30
0
 10
3
 20
-1
 30
0
 10
3.5
 20
0
 30
0
 10
4
 20
0.9999999999999996
 30
0
 10
4.5
 20
0.5
 30
0
 10
5
 20
0
 30
0
 10
5.5
 20
0
 30
0
 10
6
 20
0
 30
0
 10
6.5
 20
0.5
 30
0
 10
7
 20
0.9999999999999996
 30
0
 10
7.5
 20
0.5
 30
0
 10
8
 20
0
 30
0
 10
8.5
 20
0
 30
0
 10
9
 20
0
 30
0
 10
9.5
 20
0.5
 30
0
 10
10
 20
0.9999999999999996
 30
0
  0
ENDBLK
  5
5F
330
5D
100
AcDbEntity
  8
0
100
AcDbBlockEnd
  0
ENDSEC
  0
SECTION
  2
ENTITIES
  0
LINE
  5
69
100
AcDbEntity
  8
0
  6
ByLayer
 62
  256
370
   -1
100
AcDbLine
 10
-1.77635683940025e-15
 20
10
 11
-0.6502505288659837
 21
10
  0
LINE
  5
6A
100
AcDbEntity
  8
0
  6
ByLayer
 62
  256
370
   -1
100
AcDbLine
 10
0
 20
6
 11
-0.6502505288659819
 21
6
  0
LINE
  5
6B
100
AcDbEntity
  8
0
  6
ByLayer
 62
  256
370
   -1
100
AcDbLine
 10
0
 20
3
 11
-0.6502505288659819
 21
3
  0
LINE
  5
6C
100
AcDbEntity
  8
0
  6
ByLayer
 62
  256
370
   -1
100
AcDbLine
 10
0
 20
2
 11
-0.6502505288659819
 21
2
  0
LINE
  5
6D
100
AcDbEntity
  8
0
  6
ByLayer
 62
  256
370
   -1
100
AcDbLine
 10
0
 20
1
 11
-0.6502505288659819
 21
1
  0
LINE
  5
6E
100
AcDbEntity
  8
0
  6
ByLayer
 62
  256
370
   -1
100
AcDbLine
 10
-1.77635683940025e-15
 20
9.5
 11
-0.4023869852615167
 21
9.5
  0
LINE
  5
6F
100
AcDbEntity
  8
0
  6
ByLayer
 62
  256
370
   -1
100
AcDbLine
 10
-1.77635683940025e-15
 20
8.5
 11
-0.4023869852615167
 21
8.5
  0
LINE
  5
70
100
AcDbEntity
  8
0
  6
ByLayer
 62
  256
370
   -1
100
AcDbLine
 10
0
 20
7.5
 11
-0.402386985261515
 21
7.5
  0
LINE
  5
71
100
AcDbEntity
  8
0
  6
ByLayer
 62
  256
370
   -1
100
AcDbLine
 10
0
 20
6.5
 11
-0.402386985261515
 21
6.5
  0
LINE
  5
72
100
AcDbEntity
  8
0
  6
ByLayer
 62
  256
370
   -1
100
AcDbLine
 10
0
 20
5.5
 11
-0.402386985261515
 21
5.5
  0
LINE
  5
73
100
AcDbEntity
  8
0
  6
ByLayer
 62
  256
370
   -1
100
AcDbLine
 10
0
 20
4.5
 11
-0.402386985261515
 21
4.5
  0
LINE
  5
74
100
AcDbEntity
  8
0
  6
ByLayer
 62
  256
370
   -1
100
AcDbLine
 10
0
 20
3.5
 11
-0.402386985261515
 21
3.5
  0
LINE
  5
75
100
AcDbEntity
  8
0
  6
ByLayer
 62
  256
370
   -1
100
AcDbLine
 10
0
 20
2.5
 11
-0.402386985261515
 21
2.5
  0
LINE
  5
76
100
AcDbEntity
  8
0
  6
ByLayer
 62
  256
370
   -1
100
AcDbLine
 10
0
 20
1.5
 11
-0.402386985261515
 21
1.5
  0
LINE
  5
77
100
AcDbEntity
  8
0
  6
ByLayer
 62
  256
370
   -1
100
AcDbLine
 10
0
 20
5
 11
-0.6502505288659819
 21
5
  0
LINE
  5
78
100
AcDbEntity
  8
0
  6
ByLayer
 62
  256
370
   -1
100
AcDbLine
 10
0
 20
4
 11
-0.6502505288659819
 21
4
  0
LINE
  5
79
100
AcDbEntity
  8
0
  6
ByLayer
 62
  256
370
   -1
100
AcDbLine
 10
0
 20
0.5
 11
-0.402386985261515
 21
0.5
  0
LINE
  5
7A
100
AcDbEntity
  8
0
  6
ByLayer
 62
  256
370
   -1
100
AcDbLine
 10
0
 20
0
 11
-0.6502505288659819
 21
0
  0
LINE
  5
7B
100
AcDbEntity
  8
0
  6
ByLayer
 62
  256
370
   -1
100
AcDbLine
 10
0
 20
7
 11
-0.6502505288659819
 21
7
  0
LINE
  5
7C
100
AcDbEntity
  8
0
  6
ByLayer
 62
  256
370
   -1
100
AcDbLine
 10
4.5
 20
0
 11
4.5
 21
-0.402386985261515
  0
LINE
  5
7D
100
AcDbEntity
  8
0
  6
ByLayer
 62
  256
370
   -1
100
AcDbLine
 10
0
 20
8
 11
-0.6502505288659819
 21
8
  0
LINE
  5
7E
100
AcDbEntity
  8
0
  6
ByLayer
 62
  256
370
   -1
100
AcDbLine
 10
5
 20
0
 11
5
 21
-0.6502505288659819
  0
LINE
  5
7F
100
AcDbEntity
  8
0
  6
ByLayer
 62
  256
370
   -1
100
AcDbLine
 10
-1.77635683940025e-15
 20
9
 11
-0.6502505288659837
 21
9
  0
LINE
  5
80
100
AcDbEntity
  8
0
  6
ByLayer
 62
  256
370
   -1
100
AcDbLine
 10
5.5
 20
0
 11
5.5
 21
-0.402386985261515
  0
LINE
  5
81
100
AcDbEntity
  8
0
  6
ByLayer
 62
  256
370
   -1
100
AcDbLine
 10
6.5
 20
0
 11
6.5
 21
-0.402386985261515
  0
LINE
  5
82
100
AcDbEntity
  8
0
  6
ByLayer
 62
  256
370
   -1
100
AcDbLine
 10
7
 20
0
 11
7
 21
-0.6502505288659819
  0
LINE
  5
83
100
AcDbEntity
  8
0
  6
ByLayer
 62
  256
370
   -1
100
AcDbLine
 10
7.5
 20
0
 11
7.5
 21
-0.402386985261515
  0
LINE
  5
84
100
AcDbEntity
  8
0
  6
ByLayer
 62
  256
370
   -1
100
AcDbLine
 10
8
 20
0
 11
8
 21
-0.6502505288659819
  0
LINE
  5
85
100
AcDbEntity
  8
0
  6
ByLayer
 62
  256
370
   -1
100
AcDbLine
 10
8.5
 20
0
 11
8.5
 21
-0.402386985261515
  0
LINE
  5
86
100
AcDbEntity
  8
0
  6
ByLayer
 62
  256
370
   -1
100
AcDbLine
 10
10
 20
0
 11
10
 21
-0.6502505288659819
  0
MTEXT
  5
87
100
AcDbEntity
  8
0
  6
ByLayer
 62
  256
370
   -1
100
AcDbMText
 10
-0.09200670424280588
 20
-0.9135036336055307
 30
0
 40
0.2
 41
0.08888888888888888
 71
    1
 72
    5
  1
0
  7
Standard
210
0
220
0
230
1
 50
90
 73
    1
 44
1
  0
LINE
  5
88
100
AcDbEntity
  8
0
  6
ByLayer
 62
  256
370
   -1
100
AcDbLine
 10
9
 20
0
 11
9
 21
-0.6502505288659819
  0
LINE
  5
89
100
AcDbEntity
  8
0
  6
ByLayer
 62
  256
370
   -1
100
AcDbLine
 10
0
 20
0
 11
0
 21
-0.6502505288659819
  0
LINE
  5
8A
100
AcDbEntity
  8
0
  6
ByLayer
 62
  256
370
   -1
100
AcDbLine
 10
0.5
 20
0
 11
0.5
 21
-0.402386985261515
  0
LINE
  5
8B
100
AcDbEntity
  8
0
  6
ByLayer
 62
  256
370
   -1
100
AcDbLine
 10
1
 20
0
 11
1
 21
-0.6502505288659819
  0
LINE
  5
8C
100
AcDbEntity
  8
0
  6
ByLayer
 62
  256
370
   -1
100
AcDbLine
 10
1.5
 20
0
 11
1.5
 21
-0.402386985261515
  0
LINE
  5
8D
100
AcDbEntity
  8
0
  6
ByLayer
 62
  256
370
   -1
100
AcDbLine
 10
2
 20
0
 11
2
 21
-0.6502505288659819
  0
LINE
  5
8E
100
AcDbEntity
  8
0
  6
ByLayer
 62
  256
370
   -1
100
AcDbLine
 10
2.5
 20
0
 11
2.5
 21
-0.402386985261515
  0
LINE
  5
8F
100
AcDbEntity
  8
0
  6
ByLayer
 62
  256
370
   -1
100
AcDbLine
 10
3
 20
0
 11
3
 21
-0.6502505288659819
  0
LINE
  5
90
100
AcDbEntity
  8
0
  6
ByLayer
 62
  256
370
   -1
100
AcDbLine
 10
3.5
 20
0
 11
3.5
 21
-0.402386985261515
  0
LINE
  5
91
100
AcDbEntity
  8
0
  6
ByLayer
 62
  256
370
   -1
100
AcDbLine
 10
4
 20
0
 11
4
 21
-0.6502505288659819
  0
LINE
  5
92
100
AcDbEntity
  8
0
  6
ByLayer
 62
  256
370
   -1
100
AcDbLine
 10
6
 20
0
 11
6
 21
-0.6502505288659819
  0
LINE
  5
93
100
AcDbEntity
  8
0
  6
ByLayer
 62
  256
370
   -1
100
AcDbLine
 10
9.5
 20
0
 11
9.5
 21
-0.402386985261515
  0
MTEXT
  5
94
100
AcDbEntity
  8
0
  6
ByLayer
 62
  256
370
   35
100
AcDbMText
 10
-1.599999999999999
 20
2.600000000000001
 30
0
 40
0.25
 41
4.863098055555554
 71
    1
 72
    1
  1
Height Difference (m)
  7
romanc
210
0
220
0
230
1
 50
90
 73
    2
 44
1
  0
MTEXT
  5
95
100
AcDbEntity
  8
0
  6
ByLayer
 62
  256
370
   35
100
AcDbMText
 10
-1.399999999999999
 20
12.2
 30
0
 40
0.25
 41
10.99702647222222
 71
    1
 72
    1
  1
LOCATION: NORTHERN BOUNDARY 10 MIDDLE ROAD\PPERSPECTIVE: NORTHWARD FROM BUILDING LINE\P     NORTH SIDE OF OC BUILDING\PSCALE: 1 in 50
  7
romanc
210
0
220
0
230
1
 50
0
 73
    2
 44
1
  0
MTEXT
  5
96
100
AcDbEntity
  8
0
  6
ByLayer
 62
  256
370
   25
100
AcDbMText
 10
-0.9135036336055311
 20
6.907993295757194
 30
0
 40
0.2
 41
0.08888888888888889
 71
    7
 72
    5
  1
7
  7
Standard
210
0
220
0
230
1
 50
1.403341859706975e-14
 73
    1
 44
1
  0
MTEXT
  5
97
100
AcDbEntity
  8
0
  6
ByLayer
 62
  256
370
   25
100
AcDbMText
 10
-0.9135036336055311
 20
2.907993295757194
 30
0
 40
0.2
 41
0.08888888888890129
 71
    7
 72
    5
  1
3
  7
Standard
210
0
220
0
230
1
 50
1.403341859706975e-14
 73
    1
 44
1
  0
MTEXT
  5
98
100
AcDbEntity
  8
0
  6
ByLayer
 62
  256
370
   25
100
AcDbMText
 10
-0.91417018120233
 20
5.393691717322053
 30
0
 40
0.2
 41
0.3111111111111359
 71
    7
 72
    5
  1
5.5
  7
Standard
210
0
220
0
230
1
 50
1.403341859706975e-14
 73
    1
 44
1
  0
MTEXT
  5
99
100
AcDbEntity
  8
0
  6
ByLayer
 62
  256
370
   25
100
AcDbMText
 10
-0.91417018120233
 20
9.393691717322053
 30
0
 40
0.2
 41
0.3111111111111359
 71
    7
 72
    5
  1
9.5
  7
Standard
210
0
220
0
230
1
 50
1.403341859706975e-14
 73
    1
 44
1
  0
MTEXT
  5
9A
100
AcDbEntity
  8
0
  6
ByLayer
 62
  256
370
   25
100
AcDbMText
 10
-0.91417018120233
 20
8.393691717322053
 30
0
 40
0.2
 41
0.3111111111111236
 71
    7
 72
    5
  1
8.5
  7
Standard
210
0
220
0
230
1
 50
1.403341859706975e-14
 73
    1
 44
1
  0
MTEXT
  5
9B
100
AcDbEntity
  8
0
  6
ByLayer
 62
  256
370
   25
100
AcDbMText
 10
-0.9135036336055311
 20
5.907993295757194
 30
0
 40
0.2
 41
0.08888888888890129
 71
    7
 72
    5
  1
6
  7
Standard
210
0
220
0
230
1
 50
1.403341859706975e-14
 73
    1
 44
1
  0
MTEXT
  5
9C
100
AcDbEntity
  8
0
  6
ByLayer
 62
  256
370
   25
100
AcDbMText
 10
-0.91417018120233
 20
7.393691717322053
 30
0
 40
0.2
 41
0.3111111111111236
 71
    7
 72
    5
  1
7.5
  7
Standard
210
0
220
0
230
1
 50
1.403341859706975e-14
 73
    1
 44
1
  0
MTEXT
  5
9D
100
AcDbEntity
  8
0
  6
ByLayer
 62
  256
370
   25
100
AcDbMText
 10
-0.9135036336055311
 20
4.907993295757194
 30
0
 40
0.2
 41
0.08888888888890129
 71
    7
 72
    5
  1
5
  7
Standard
210
0
220
0
230
1
 50
1.403341859706975e-14
 73
    1
 44
1
  0
MTEXT
  5
9E
100
AcDbEntity
  8
0
  6
ByLayer
 62
  256
370
   25
100
AcDbMText
 10
-0.91417018120233
 20
6.393691717322053
 30
0
 40
0.2
 41
0.3111111111111359
 71
    7
 72
    5
  1
6.5
  7
Standard
210
0
220
0
230
1
 50
1.403341859706975e-14
 73
    1
 44
1
  0
MTEXT
  5
9F
100
AcDbEntity
  8
0
  6
ByLayer
 62
  256
370
   25
100
AcDbMText
 10
-0.9141701812023282
 20
4.393691717322053
 30
0
 40
0.2
 41
0.3333333333333457
 71
    7
 72
    5
  1
4.5
  7
Standard
210
0
220
0
230
1
 50
1.403341859706975e-14
 73
    1
 44
1
  0
MTEXT
  5
A0
100
AcDbEntity
  8
0
  6
ByLayer
 62
  256
370
   25
100
AcDbMText
 10
-0.9135036336055311
 20
8.907993295757194
 30
0
 40
0.2
 41
0.08888888888890129
 71
    7
 72
    5
  1
9
  7
Standard
210
0
220
0
230
1
 50
1.403341859706975e-14
 73
    1
 44
1
  0
MTEXT
  5
A1
100
AcDbEntity
  8
0
  6
ByLayer
 62
  256
370
   25
100
AcDbMText
 10
-0.9135036336055311
 20
9.907993295757194
 30
0
 40
0.2
 41
0.2
 71
    7
 72
    5
  1
10
  7
Standard
210
0
220
0
230
1
 50
1.403341859706975e-14
 73
    1
 44
1
  0
MTEXT
  5
A2
100
AcDbEntity
  8
0
  6
ByLayer
 62
  256
370
   25
100
AcDbMText
 10
-0.9135036336055293
 20
-0.09200670424280588
 30
0
 40
0.2
 41
0.08888888888888888
 71
    7
 72
    5
  1
0
  7
Standard
210
0
220
0
230
1
 50
1.403341859706975e-14
 73
    1
 44
1
  0
MTEXT
  5
A3
100
AcDbEntity
  8
0
  6
ByLayer
 62
  256
370
   25
100
AcDbMText
 10
-0.9141701812023282
 20
0.3936917173220529
 30
0
 40
0.2
 41
0.3111111111111236
 71
    7
 72
    5
  1
0.5
  7
Standard
210
0
220
0
230
1
 50
1.403341859706975e-14
 73
    1
 44
1
  0
MTEXT
  5
A4
100
AcDbEntity
  8
0
  6
ByLayer
 62
  256
370
   25
100
AcDbMText
 10
-0.9135036336055311
 20
0.9079932957571941
 30
0
 40
0.2
 41
0.04444444444444445
 71
    7
 72
    5
  1
1
  7
Standard
210
0
220
0
230
1
 50
1.403341859706975e-14
 73
    1
 44
1
  0
MTEXT
  5
A5
100
AcDbEntity
  8
0
  6
ByLayer
 62
  256
370
   25
100
AcDbMText
 10
-0.9141701812023282
 20
1.393691717322053
 30
0
 40
0.2
 41
0.2666666666666791
 71
    7
 72
    5
  1
1.5
  7
Standard
210
0
220
0
230
1
 50
1.403341859706975e-14
 73
    1
 44
1
  0
MTEXT
  5
A6
100
AcDbEntity
  8
0
  6
ByLayer
 62
  256
370
   25
100
AcDbMText
 10
-0.9135036336055311
 20
1.907993295757194
 30
0
 40
0.2
 41
0.08888888888888889
 71
    7
 72
    5
  1
2
  7
Standard
210
0
220
0
230
1
 50
1.403341859706975e-14
 73
    1
 44
1
  0
MTEXT
  5
A7
100
AcDbEntity
  8
0
  6
ByLayer
 62
  256
370
   25
100
AcDbMText
 10
-0.9141701812023282
 20
3.393691717322053
 30
0
 40
0.2
 41
0.3111111111111359
 71
    7
 72
    5
  1
3.5
  7
Standard
210
0
220
0
230
1
 50
1.403341859706975e-14
 73
    1
 44
1
  0
MTEXT
  5
A8
100
AcDbEntity
  8
0
  6
ByLayer
 62
  256
370
   25
100
AcDbMText
 10
-0.9135036336055311
 20
3.907993295757194
 30
0
 40
0.2
 41
0.1111111111111111
 71
    7
 72
    5
  1
4
  7
Standard
210
0
220
0
230
1
 50
1.403341859706975e-14
 73
    1
 44
1
  0
MTEXT
  5
A9
100
AcDbEntity
  8
0
  6
ByLayer
 62
  256
370
   25
100
AcDbMText
 10
-0.9135036336055311
 20
7.907993295757194
 30
0
 40
0.2
 41
0.08888888888888889
 71
    7
 72
    5
  1
8
  7
Standard
210
0
220
0
230
1
 50
1.403341859706975e-14
 73
    1
 44
1
  0
MTEXT
  5
AA
100
AcDbEntity
  8
0
  6
ByLayer
 62
  256
370
   25
100
AcDbMText
 10
-0.9141701812023282
 20
2.393691717322053
 30
0
 40
0.2
 41
0.3111111111111236
 71
    7
 72
    5
  1
2.5
  7
Standard
210
0
220
0
230
1
 50
1.403341859706975e-14
 73
    1
 44
1
  0
MTEXT
  5
AB
100
AcDbEntity
  8
0
  6
ByLayer
 62
  256
370
   35
100
AcDbMText
 10
3.800000000000001
 20
-1.4
 30
0
 40
0.25
 41
2.901786388888888
 71
    1
 72
    1
  1
Chainage (m)
  7
romanc
210
0
220
0
230
1
 50
0
 73
    2
 44
1
  0
MTEXT
  5
AC
100
AcDbEntity
  8
0
  6
ByLayer
 62
  256
370
   25
100
AcDbMText
 10
1.393691717322052
 20
-0.9141701812023288
 30
0
 40
0.2
 41
0.2666666666666791
 71
    1
 72
    5
  1
1.5
  7
Standard
210
0
220
0
230
1
 50
90
 73
    1
 44
1
  0
MTEXT
  5
AD
100
AcDbEntity
  8
0
  6
ByLayer
 62
  256
370
   25
100
AcDbMText
 10
9.907993295757194
 20
-0.9135036336055307
 30
0
 40
0.2
 41
0.2
 71
    1
 72
    5
  1
10
  7
Standard
210
0
220
0
230
1
 50
90
 73
    1
 44
1
  0
MTEXT
  5
AE
100
AcDbEntity
  8
0
  6
ByLayer
 62
  256
370
   25
100
AcDbMText
 10
4.393691717322052
 20
-0.9141701812023288
 30
0
 40
0.2
 41
0.3333333333333457
 71
    1
 72
    5
  1
4.5
  7
Standard
210
0
220
0
230
1
 50
90
 73
    1
 44
1
  0
MTEXT
  5
AF
100
AcDbEntity
  8
0
  6
ByLayer
 62
  256
370
   25
100
AcDbMText
 10
2.907993295757194
 20
-0.9135036336055307
 30
0
 40
0.2
 41
0.08888888888890129
 71
    1
 72
    5
  1
3
  7
Standard
210
0
220
0
230
1
 50
90
 73
    1
 44
1
  0
MTEXT
  5
B0
100
AcDbEntity
  8
0
  6
ByLayer
 62
  256
370
   25
100
AcDbMText
 10
1.907993295757194
 20
-0.9135036336055307
 30
0
 40
0.2
 41
0.08888888888888889
 71
    1
 72
    5
  1
2
  7
Standard
210
0
220
0
230
1
 50
90
 73
    1
 44
1
  0
MTEXT
  5
B1
100
AcDbEntity
  8
0
  6
ByLayer
 62
  256
370
   25
100
AcDbMText
 10
3.393691717322052
 20
-0.9141701812023288
 30
0
 40
0.2
 41
0.3111111111111359
 71
    1
 72
    5
  1
3.5
  7
Standard
210
0
220
0
230
1
 50
90
 73
    1
 44
1
  0
MTEXT
  5
B2
100
AcDbEntity
  8
0
  6
ByLayer
 62
  256
370
   25
100
AcDbMText
 10
0.9079932957571941
 20
-0.9135036336055307
 30
0
 40
0.2
 41
0.04444444444444445
 71
    1
 72
    5
  1
1
  7
Standard
210
0
220
0
230
1
 50
90
 73
    1
 44
1
  0
MTEXT
  5
B3
100
AcDbEntity
  8
0
  6
ByLayer
 62
  256
370
   25
100
AcDbMText
 10
2.393691717322052
 20
-0.9141701812023288
 30
0
 40
0.2
 41
0.3111111111111236
 71
    1
 72
    5
  1
2.5
  7
Standard
210
0
220
0
230
1
 50
90
 73
    1
 44
1
  0
MTEXT
  5
B4
100
AcDbEntity
  8
0
  6
ByLayer
 62
  256
370
   25
100
AcDbMText
 10
0.3936917173220518
 20
-0.9141701812023288
 30
0
 40
0.2
 41
0.3111111111111236
 71
    1
 72
    5
  1
0.5
  7
Standard
210
0
220
0
230
1
 50
90
 73
    1
 44
1
  0
MTEXT
  5
B5
100
AcDbEntity
  8
0
  6
ByLayer
 62
  256
370
   25
100
AcDbMText
 10
3.907993295757194
 20
-0.9135036336055307
 30
0
 40
0.2
 41
0.1111111111111111
 71
    1
 72
    5
  1
4
  7
Standard
210
0
220
0
230
1
 50
90
 73
    1
 44
1
  0
MTEXT
  5
B6
100
AcDbEntity
  8
0
  6
ByLayer
 62
  256
370
   25
100
AcDbMText
 10
4.907993295757194
 20
-0.9135036336055307
 30
0
 40
0.2
 41
0.08888888888890129
 71
    1
 72
    5
  1
5
  7
Standard
210
0
220
0
230
1
 50
90
 73
    1
 44
1
  0
MTEXT
  5
B7
100
AcDbEntity
  8
0
  6
ByLayer
 62
  256
370
   25
100
AcDbMText
 10
5.393691717322052
 20
-0.9141701812023288
 30
0
 40
0.2
 41
0.3111111111111359
 71
    1
 72
    5
  1
5.5
  7
Standard
210
0
220
0
230
1
 50
90
 73
    1
 44
1
  0
MTEXT
  5
B8
100
AcDbEntity
  8
0
  6
ByLayer
 62
  256
370
   25
100
AcDbMText
 10
9.393691717322053
 20
-0.9141701812023288
 30
0
 40
0.2
 41
0.3111111111111359
 71
    1
 72
    5
  1
9.5
  7
Standard
210
0
220
0
230
1
 50
90
 73
    1
 44
1
  0
MTEXT
  5
B9
100
AcDbEntity
  8
0
  6
ByLayer
 62
  256
370
   25
100
AcDbMText
 10
7.907993295757194
 20
-0.9135036336055307
 30
0
 40
0.2
 41
0.08888888888888889
 71
    1
 72
    5
  1
8
  7
Standard
210
0
220
0
230
1
 50
90
 73
    1
 44
1
  0
MTEXT
  5
BA
100
AcDbEntity
  8
0
  6
ByLayer
 62
  256
370
   25
100
AcDbMText
 10
8.393691717322053
 20
-0.9141701812023288
 30
0
 40
0.2
 41
0.3111111111111236
 71
    1
 72
    5
  1
8.5
  7
Standard
210
0
220
0
230
1
 50
90
 73
    1
 44
1
  0
MTEXT
  5
BB
100
AcDbEntity
  8
0
  6
ByLayer
 62
  256
370
   25
100
AcDbMText
 10
8.907993295757194
 20
-0.9135036336055307
 30
0
 40
0.2
 41
0.08888888888890129
 71
    1
 72
    5
  1
9
  7
Standard
210
0
220
0
230
1
 50
90
 73
    1
 44
1
  0
MTEXT
  5
BC
100
AcDbEntity
  8
0
  6
ByLayer
 62
  256
370
   25
100
AcDbMText
 10
5.907993295757194
 20
-0.9135036336055307
 30
0
 40
0.2
 41
0.08888888888890129
 71
    1
 72
    5
  1
6
  7
Standard
210
0
220
0
230
1
 50
90
 73
    1
 44
1
  0
MTEXT
  5
BD
100
AcDbEntity
  8
0
  6
ByLayer
 62
  256
370
   25
100
AcDbMText
 10
6.393691717322052
 20
-0.9141701812023288
 30
0
 40
0.2
 41
0.3111111111111359
 71
    1
 72
    5
  1
6.5
  7
Standard
210
0
220
0
230
1
 50
90
 73
    1
 44
1
  0
MTEXT
  5
BE
100
AcDbEntity
  8
0
  6
ByLayer
 62
  256
370
   25
100
AcDbMText
 10
6.907993295757194
 20
-0.9135036336055307
 30
0
 40
0.2
 41
0.08888888888888889
 71
    1
 72
    5
  1
7
  7
Standard
210
0
220
0
230
1
 50
90
 73
    1
 44
1
  0
MTEXT
  5
BF
100
AcDbEntity
  8
0
  6
ByLayer
 62
  256
370
   25
100
AcDbMText
 10
7.393691717322052
 20
-0.9141701812023288
 30
0
 40
0.2
 41
0.3111111111111236
 71
    1
 72
    5
  1
7.5
  7
Standard
210
0
220
0
230
1
 50
90
 73
    1
 44
1
  0
LWPOLYLINE
  5
C0
100
AcDbEntity
  8
0
  6
DASHEDTINY
 62
    1
370
   25
100
AcDbPolyline
 90
  146
 70
    0
 43
0
 10
0
 20
3
 10
0.1652700329476444
 20
3.148002109349934
 10
0.3273691692014958
 20
3.304765555515947
 10
0.4062387458514388
 20
3.389170697660007
 10
0.5
 20
3.5
 10
0.6315933782283633
 20
3.67348172540592
 10
0.706418999261508
 20
3.769060507264385
 10
0.7842803510823745
 20
3.856251422067379
 10
0.8671592441245835
 20
3.929578634304853
 10
0.9110995843641978
 20
3.95933215336463
 10
0.9570374888217557
 20
3.983566308466759
 10
1
 20
4
 10
1.055785648959701
 20
4.013147356680195
 10
1.163255312289885
 20
4.020672907258872
 10
1.277539970197263
 20
4.014953768424448
 10
1.396674356658642
 20
4.005016637616079
 10
1.5
 20
4
 10
1.64120757930551
 20
4.004262793713587
 10
1.760762432011974
 20
4.01193284708216
 10
1.87373014011944
 20
4.01492608388165
 10
2
 20
4
 10
2.022912161075614
 20
3.993256061596124
 10
2.065787749639155
 20
3.975743174031867
 10
2.105332607108406
 20
3.952975014983182
 10
2.141782595188533
 20
3.925210665135914
 10
2.206341410002099
 20
3.855729715789002
 10
2.261351087721208
 20
3.769372971477884
 10
2.308698521987209
 20
3.668213077689308
 10
2.350270606441458
 20
3.554322679910027
 10
2.387954234725306
 20
3.429774423626792
 10
2.423636300480108
 20
3.296640954326351
 10
2.459203697347216
 20
3.156994917495458
 10
2.5
 20
3
 10
2.628468651277712
 20
2.580214354208815
 10
2.678093243152755
 20
2.446898289786191
 10
2.729799038472922
 20
2.324713463374044
 10
2.783139887939591
 20
2.217063992092683
 10
2.837669642254141
 20
2.127353993062415
 10
2.865240937073553
 20
2.090290082241537
 10
2.892942152117953
 20
2.058987583403548
 10
2.920717518725013
 20
2.033872011188486
 10
2.948511268232405
 20
2.015368880236389
 10
2.976267631977802
 20
2.003903705187296
 10
3
 20
2
 10
3.031455807283007
 20
2.003587423894913
 10
3.058825162091152
 20
2.014659677254447
 10
3.086026139343217
 20
2.032731491219738
 10
3.113045951983342
 20
2.057415987042353
 10
3.139871812955669
 20
2.088326285973861
 10
3.166490935204339
 20
2.125075509265833
 10
3.219057815307274
 20
2.21454321393744
 10
3.270644295845277
 20
2.322724071069724
 10
3.321148080371479
 20
2.446523050675238
 10
3.370466872439008
 20
2.582845122766532
 10
3.418498375600996
 20
2.728595257356158
 10
3.5
 20
3
 10
3.55414389259863
 20
3.191301131775633
 10
3.597477827660581
 20
3.343007827241962
 10
3.641149436214131
 20
3.487500525229358
 10
3.68601405334538
 20
3.621161144586777
 10
3.732927014140428
 20
3.74037160416317
 10
3.782743653685373
 20
3.84151382280749
 10
3.809008145203463
 20
3.88417869142042
 10
3.836319307066317
 20
3.92096971936869
 10
3.864784056159694
 20
3.951434646508419
 10
3.894509309369359
 20
3.975121212695725
 10
3.925601983581072
 20
3.991577157786727
 10
3.958168995680599
 20
4.000350221637546
 10
4
 20
4
 10
4.028127244061809
 20
3.993134269949724
 10
4.065471813049819
 20
3.977182078837795
 10
4.104125866243496
 20
3.953879096208892
 10
4.143863722037027
 20
3.923974937358108
 10
4.184459698824593
 20
3.888219217580533
 10
4.267323288958575
 20
3.80215155642537
 10
4.350911183798923
 20
3.701673035104125
 10
4.5
 20
3.5
 10
4.589087989242657
 20
3.373083031566598
 10
4.663577386071437
 20
3.271373807652322
 10
4.738936557988841
 20
3.179853996005957
 10
4.817592496524968
 20
3.102036099908899
 10
4.901972193209928
 20
3.041432622642536
 10
4.947066885711376
 20
3.018683948346302
 10
5
 20
3
 10
5.044511526775006
 20
2.990315991429058
 10
5.096924908373624
 20
2.984263816578606
 10
5.207730943819032
 20
2.983573108891036
 10
5.324451597443512
 20
2.99118206796726
 10
5.5
 20
3
 10
5.56576512646008
 20
2.998530379254022
 10
5.80166366276182
 20
2.983784551786278
 10
5.911888032650059
 20
2.985420633027638
 10
5.964079518145488
 20
2.99207538513445
 10
6
 20
3
 10
6.061397137304948
 20
3.021676881525742
 10
6.106644933740319
 20
3.044852230958634
 10
6.191554245329177
 20
3.106056421099944
 10
6.270706456998264
 20
3.184422140785974
 10
6.346131098894872
 20
3.276777639429542
 10
6.419857701166294
 20
3.379951166443467
 10
6.5
 20
3.5
 10
6.648277217838209
 20
3.717874658348394
 10
6.728282075718918
 20
3.82053906407591
 10
6.809629194061908
 20
3.906295272834242
 10
6.850679403471942
 20
3.940571078581388
 10
6.891913141075768
 20
3.967905765363946
 10
6.933279727899458
 20
3.987394643274488
 10
6.974728484969085
 20
3.998133022405581
 10
7
 20
4
 10
7.057669661067838
 20
3.990550323969675
 10
7.099060312881023
 20
3.972917065129951
 10
7.140329710430389
 20
3.947238241875879
 10
7.181426878343228
 20
3.914417677158863
 10
7.222300841246836
 20
3.875359193930308
 10
7.303175250535528
 20
3.78214376374421
 10
7.382545135314813
 20
3.674822534928828
 10
7.460002692603041
 20
3.560626091095406
 10
7.5
 20
3.5
 10
7.608848698249713
 20
3.338391281652965
 10
7.682976643325161
 20
3.238961518161526
 10
7.759603403565593
 20
3.151631686417246
 10
7.840765622689025
 20
3.079608215248286
 10
7.883683980493749
 20
3.050338373888352
 10
7.928499944413479
 20
3.02609753348281
 10
7.97546809491297
 20
3.007286497635179
 10
8
 20
3
 10
8.130423997478092
 20
2.983674355781162
 10
8.243279257569116
 20
2.986705477166831
 10
8.361093608750616
 20
2.994961918647006
 10
8.5
 20
3
 10
8.602383192022344
 20
2.995300881352625
 10
8.721250287400384
 20
2.985453802929364
 10
8.835860211714442
 20
2.979625079385449
 10
8.943908939549386
 20
2.986955538758188
 10
9
 20
3
 10
9.043157059916409
 20
3.016368146593721
 10
9.089254128524772
 20
3.04054867809111
 10
9.133298507624618
 20
3.070267145672961
 10
9.216247447788138
 20
3.143570758506125
 10
9.294040381385724
 20
3.230784723925376
 10
9.368713809396125
 20
3.326414780762877
 10
9.5
 20
3.5
 10
9.593636085849216
 20
3.61087147248557
 10
9.672465067504872
 20
3.695290291389862
 10
9.834603332969436
 20
3.852040554629201
 10
10
 20
4
  0
LWPOLYLINE
  5
C1
100
AcDbEntity
  8
0
  6
ByLayer
 62
  114
370
   25
100
AcDbPolyline
 90
  141
 70
    0
 43
0
 10
0
 20
6
 10
1
 20
6
 10
1.198104211432309
 20
5.9953212517693
 10
1.5
 20
6
 10
1.688329303047698
 20
6.015880793566815
 10
1.811341508085042
 20
6.021951813807163
 10
1.928104674467403
 20
6.015260633548186
 10
2
 20
6
 10
2.034815467785315
 20
5.988025172559674
 10
2.083788036865164
 20
5.965256096384465
 10
2.130226740471255
 20
5.936838001113983
 10
2.216995837619862
 20
5.864973826527049
 10
2.298109331946541
 20
5.776270795278561
 10
2.376553796166696
 20
5.674567053848214
 10
2.5
 20
5.5
 10
2.623185346633147
 20
5.331486382598062
 10
2.711036908497426
 20
5.222495555364294
 10
2.798803438762666
 20
5.127690786274153
 10
2.842011854745916
 20
5.087828245329689
 10
2.88442745806973
 20
5.054176305077228
 10
2.925793063814215
 20
5.027622994235469
 10
2.965851487059481
 20
5.009056341523109
 10
3
 20
5
 10
3.041100262642565
 20
4.999109101620999
 10
3.076172819948371
 20
5.007931977995028
 10
3.109661818872115
 20
5.025310173370933
 10
3.141665772912506
 20
5.050721215490081
 10
3.172283195568249
 20
5.083642632093849
 10
3.201612600338053
 20
5.123551950923606
 10
3.229752500720622
 20
5.169926699720726
 10
3.256801410214667
 20
5.222244406226583
 10
3.282857842318891
 20
5.279982598182547
 10
3.332387328352712
 20
5.409630549410286
 10
3.379129066811741
 20
5.554690775334927
 10
3.423871165685635
 20
5.710983497887445
 10
3.5
 20
6
 10
3.598395983557293
 20
6.365233314605995
 10
3.644538313989452
 20
6.515698417859399
 10
3.693048948491092
 20
6.652919589696074
 10
3.744604793691909
 20
6.772902716457459
 10
3.771736203626289
 20
6.825181852416618
 10
3.799882756221599
 20
6.871653684484995
 10
3.829129064806551
 20
6.911818948455268
 10
3.859559742709857
 20
6.945178380120121
 10
3.891259403260229
 20
6.97123271527223
 10
3.924312659786378
 20
6.989482689704275
 10
3.958804125617017
 20
6.999429039208939
 10
4
 20
7
 10
4.032412283130819
 20
6.992546775790702
 10
4.071471915550055
 20
6.975799822870117
 10
4.111818954286042
 20
6.951087680334059
 10
4.153274921040924
 20
6.919166966470769
 10
4.195661337516843
 20
6.880794299568493
 10
4.238799725415946
 20
6.836726297915472
 10
4.326618502292273
 20
6.734530763510174
 10
4.5
 20
6.5
 10
4.589928781541496
 20
6.370293715482463
 10
4.675060186165002
 20
6.251898031069919
 10
4.759362508653317
 20
6.147820166752288
 10
4.801372016280134
 20
6.103625516773723
 10
4.843377355993181
 20
6.065980441392481
 10
4.8854462286658
 20
6.035874980466426
 10
4.927646335171335
 20
6.014299173853416
 10
4.970045376383129
 20
6.00224306141132
 10
5
 20
6
 10
5.055652851308077
 20
6.009908846742341
 10
5.098789804836025
 20
6.028976672204191
 10
5.142028888594154
 20
6.056843733347776
 10
5.185277777386944
 20
6.092462516582971
 10
5.228444146018885
 20
6.134785508319656
 10
5.27143566929446
 20
6.182765194967704
 10
5.356524878994455
 20
6.29150459863741
 10
5.439806804922815
 20
6.410300618871105
 10
5.5
 20
6.5
 10
5.599039996314997
 20
6.646076962683438
 10
5.677469412709797
 20
6.752103346941187
 10
5.758252911040617
 20
6.845111539351704
 10
5.843803290577173
 20
6.92134754289939
 10
5.889120060569392
 20
6.9520028497823
 10
5.936533350589195
 20
6.977057360568654
 10
6
 20
7
 10
6.038816545057156
 20
7.00859638908473
 10
6.151154717460439
 20
7.017523760562863
 10
6.271399643911973
 20
7.012766726357135
 10
6.397202136446167
 20
7.003811288633797
 10
6.5
 20
7
 10
6.655526851062525
 20
7.005887948332699
 10
6.78104370315677
 20
7.013655395309145
 10
6.898490334482544
 20
7.014386346531866
 10
6.952852758896159
 20
7.009290017497747
 10
7
 20
7
 10
7.050354170883425
 20
6.982820025381294
 10
7.093297307561738
 20
6.960710663503972
 10
7.132703932820339
 20
6.933008166319564
 10
7.168852357671962
 20
6.900001869750916
 10
7.202020893129339
 20
6.861981109720885
 10
7.232487850205205
 20
6.819235222152319
 10
7.286430273263336
 20
6.720725408090981
 10
7.332906114948225
 20
6.606787114949716
 10
7.374141863361737
 20
6.479735030111328
 10
7.412364006605744
 20
6.341883840958623
 10
7.449799032782113
 20
6.195548234874408
 10
7.5
 20
6
 10
7.577294657550127
 20
5.730546312009741
 10
7.626914706624262
 20
5.578620809064433
 10
7.679367602904309
 20
5.435421235327328
 10
7.734120817682188
 20
5.305332478048986
 10
7.790641822249815
 20
5.192739424479965
 10
7.81939883048351
 20
5.144374063852248
 10
7.848398087899111
 20
5.102026961870822
 10
7.877573028408108
 20
5.066246229442004
 10
7.906857085921992
 20
5.037579977472113
 10
7.936183694352253
 20
5.016576316867471
 10
7.965486287610378
 20
5.003783358534397
 10
8
 20
5
 10
8.023758137690768
 20
5.004914953486513
 10
8.052638913888909
 20
5.018974732811151
 10
8.08132852676256
 20
5.04130446792634
 10
8.10981492965303
 20
5.071278896401744
 10
8.138086075901624
 20
5.108272755807029
 10
8.166129918849649
 20
5.151660783711857
 10
8.193934411838413
 20
5.200817717685897
 10
8.248777161303389
 20
5.313937254120269
 10
8.30251795102701
 20
5.442629265667467
 10
8.355060407739735
 20
5.581891652884812
 10
8.456164829054329
 20
5.872119156559224
 10
8.5
 20
6
 10
8.551541481734288
 20
6.145866734842333
 10
8.597979451885763
 20
6.270535069350927
 10
8.644766124842791
 20
6.38785727926871
 10
8.692819522391623
 20
6.498604738173482
 10
8.743057666318505
 20
6.60354881964304
 10
8.796398578409686
 20
6.703460897255178
 10
8.853760280451416
 20
6.7991123445877
 10
8.91606079422994
 20
6.891274535218397
 10
9
 20
7
 10
9.058959758475705
 20
7.068185320064099
 10
9.139516454391707
 20
7.15416806632796
 10
9.312166621393805
 20
7.323193403949551
 10
9.5
 20
7.5
 10
10
 20
8
  0
LWPOLYLINE
  5
C2
100
AcDbEntity
  8
0
  6
ByLayer
 62
  177
370
   25
100
AcDbPolyline
 90
  158
 70
    0
 43
0
 10
0
 20
8.011827859591232
 10
0.2914416520554052
 20
8.003787570527354
 10
0.5
 20
8.011827859591232
 10
0.5933471240116804
 20
8.020733930046653
 10
0.7465601893565735
 20
8.034604570399509
 10
0.8212416724649496
 20
8.036943047604794
 10
0.8935183050863185
 20
8.033538960948773
 10
0.9625489741374598
 20
8.022383809021042
 10
1
 20
8.011827859591232
 10
1.088217536380739
 20
7.970462574847325
 10
1.145230228503982
 20
7.930538975784407
 10
1.199159186647135
 20
7.883161687600971
 10
1.2506134845906
 20
7.829748109122444
 10
1.348534395000076
 20
7.710481676581804
 10
1.5
 20
7.511827859591232
 10
1.643203447446659
 20
7.348794353303621
 10
1.747957286109806
 20
7.243603543434247
 10
2
 20
7.011827859591232
 10
2.167956931269949
 20
6.856551782299265
 10
2.270906712171692
 20
6.756368948810938
 10
2.374869379781775
 20
6.64953592970685
 10
2.5
 20
6.511827859591232
 10
2.590301662968148
 20
6.406576808773917
 10
2.700423497617306
 20
6.277984307126458
 10
2.808065126195639
 20
6.160526285328235
 10
2.859901484867017
 20
6.110024906977589
 10
2.909852538011211
 20
6.067169791715258
 10
2.957496534291729
 20
6.033581820583244
 10
3
 20
6.011827859591232
 10
3.044292885378779
 20
6.000255992315065
 10
3.083229394658673
 20
6.001417825782689
 10
3.119394216451449
 20
6.013769096958936
 10
3.152960300102447
 20
6.036711590816746
 10
3.184100594957003
 20
6.069647092329059
 10
3.212988050360455
 20
6.111977386468815
 10
3.239795615658142
 20
6.163104258208955
 10
3.264696240195401
 20
6.222429492522418
 10
3.287862873317571
 20
6.289354874382145
 10
3.309468464369989
 20
6.363282188761076
 10
3.329685962697992
 20
6.443613220632151
 10
3.348688317646921
 20
6.52974975496831
 10
3.383739394788903
 20
6.717046470927642
 10
3.416005290558636
 20
6.920386616422593
 10
3.446869599718827
 20
7.134984471236682
 10
3.5
 20
7.511827859591232
 10
3.544409913041555
 20
7.798807622577016
 10
3.581333071377187
 20
8.01212221899408
 10
3.620770268033135
 20
8.214900181279617
 10
3.662800399632315
 20
8.403283250371677
 10
3.707502362797642
 20
8.573413167208313
 10
3.730879936412273
 20
8.650427487573989
 10
3.754955054152034
 20
8.721431672727578
 10
3.77973757809479
 20
8.785943440286335
 10
3.805237370318406
 20
8.84348050786752
 10
3.831464292900746
 20
8.893560593088388
 10
3.858428207919675
 20
8.935701413566193
 10
3.886138977453057
 20
8.969420686918195
 10
3.914606463578757
 20
8.994236130761648
 10
3.943840528374639
 20
9.00966546271381
 10
3.973851033918568
 20
9.015226400391937
 10
4
 20
9.011827859591232
 10
4.036210999814437
 20
8.995095710560269
 10
4.068444811559753
 20
8.969718737996677
 10
4.101241228800609
 20
8.934937672345157
 10
4.134492268158957
 20
8.891383824737016
 10
4.16808994625675
 20
8.839688506303563
 10
4.20192627971594
 20
8.780483028176111
 10
4.23589328515848
 20
8.714398701485971
 10
4.303787378481418
 20
8.564118746942864
 10
4.370908359201185
 20
8.393899131724726
 10
4.4363923602934
 20
8.20879034488204
 10
4.5
 20
8.011827859591232
 10
4.617887991891133
 20
7.619554187566093
 10
4.676568348817851
 20
7.437164404560396
 10
4.706554136366682
 20
7.353507101744229
 10
4.737271122184644
 20
7.276341124160218
 10
4.768944900430847
 20
7.206766171389147
 10
4.801801065264401
 20
7.145881943011793
 10
4.836065210844421
 20
7.094788138608934
 10
4.871962931330014
 20
7.05458445776135
 10
4.909719820880293
 20
7.026370600049819
 10
4.94956147365437
 20
7.011246265055121
 10
5
 20
7.011827859591232
 10
5.03635764839189
 20
7.024384606959721
 10
5.083362320504405
 20
7.052279553235519
 10
5.132459277540529
 20
7.091934665632738
 10
5.183379732172581
 20
7.141285003711459
 10
5.235854897072882
 20
7.198265627031757
 10
5.344394208367505
 20
7.326857967637393
 10
5.5
 20
7.511827859591232
 10
5.568302706440578
 20
7.585556964183134
 10
5.67937120823853
 20
7.695961584618296
 10
5.786981979033458
 20
7.797250305867562
 10
5.888984578236413
 20
7.894484112835331
 10
6
 20
8.011827859591232
 10
6.067915035465312
 20
8.096613917352286
 10
6.14375398979207
 20
8.207821706894096
 10
6.21254596122766
 20
8.326721539026918
 10
6.276095939408243
 20
8.453682307070752
 10
6.336208913969983
 20
8.589072904345588
 10
6.394689874549039
 20
8.733262224171426
 10
6.453343810781574
 20
8.88661915986826
 10
6.5
 20
9.011827859591232
 10
6.643484903829658
 20
9.391099178746451
 10
6.710849330853903
 20
9.555620764985036
 10
6.778799011343141
 20
9.706088438270045
 10
6.812723106109568
 20
9.773739294409575
 10
6.846469255609169
 20
9.835101356536253
 10
6.879929373630916
 20
9.889249519391925
 10
6.912995373963786
 20
9.935258677718439
 10
6.945559170396753
 20
9.972203726257643
 10
6.977512676718791
 20
9.999159559751384
 10
7
 20
10.01182785959123
 10
7.039198036146243
 20
10.01991500753161
 10
7.068864861396738
 20
10.01372579818018
 10
7.097758830176545
 20
9.997169348919874
 10
7.125890045640774
 20
9.970776089014604
 10
7.153268610944528
 20
9.935076447728283
 10
7.179904629242913
 20
9.890600854324825
 10
7.205808203691035
 20
9.837879738068143
 10
7.230989437443999
 20
9.777443528222147
 10
7.255458433656911
 20
9.709822654050754
 10
7.279225295484877
 20
9.635547544817873
 10
7.302300126083002
 20
9.555148629787418
 10
7.346414106210148
 20
9.37810109938944
 10
7.387881199279198
 20
9.182923496968117
 10
7.426782230530994
 20
8.973859256634755
 10
7.463198025206379
 20
8.755151812500655
 10
7.5
 20
8.511827859591232
 10
7.559858422898054
 20
8.084124641073036
 10
7.590973656502437
 20
7.870593125908805
 10
7.623784920593957
 20
7.669931118580982
 10
7.659668908267437
 20
7.486826529618988
 10
7.679193390039544
 20
7.403323239065625
 10
7.700002312617701
 20
7.325967269552252
 10
7.72226776263876
 20
7.255344609895052
 10
7.746161826739573
 20
7.192041248910202
 10
7.771856591556994
 20
7.136643175413879
 10
7.799524143727877
 20
7.089736378222261
 10
7.829336569889072
 20
7.051906846151528
 10
7.861465956677434
 20
7.023740568017858
 10
7.896084390729817
 20
7.005823532637427
 10
7.933363958683072
 20
6.998741728826416
 10
7.973476747174053
 20
7.003081145401001
 10
8
 20
7.011827859591232
 10
8.062636763532725
 20
7.047402278405013
 10
8.111230315209959
 20
7.085518621836777
 10
8.161958980498113
 20
7.132122020768965
 10
8.21441142883573
 20
7.185577440285258
 10
8.322842352413497
 20
7.306504201404908
 10
8.433232441451535
 20
7.435218625865192
 10
8.5
 20
7.511827859591232
 10
8.648599289932296
 20
7.671129543148541
 10
8.752756026985352
 20
7.775066455077607
 10
9
 20
8.011827859591232
 10
9.16514495804066
 20
8.173968026482823
 10
9.5
 20
8.511827859591232
 10
10
 20
9.011827859591232
  0
MTEXT
  5
C3
100
AcDbEntity
  8
0
  6
ByLayer
 62
  256
370
   -1
100
AcDbMText
 10
-0.9902294775044737
 20
-2.212214790169569
 30
0
 40
0.22
 41
9.632860331111111
 71
    1
 72
    1
  1
(0,0): Northeast Property Corner, 10 Middle Road\PX-Axis Orientation: East to West
  7
romanc
210
0
220
0
230
1
 50
0
 73
    2
 44
1
  0
MTEXT
  5
C4
100
AcDbEntity
  8
0
  6
ByLayer
 62
  256
370
   35
100
AcDbMText
 10
-0.9954792678558999
 20
-3.170019795254299
 30
0
 40
0.25
 41
1.619048055555556
 71
    1
 72
    1
  1
LEGEND
  7
romanc
210
0
220
0
230
1
 50
0
 73
    2
 44
1
  0
LWPOLYLINE
  5
C5
100
AcDbEntity
  8
0
  6
ByLayer
 62
  114
370
   25
100
AcDbPolyline
 90
    2
 70
    0
 43
0
 10
2.78796188761247
 20
-3.714333706224874
 10
1.066932296419013
 20
-3.714333706224874
  0
MTEXT
  5
C6
100
AcDbEntity
  8
0
  6
ByLayer
 62
  256
370
   25
100
AcDbMText
 10
-0.9736601816034478
 20
-3.827255531770489
 30
0
 40
0.2
 41
1.922222325079671
 71
    7
 72
    5
  1
RL4 Minus RL1
  7
Standard
210
0
220
0
230
1
 50
1.403341859706975e-14
 73
    1
 44
1
  0
LWPOLYLINE
  5
C7
100
AcDbEntity
  8
0
  6
ByLayer
 62
  177
370
   25
100
AcDbPolyline
 90
    2
 70
    0
 43
0
 10
2.775252194315711
 20
-4.058683213116031
 10
1.054222603122255
 20
-4.058683213116031
  0
MTEXT
  5
C8
100
AcDbEntity
  8
0
  6
ByLayer
 62
  256
370
   25
100
AcDbMText
 10
-0.9863698749002059
 20
-4.171605038661647
 30
0
 40
0.2
 41
1.900000102857461
 71
    7
 72
    5
  1
RL3 Minus RL1
  7
Standard
210
0
220
0
230
1
 50
1.403341859706975e-14
 73
    1
 44
1
  0
MTEXT
  5
C9
100
AcDbEntity
  8
0
  6
ByLayer
 62
  256
370
   25
100
AcDbMText
 10
-0.9743945931739688
 20
-4.538911179345546
 30
0
 40
0.2
 41
1.900000102857449
 71
    7
 72
    5
  1
RL2 Minus RL1
  7
Standard
210
0
220
0
230
1
 50
1.403341859706975e-14
 73
    1
 44
1
  0
LWPOLYLINE
  5
CA
100
AcDbEntity
  8
0
  6
DASHEDTINY
 62
    1
370
   25
100
AcDbPolyline
 90
    2
 70
    0
 43
0
 10
2.787227476041948
 20
-4.425989353799929
 10
1.066197884848492
 20
-4.425989353799929
  0
ENDSEC
  0
SECTION
  2
OBJECTS
  0
DICTIONARY
  5
C
330
0
100
AcDbDictionary
281
    1
  3
ACAD_GROUP
350
D
  0
DICTIONARY
  5
D
330
C
100
AcDbDictionary
281
    1
  0
PLOTSETTINGS
  5
CB
100
AcDbPlotSettings
  6
1x1
 40
10
 41
30
 42
10
 43
30
  0
ENDSEC
  0
EOF
