999
dxfrw 0.6.3
  0
SECTION
  2
HEADER
  9
$ACADVER
  1
AC1021
  9
$DWGCODEPAGE
  3
ANSI_1252
  9
$INSBASE
 10
0
 20
0
 30
0
  9
$EXTMIN
 10
0
 20
0
 30
0
  9
$EXTMAX
 10
420
 20
297
 30
0
  9
$LIMMIN
 10
0
 20
0
  9
$LIMMAX
 10
420
 20
297
  9
$ORTHOMODE
 70
    0
  9
$REGENMODE
 70
    1
  9
$FILLMODE
 70
    1
  9
$QTEXTMODE
 70
    0
  9
$MIRRTEXT
 70
    0
  9
$LTSCALE
 40
1
  9
$ATTMODE
 70
    0
  9
$TEXTSIZE
 40
2.5
  9
$TRACEWID
 40
15.68
  9
$TEXTSTYLE
  7
STANDARD
  9
$CLAYER
  8
Sichtbar
  9
$CELTYPE
  6
BYLAYER
  9
$CECOLOR
 62
  256
  9
$CELTSCALE
 40
1
  9
$DISPSILH
 70
    0
  9
$DIMSCALE
 40
1.25
  9
$DIMASZ
 40
2.5
  9
$DIMEXO
 40
0.625
  9
$DIMDLI
 40
3.75
  9
$DIMRND
 40
0
  9
$DIMDLE
 40
0
  9
$DIMEXE
 40
1.25
  9
$DIMTP
 40
0
  9
$DIMTM
 40
0
  9
$DIMTXT
 40
2.5
  9
$DIMCEN
 40
2.5
  9
$DIMTSZ
 40
0
  9
$DIMTOL
 70
    0
  9
$DIMLIM
 70
    0
  9
$DIMTIH
 70
    0
  9
$DIMTOH
 70
    0
  9
$DIMSE1
 70
    0
  9
$DIMSE2
 70
    0
  9
$DIMTAD
 70
    1
  9
$DIMZIN
 70
    8
  9
$DIMBLK
  1

  9
$DIMASO
 70
    1
  9
$DIMSHO
 70
    1
  9
$DIMPOST
  1

  9
$DIMAPOST
  1

  9
$DIMALT
 70
    0
  9
$DIMALTD
 70
    3
  9
$DIMALTF
 40
0.03937
  9
$DIMLFAC
 40
1
  9
$DIMTOFL
 70
    1
  9
$DIMTVP
 40
0
  9
$DIMTIX
 70
    0
  9
$DIMSOXD
 70
    0
  9
$DIMSAH
 70
    0
  9
$DIMBLK1
  1

  9
$DIMBLK2
  1

  9
$DIMSTYLE
  2
STANDARD
  9
$DIMCLRD
 70
    0
  9
$DIMCLRE
 70
    0
  9
$DIMCLRT
 70
    0
  9
$DIMTFAC
 40
1
  9
$DIMGAP
 40
0.625
  9
$DIMJUST
 70
    0
  9
$DIMSD1
 70
    0
  9
$DIMSD2
 70
    0
  9
$DIMTOLJ
 70
    0
  9
$DIMTZIN
 70
    8
  9
$DIMALTZ
 70
    0
  9
$DIMALTTZ
 70
    0
  9
$DIMUPT
 70
    0
  9
$DIMDEC
 70
    2
  9
$DIMTDEC
 70
    2
  9
$DIMALTU
 70
    2
  9
$DIMALTTD
 70
    3
  9
$DIMTXSTY
  7
standard
  9
$DIMAUNIT
 70
    0
  9
$DIMADEC
 70
    0
  9
$DIMALTRND
 40
0
  9
$DIMAZIN
 70
    0
  9
$DIMDSEP
 70
   44
  9
$DIMATFIT
 70
    3
  9
$DIMFRAC
 70
    0
  9
$DIMLDRBLK
  1
STANDARD
  9
$DIMLUNIT
 70
    2
  9
$DIMLWD
 70
   -2
  9
$DIMLWE
 70
   -2
  9
$DIMTMOVE
 70
    0
  9
$DIMFXL
 40
1
  9
$DIMFXLON
 70
    0
  9
$DIMJOGANG
 40
0.7854
  9
$DIMTFILL
 70
    0
  9
$DIMTFILLCLR
 70
    0
  9
$DIMARCSYM
 70
    0
  9
$DIMLTYPE
  6

  9
$DIMLTEX1
  6

  9
$DIMLTEX2
  6

  9
$LUNITS
 70
    2
  9
$LUPREC
 70
    4
  9
$SKETCHINC
 40
1
  9
$FILLETRAD
 40
0
  9
$AUNITS
 70
    0
  9
$AUPREC
 70
    2
  9
$MENU
  1
.
  9
$ELEVATION
 40
0
  9
$PELEVATION
 40
0
  9
$THICKNESS
 40
0
  9
$LIMCHECK
 70
    0
  9
$CHAMFERA
 40
0
  9
$CHAMFERB
 40
0
  9
$CHAMFERC
 40
0
  9
$CHAMFERD
 40
0
  9
$SKPOLY
 70
    0
  9
$USRTIMER
 70
    1
  9
$ANGBASE
 50
0
  9
$ANGDIR
 70
    0
  9
$PDMODE
 70
   34
  9
$PDSIZE
 40
0
  9
$PLINEWID
 40
0
  9
$SPLFRAME
 70
    0
  9
$SPLINETYPE
 70
    2
  9
$SPLINESEGS
 70
    8
  9
$HANDSEED
  5
20000
  9
$SURFTAB1
 70
    6
  9
$SURFTAB2
 70
    6
  9
$SURFTYPE
 70
    6
  9
$SURFU
 70
    6
  9
$SURFV
 70
    6
  9
$UCSBASE
  2

  9
$UCSNAME
  2

  9
$UCSORG
 10
0
 20
0
 30
0
  9
$UCSXDIR
 10
1
 20
0
 30
0
  9
$UCSYDIR
 10
0
 20
1
 30
0
  9
$UCSORTHOREF
  2

  9
$UCSORTHOVIEW
 70
    0
  9
$UCSORGTOP
 10
0
 20
0
 30
0
  9
$UCSORGBOTTOM
 10
0
 20
0
 30
0
  9
$UCSORGLEFT
 10
0
 20
0
 30
0
  9
$UCSORGRIGHT
 10
0
 20
0
 30
0
  9
$UCSORGFRONT
 10
0
 20
0
 30
0
  9
$UCSORGBACK
 10
0
 20
0
 30
0
  9
$PUCSBASE
  2

  9
$PUCSNAME
  2

  9
$PUCSORG
 10
0
 20
0
 30
0
  9
$PUCSXDIR
 10
1
 20
0
 30
0
  9
$PUCSYDIR
 10
0
 20
1
 30
0
  9
$PUCSORTHOREF
  2

  9
$PUCSORTHOVIEW
 70
    0
  9
$PUCSORGTOP
 10
0
 20
0
 30
0
  9
$PUCSORGBOTTOM
 10
0
 20
0
 30
0
  9
$PUCSORGLEFT
 10
0
 20
0
 30
0
  9
$PUCSORGRIGHT
 10
0
 20
0
 30
0
  9
$PUCSORGFRONT
 10
0
 20
0
 30
0
  9
$PUCSORGBACK
 10
0
 20
0
 30
0
  9
$USERI1
 70
    0
  9
$USERI2
 70
    0
  9
$USERI3
 70
    0
  9
$USERI4
 70
    0
  9
$USERI5
 70
    0
  9
$USERR1
 40
0
  9
$USERR2
 40
0
  9
$USERR3
 40
0
  9
$USERR4
 40
0
  9
$USERR5
 40
0
  9
$WORLDVIEW
 70
    1
  9
$SHADEDGE
 70
    3
  9
$SHADEDIF
 70
   70
  9
$TILEMODE
 70
    1
  9
$MAXACTVP
 70
   64
  9
$PINSBASE
 10
0
 20
0
 30
0
  9
$PLIMCHECK
 70
    0
  9
$PEXTMIN
 10
0
 20
0
 30
0
  9
$PEXTMAX
 10
0
 20
0
 30
0
  9
$GRIDMODE
 70
    1
  9
$SNAPSTYLE
 70
    0
  9
$GRIDUNIT
 10
0
 20
0
  9
$PLIMMIN
 10
0
 20
0
  9
$PLIMMAX
 10
420
 20
297
  9
$UNITMODE
 70
    0
  9
$VISRETAIN
 70
    1
  9
$PLINEGEN
 70
    0
  9
$PSLTSCALE
 70
    1
  9
$TREEDEPTH
 70
 3020
  9
$CMLSTYLE
  2
Standard
  9
$CMLJUST
 70
    0
  9
$CMLSCALE
 40
20
  9
$PROXYGRAPHICS
 70
    1
  9
$MEASUREMENT
 70
    1
  9
$CELWEIGHT
370
   -1
  9
$ENDCAPS
280
    0
  9
$JOINSTYLE
280
    0
  9
$LWDISPLAY
290
    0
  9
$INSUNITS
 70
    4
  9
$HYPERLINKBASE
  1

  9
$STYLESHEET
  1

  9
$XEDIT
290
    1
  9
$CEPSNTYPE
380
    0
  9
$PSTYLEMODE
290
    1
  9
$EXTNAMES
290
    1
  9
$PSVPSCALE
 40
1
  9
$OLESTARTUP
290
    0
  9
$SORTENTS
280
  127
  9
$INDEXCTL
280
    0
  9
$HIDETEXT
280
    1
  9
$XCLIPFRAME
290
    0
  9
$HALOGAP
280
    0
  9
$OBSCOLOR
 70
  257
  9
$OBSLTYPE
280
    0
  9
$INTERSECTIONDISPLAY
280
    0
  9
$INTERSECTIONCOLOR
 70
  257
  9
$DIMASSOC
280
    1
  9
$PROJECTNAME
  1

  9
$CAMERADISPLAY
290
    0
  9
$LENSLENGTH
 40
50
  9
$CAMERAHEIGHT
 40
0
  9
$STEPSPERSEC
 40
2
  9
$STEPSIZE
 40
50
  9
$3DDWFPREC
 40
2
  9
$PSOLWIDTH
 40
5
  9
$PSOLHEIGHT
 40
80
  9
$LOFTANG1
 40
1.570796326794897
  9
$LOFTANG2
 40
1.570796326794897
  9
$LOFTMAG1
 40
0
  9
$LOFTMAG2
 40
0
  9
$LOFTPARAM
 70
    7
  9
$LOFTNORMALS
280
    1
  9
$LATITUDE
 40
1
  9
$LONGITUDE
 40
1
  9
$NORTHDIRECTION
 40
0
  9
$TIMEZONE
 70
-8000
  9
$LIGHTGLYPHDISPLAY
280
    1
  9
$TILEMODELIGHTSYNCH
280
    1
  9
$SOLIDHIST
280
    1
  9
$SHOWHIST
280
    1
  9
$DWFFRAME
280
    2
  9
$DGNFRAME
280
    0
  9
$REALWORLDSCALE
290
    1
  9
$INTERFERECOLOR
 62
    1
  9
$CSHADOW
280
    0
  9
$SHADOWPLANELOCATION
 40
0
  0
ENDSEC
  0
SECTION
  2
CLASSES
  0
ENDSEC
  0
SECTION
  2
TABLES
  0
TABLE
  2
VPORT
  5
8
330
0
100
AcDbSymbolTable
 70
    1
  0
VPORT
  5
31
330
2
100
AcDbSymbolTableRecord
100
AcDbViewportTableRecord
  2
*ACTIVE
 70
    0
 10
0
 20
0
 11
1
 21
1
 12
262.0454501482461
 22
153.3349220672407
 13
0
 23
0
 14
10
 24
10
 15
10
 25
10
 16
0
 26
0
 36
1
 17
0
 27
0
 37
0
 40
313.3536740707459
 41
1.969887076537014
 42
50
 43
0
 44
0
 50
0
 51
0
 71
    0
 72
  100
 73
    1
 74
    3
 75
    0
 76
    1
 77
    0
 78
    0
281
    0
 65
    1
110
0
120
0
130
0
111
1
121
0
131
0
112
0
122
1
132
0
 79
    0
146
0
348
10020
 60
    7
 61
    5
292
1
282
    1
141
0
142
0
 63
  250
421
3358443
  0
ENDTAB
  0
TABLE
  2
LTYPE
  5
5
330
0
100
AcDbSymbolTable
 70
    4
  0
LTYPE
  5
14
330
5
100
AcDbSymbolTableRecord
100
AcDbLinetypeTableRecord
  2
ByBlock
 70
    0
  3

 72
   65
 73
    0
 40
0
  0
LTYPE
  5
15
330
5
100
AcDbSymbolTableRecord
100
AcDbLinetypeTableRecord
  2
ByLayer
 70
    0
  3

 72
   65
 73
    0
 40
0
  0
LTYPE
  5
16
330
5
100
AcDbSymbolTableRecord
100
AcDbLinetypeTableRecord
  2
Continuous
 70
    0
  3
Solid line
 72
   65
 73
    0
 40
0
  0
LTYPE
  5
32
330
5
100
AcDbSymbolTableRecord
100
AcDbLinetypeTableRecord
  2
DOT
 70
    0
  3
Dot . . . . . . . . . . . . . . . . . . . . . .
 72
   65
 73
    2
 40
6.35
 49
0
 74
    0
 49
-6.35
 74
    0
  0
LTYPE
  5
33
330
5
100
AcDbSymbolTableRecord
100
AcDbLinetypeTableRecord
  2
DOTTINY
 70
    0
  3
Dot (.15x) .....................................
 72
   65
 73
    2
 40
0.9525
 49
0
 74
    0
 49
-0.9525
 74
    0
  0
LTYPE
  5
34
330
5
100
AcDbSymbolTableRecord
100
AcDbLinetypeTableRecord
  2
DOT2
 70
    0
  3
Dot (.5x) .....................................
 72
   65
 73
    2
 40
3.175
 49
0
 74
    0
 49
-3.175
 74
    0
  0
LTYPE
  5
35
330
5
100
AcDbSymbolTableRecord
100
AcDbLinetypeTableRecord
  2
DOTX2
 70
    0
  3
Dot (2x) .  .  .  .  .  .  .  .  .  .  .  .  .
 72
   65
 73
    2
 40
12.7
 49
0
 74
    0
 49
-12.7
 74
    0
  0
LTYPE
  5
36
330
5
100
AcDbSymbolTableRecord
100
AcDbLinetypeTableRecord
  2
DASHED
 70
    0
  3
Dashed _ _ _ _ _ _ _ _ _ _ _ _ _ _ _ _ _
 72
   65
 73
    2
 40
19.05
 49
12.7
 74
    0
 49
-6.35
 74
    0
  0
LTYPE
  5
37
330
5
100
AcDbSymbolTableRecord
100
AcDbLinetypeTableRecord
  2
DASHEDTINY
 70
    0
  3
Dashed (.15x) _ _ _ _ _ _ _ _ _ _ _ _ _ _ _ _ _
 72
   65
 73
    2
 40
2.8575
 49
1.905
 74
    0
 49
-0.9525
 74
    0
  0
LTYPE
  5
38
330
5
100
AcDbSymbolTableRecord
100
AcDbLinetypeTableRecord
  2
DASHED2
 70
    0
  3
Dashed (.5x) _ _ _ _ _ _ _ _ _ _ _ _ _ _ _ _ _
 72
   65
 73
    2
 40
9.524999999999999
 49
6.35
 74
    0
 49
-3.175
 74
    0
  0
LTYPE
  5
39
330
5
100
AcDbSymbolTableRecord
100
AcDbLinetypeTableRecord
  2
DASHEDX2
 70
    0
  3
Dashed (2x) ____  ____  ____  ____  ____  ___
 72
   65
 73
    2
 40
38.09999999999999
 49
25.4
 74
    0
 49
-12.7
 74
    0
  0
LTYPE
  5
3A
330
5
100
AcDbSymbolTableRecord
100
AcDbLinetypeTableRecord
  2
DASHDOT
 70
    0
  3
Dash dot __ . __ . __ . __ . __ . __ . __ . __
 72
   65
 73
    4
 40
25.4
 49
12.7
 74
    0
 49
-6.35
 74
    0
 49
0
 74
    0
 49
-6.35
 74
    0
  0
LTYPE
  5
3B
330
5
100
AcDbSymbolTableRecord
100
AcDbLinetypeTableRecord
  2
DASHDOTTINY
 70
    0
  3
Dash dot (.15x) _._._._._._._._._._._._._._._.
 72
   65
 73
    4
 40
3.81
 49
1.905
 74
    0
 49
-0.9525
 74
    0
 49
0
 74
    0
 49
-0.9525
 74
    0
  0
LTYPE
  5
3C
330
5
100
AcDbSymbolTableRecord
100
AcDbLinetypeTableRecord
  2
DASHDOT2
 70
    0
  3
Dash dot (.5x) _._._._._._._._._._._._._._._.
 72
   65
 73
    4
 40
12.7
 49
6.35
 74
    0
 49
-3.175
 74
    0
 49
0
 74
    0
 49
-3.175
 74
    0
  0
LTYPE
  5
3D
330
5
100
AcDbSymbolTableRecord
100
AcDbLinetypeTableRecord
  2
DASHDOTX2
 70
    0
  3
Dash dot (2x) ____  .  ____  .  ____  .  ___
 72
   65
 73
    4
 40
50.8
 49
25.4
 74
    0
 49
-12.7
 74
    0
 49
0
 74
    0
 49
-12.7
 74
    0
  0
LTYPE
  5
3E
330
5
100
AcDbSymbolTableRecord
100
AcDbLinetypeTableRecord
  2
DIVIDE
 70
    0
  3
Divide ____ . . ____ . . ____ . . ____ . . ____
 72
   65
 73
    6
 40
31.75
 49
12.7
 74
    0
 49
-6.35
 74
    0
 49
0
 74
    0
 49
-6.35
 74
    0
 49
0
 74
    0
 49
-6.35
 74
    0
  0
LTYPE
  5
3F
330
5
100
AcDbSymbolTableRecord
100
AcDbLinetypeTableRecord
  2
DIVIDETINY
 70
    0
  3
Divide (.15x) __..__..__..__..__..__..__..__.._
 72
   65
 73
    6
 40
4.7625
 49
1.905
 74
    0
 49
-0.9525
 74
    0
 49
0
 74
    0
 49
-0.9525
 74
    0
 49
0
 74
    0
 49
-0.9525
 74
    0
  0
LTYPE
  5
40
330
5
100
AcDbSymbolTableRecord
100
AcDbLinetypeTableRecord
  2
DIVIDE2
 70
    0
  3
Divide (.5x) __..__..__..__..__..__..__..__.._
 72
   65
 73
    6
 40
15.875
 49
6.35
 74
    0
 49
-3.175
 74
    0
 49
0
 74
    0
 49
-3.175
 74
    0
 49
0
 74
    0
 49
-3.175
 74
    0
  0
LTYPE
  5
41
330
5
100
AcDbSymbolTableRecord
100
AcDbLinetypeTableRecord
  2
DIVIDEX2
 70
    0
  3
Divide (2x) ________  .  .  ________  .  .  _
 72
   65
 73
    6
 40
63.5
 49
25.4
 74
    0
 49
-12.7
 74
    0
 49
0
 74
    0
 49
-12.7
 74
    0
 49
0
 74
    0
 49
-12.7
 74
    0
  0
LTYPE
  5
42
330
5
100
AcDbSymbolTableRecord
100
AcDbLinetypeTableRecord
  2
BORDER
 70
    0
  3
Border __ __ . __ __ . __ __ . __ __ . __ __ .
 72
   65
 73
    6
 40
44.45
 49
12.7
 74
    0
 49
-6.35
 74
    0
 49
12.7
 74
    0
 49
-6.35
 74
    0
 49
0
 74
    0
 49
-6.35
 74
    0
  0
LTYPE
  5
43
330
5
100
AcDbSymbolTableRecord
100
AcDbLinetypeTableRecord
  2
BORDERTINY
 70
    0
  3
Border (.15x) __.__.__.__.__.__.__.__.__.__.__.
 72
   65
 73
    6
 40
6.6675
 49
1.905
 74
    0
 49
-0.9525
 74
    0
 49
1.905
 74
    0
 49
-0.9525
 74
    0
 49
0
 74
    0
 49
-0.9525
 74
    0
  0
LTYPE
  5
44
330
5
100
AcDbSymbolTableRecord
100
AcDbLinetypeTableRecord
  2
BORDER2
 70
    0
  3
Border (.5x) __.__.__.__.__.__.__.__.__.__.__.
 72
   65
 73
    6
 40
22.225
 49
6.35
 74
    0
 49
-3.175
 74
    0
 49
6.35
 74
    0
 49
-3.175
 74
    0
 49
0
 74
    0
 49
-3.175
 74
    0
  0
LTYPE
  5
45
330
5
100
AcDbSymbolTableRecord
100
AcDbLinetypeTableRecord
  2
BORDERX2
 70
    0
  3
Border (2x) ____  ____  .  ____  ____  .  ___
 72
   65
 73
    6
 40
88.89999999999999
 49
25.4
 74
    0
 49
-12.7
 74
    0
 49
25.4
 74
    0
 49
-12.7
 74
    0
 49
0
 74
    0
 49
-12.7
 74
    0
  0
LTYPE
  5
46
330
5
100
AcDbSymbolTableRecord
100
AcDbLinetypeTableRecord
  2
CENTER
 70
    0
  3
Center ____ _ ____ _ ____ _ ____ _ ____ _ ____
 72
   65
 73
    4
 40
50.8
 49
31.75
 74
    0
 49
-6.35
 74
    0
 49
6.35
 74
    0
 49
-6.35
 74
    0
  0
LTYPE
  5
47
330
5
100
AcDbSymbolTableRecord
100
AcDbLinetypeTableRecord
  2
CENTERTINY
 70
    0
  3
Center (.15x) ___ _ ___ _ ___ _ ___ _ ___ _ ___
 72
   65
 73
    4
 40
7.619999999999999
 49
4.7625
 74
    0
 49
-0.9525
 74
    0
 49
0.9525
 74
    0
 49
-0.9525
 74
    0
  0
LTYPE
  5
48
330
5
100
AcDbSymbolTableRecord
100
AcDbLinetypeTableRecord
  2
CENTER2
 70
    0
  3
Center (.5x) ___ _ ___ _ ___ _ ___ _ ___ _ ___
 72
   65
 73
    4
 40
28.575
 49
19.05
 74
    0
 49
-3.175
 74
    0
 49
3.175
 74
    0
 49
-3.175
 74
    0
  0
LTYPE
  5
49
330
5
100
AcDbSymbolTableRecord
100
AcDbLinetypeTableRecord
  2
CENTERX2
 70
    0
  3
Center (2x) ________  __  ________  __  _____
 72
   65
 73
    4
 40
101.6
 49
63.5
 74
    0
 49
-12.7
 74
    0
 49
12.7
 74
    0
 49
-12.7
 74
    0
  0
ENDTAB
  0
TABLE
  2
LAYER
  5
2
330
0
100
AcDbSymbolTable
 70
    1
  0
LAYER
  5
10
330
2
100
AcDbSymbolTableRecord
100
AcDbLayerTableRecord
  2
0
 70
    0
 62
    7
  6
CONTINUOUS
370
    0
390
F
  0
LAYER
  5
4A
330
2
100
AcDbSymbolTableRecord
100
AcDbLayerTableRecord
  2
Achsen
 70
    0
 62
    7
  6
CENTER2
370
   25
390
F
  0
LAYER
  5
4B
330
2
100
AcDbSymbolTableRecord
100
AcDbLayerTableRecord
  2
Bemaßung
 70
    0
 62
    7
  6
CONTINUOUS
370
   25
390
F
  0
LAYER
  5
4C
330
2
100
AcDbSymbolTableRecord
100
AcDbLayerTableRecord
  2
Hilfslinie
 70
    0
 62
    6
  6
CONTINUOUS
370
    0
390
F
  0
LAYER
  5
4D
330
2
100
AcDbSymbolTableRecord
100
AcDbLayerTableRecord
  2
Kosmetische Linie
 70
    0
 62
    5
  6
CONTINUOUS
370
    0
390
F
  0
LAYER
  5
4E
330
2
100
AcDbSymbolTableRecord
100
AcDbLayerTableRecord
  2
Rahmen
 70
    4
 62
    7
  6
CONTINUOUS
370
   35
390
F
  0
LAYER
  5
4F
330
2
100
AcDbSymbolTableRecord
100
AcDbLayerTableRecord
  2
Schraffur
 70
    0
 62
    7
  6
CONTINUOUS
370
   25
390
F
  0
LAYER
  5
50
330
2
100
AcDbSymbolTableRecord
100
AcDbLayerTableRecord
  2
Schriftfeld-Label
 70
    4
 62
    7
  6
CONTINUOUS
370
   25
390
F
  0
LAYER
  5
51
330
2
100
AcDbSymbolTableRecord
100
AcDbLayerTableRecord
  2
Schriftfeld-Rahmen
 70
    4
 62
    7
  6
CONTINUOUS
370
   35
390
F
  0
LAYER
  5
52
330
2
100
AcDbSymbolTableRecord
100
AcDbLayerTableRecord
  2
Schriftfeld-Text
 70
    0
 62
    7
  6
CONTINUOUS
370
   35
390
F
  0
LAYER
  5
53
330
2
100
AcDbSymbolTableRecord
100
AcDbLayerTableRecord
  2
Sichtbar
 70
    0
 62
    7
  6
CONTINUOUS
370
   50
390
F
  0
LAYER
  5
54
330
2
100
AcDbSymbolTableRecord
100
AcDbLayerTableRecord
  2
Unsichtbar
 70
    0
 62
    7
  6
DASHED2
370
   35
390
F
  0
ENDTAB
  0
TABLE
  2
STYLE
  5
3
330
0
100
AcDbSymbolTable
 70
    3
  0
STYLE
  5
55
330
2
100
AcDbSymbolTableRecord
100
AcDbTextStyleTableRecord
  2
standard
 70
    0
 40
0
 41
1
 50
0
 71
    0
 42
1
  3
standard
  4

  0
STYLE
  5
56
330
2
100
AcDbSymbolTableRecord
100
AcDbTextStyleTableRecord
  2
unicode
 70
    0
 40
0
 41
1
 50
0
 71
    0
 42
1
  3
unicode
  4

  0
ENDTAB
  0
TABLE
  2
VIEW
  5
6
330
0
100
AcDbSymbolTable
 70
    0
  0
ENDTAB
  0
TABLE
  2
UCS
  5
7
330
0
100
AcDbSymbolTable
 70
    0
  0
ENDTAB
  0
TABLE
  2
APPID
  5
9
330
0
100
AcDbSymbolTable
 70
    1
  0
APPID
  5
12
330
9
100
AcDbSymbolTableRecord
100
AcDbRegAppTableRecord
  2
ACAD
 70
    0
  0
APPID
  5
57
330
9
100
AcDbSymbolTableRecord
100
AcDbRegAppTableRecord
  2
LibreCad
 70
    0
  0
ENDTAB
  0
TABLE
  2
DIMSTYLE
  5
A
330
0
100
AcDbSymbolTable
 70
    1
100
AcDbDimStyleTable
 71
    1
  0
DIMSTYLE
105
58
330
A
100
AcDbSymbolTableRecord
100
AcDbDimStyleTableRecord
  2
Standard
 70
    0
 40
1.25
 41
2.5
 42
0.625
 43
0.38
 44
1.25
 45
0
 46
0
 47
0
 48
0
 49
1
140
2.5
141
0.09
142
0
143
25.4
144
1
145
0
146
1
147
0.625
148
0
 71
    0
 72
    0
 73
    0
 74
    1
 75
    0
 76
    0
 77
    0
 78
    8
 79
    0
170
    0
171
    2
172
    0
173
    0
174
    0
175
    0
176
    0
177
    0
178
    0
179
    0
271
    2
272
    4
273
    2
274
    2
275
    0
276
    0
277
    2
278
   44
279
    0
280
    0
281
    0
282
    0
283
    1
284
    0
285
    0
286
    0
288
    0
289
    3
340
standard
341

371
   -2
372
   -2
  0
ENDTAB
  0
TABLE
  2
BLOCK_RECORD
  5
1
330
0
100
AcDbSymbolTable
 70
    2
  0
BLOCK_RECORD
  5
1F
330
1
100
AcDbSymbolTableRecord
100
AcDbBlockTableRecord
  2
*Model_Space
 70
    0
280
    1
281
    0
  0
BLOCK_RECORD
  5
1E
330
1
100
AcDbSymbolTableRecord
100
AcDbBlockTableRecord
  2
*Paper_Space
 70
    0
280
    1
281
    0
  0
ENDTAB
  0
ENDSEC
  0
SECTION
  2
BLOCKS
  0
BLOCK
  5
20
330
1F
100
AcDbEntity
  8
0
100
AcDbBlockBegin
  2
*Model_Space
 70
    0
 10
0
 20
0
 30
0
  3
*Model_Space
  1

  0
ENDBLK
  5
21
330
1F
100
AcDbEntity
  8
0
100
AcDbBlockEnd
  0
BLOCK
  5
1C
330
1B
100
AcDbEntity
  8
0
100
AcDbBlockBegin
  2
*Paper_Space
 70
    0
 10
0
 20
0
 30
0
  3
*Paper_Space
  1

  0
ENDBLK
  5
1D
330
1F
100
AcDbEntity
  8
0
100
AcDbBlockEnd
  0
ENDSEC
  0
SECTION
  2
ENTITIES
  0
MTEXT
  5
59
100
AcDbEntity
  8
Rahmen
  6
ByLayer
 62
  256
370
   13
100
AcDbMText
 10
17.5
 20
223.5
 30
0
 40
3.5
 41
1.944444444444444
 71
    5
 72
    1
  1
B
  7
standard
210
0
220
0
230
1
 50
0
 73
    2
 44
1
  0
MTEXT
  5
5A
100
AcDbEntity
  8
Rahmen
  6
ByLayer
 62
  256
370
   13
100
AcDbMText
 10
17.5
 20
173.5
 30
0
 40
3.5
 41
1.555555555555773
 71
    5
 72
    1
  1
C
  7
standard
210
0
220
0
230
1
 50
0
 73
    2
 44
1
  0
MTEXT
  5
5B
100
AcDbEntity
  8
Rahmen
  6
ByLayer
 62
  256
370
   13
100
AcDbMText
 10
17.5
 20
123.5
 30
0
 40
3.5
 41
1.944444444444662
 71
    5
 72
    1
  1
D
  7
standard
210
0
220
0
230
1
 50
0
 73
    2
 44
1
  0
MTEXT
  5
5C
100
AcDbEntity
  8
Rahmen
  6
ByLayer
 62
  256
370
   13
100
AcDbMText
 10
17.5
 20
73.5
 30
0
 40
3.5
 41
1.555555555555556
 71
    5
 72
    1
  1
E
  7
standard
210
0
220
0
230
1
 50
0
 73
    2
 44
1
  0
MTEXT
  5
5D
100
AcDbEntity
  8
Rahmen
  6
ByLayer
 62
  256
370
   13
100
AcDbMText
 10
17.5
 20
270.25
 30
0
 40
3.5
 41
2.333333333333333
 71
    5
 72
    1
  1
A
  7
standard
210
0
220
0
230
1
 50
0
 73
    2
 44
1
  0
MTEXT
  5
5E
100
AcDbEntity
  8
Rahmen
  6
ByLayer
 62
  256
370
   13
100
AcDbMText
 10
17.5
 20
26.75
 30
0
 40
3.5
 41
1.555555555555556
 71
    5
 72
    1
  1
F
  7
standard
210
0
220
0
230
1
 50
0
 73
    2
 44
1
  0
LINE
  5
5F
100
AcDbEntity
  8
Rahmen
  6
ByLayer
 62
  256
370
   -1
100
AcDbLine
 10
0
 20
148.5
 11
25
 21
148.5
  0
LINE
  5
60
100
AcDbEntity
  8
Rahmen
  6
ByLayer
 62
  256
370
   -1
100
AcDbLine
 10
15
 20
248.5
 11
20
 21
248.5
  0
LINE
  5
61
100
AcDbEntity
  8
Rahmen
  6
ByLayer
 62
  256
370
   -1
100
AcDbLine
 10
15
 20
198.5
 11
20
 21
198.5
  0
LINE
  5
62
100
AcDbEntity
  8
Rahmen
  6
ByLayer
 62
  256
370
   -1
100
AcDbLine
 10
15
 20
98.5
 11
20
 21
98.5
  0
LINE
  5
63
100
AcDbEntity
  8
Rahmen
  6
ByLayer
 62
  256
370
   -1
100
AcDbLine
 10
15
 20
48.5
 11
20
 21
48.5
  0
LINE
  5
64
100
AcDbEntity
  8
Schriftfeld-Rahmen
  6
ByLayer
 62
  256
370
   -1
100
AcDbLine
 10
290
 20
10
 11
290
 21
55
  0
LINE
  5
65
100
AcDbEntity
  8
Schriftfeld-Rahmen
  6
ByLayer
 62
  256
370
   -1
100
AcDbLine
 10
230
 20
43.75
 11
410
 21
43.75
  0
LINE
  5
66
100
AcDbEntity
  8
Schriftfeld-Rahmen
  6
ByLayer
 62
  256
370
   -1
100
AcDbLine
 10
290
 20
32.5
 11
410
 21
32.5
  0
LINE
  5
67
100
AcDbEntity
  8
Schriftfeld-Rahmen
  6
ByLayer
 62
  256
370
   -1
100
AcDbLine
 10
350
 20
10
 11
350
 21
32.5
  0
LINE
  5
68
100
AcDbEntity
  8
Schriftfeld-Rahmen
  6
ByLayer
 62
  256
370
   -1
100
AcDbLine
 10
350
 20
21.25
 11
410
 21
21.25
  0
LINE
  5
69
100
AcDbEntity
  8
Schriftfeld-Rahmen
  6
ByLayer
 62
  256
370
   -1
100
AcDbLine
 10
370
 20
32.5
 11
370
 21
55
  0
LINE
  5
6A
100
AcDbEntity
  8
Schriftfeld-Rahmen
  6
ByLayer
 62
  256
370
   -1
100
AcDbLine
 10
330
 20
32.5
 11
330
 21
43.75
  0
LINE
  5
6B
100
AcDbEntity
  8
Schriftfeld-Rahmen
  6
ByLayer
 62
  256
370
   -1
100
AcDbLine
 10
370
 20
10
 11
370
 21
21.25
  0
LWPOLYLINE
  5
6C
100
AcDbEntity
  8
Schriftfeld-Rahmen
  6
ByLayer
 62
  256
370
   -1
100
AcDbPolyline
 90
    4
 70
    1
 43
0
 10
230
 20
10
 10
410
 20
10
 10
410
 20
55
 10
230
 20
55
  0
TEXT
  5
6D
100
AcDbEntity
  8
Schriftfeld-Label
  6
ByLayer
 62
  256
370
   -1
100
AcDbText
 10
332
 20
40
 30
0
 40
2
  1
Geprüft von:
 50
0
 41
1
 51
0
  7
unicode
 71
    0
210
0
220
0
230
1
100
AcDbText
  0
TEXT
  5
6E
100
AcDbEntity
  8
Schriftfeld-Label
  6
ByLayer
 62
  256
370
   -1
100
AcDbText
 10
292
 20
40
 30
0
 40
2
  1
Erstellt von:
 50
0
 41
1
 51
0
  7
unicode
 71
    0
210
0
220
0
230
1
100
AcDbText
  0
TEXT
  5
6F
100
AcDbEntity
  8
Schriftfeld-Label
  6
ByLayer
 62
  256
370
   -1
100
AcDbText
 10
352
 20
29
 30
0
 40
2
  1
Zeichnungsnummer:
 50
0
 41
1
 51
0
  7
unicode
 71
    0
210
0
220
0
230
1
100
AcDbText
  0
TEXT
  5
70
100
AcDbEntity
  8
Schriftfeld-Label
  6
ByLayer
 62
  256
370
   -1
100
AcDbText
 10
292
 20
29
 30
0
 40
2
  1
Titel, zusätzlicher Titel:
 50
0
 41
1
 51
0
  7
unicode
 71
    0
210
0
220
0
230
1
100
AcDbText
  0
TEXT
  5
71
100
AcDbEntity
  8
Schriftfeld-Label
  6
ByLayer
 62
  256
370
   -1
100
AcDbText
 10
352
 20
18
 30
0
 40
2
  1
Maßstab:
 50
0
 41
1
 51
0
  7
unicode
 71
    0
210
0
220
0
230
1
100
AcDbText
  0
TEXT
  5
72
100
AcDbEntity
  8
Schriftfeld-Label
  6
ByLayer
 62
  256
370
   -1
100
AcDbText
 10
372
 20
18
 30
0
 40
2
  1
Datum:
 50
0
 41
1
 51
0
  7
unicode
 71
    0
210
0
220
0
230
1
100
AcDbText
  0
TEXT
  5
73
100
AcDbEntity
  8
Schriftfeld-Label
  6
ByLayer
 62
  256
370
   -1
100
AcDbText
 10
292
 20
51
 30
0
 40
2
  1
Allgemeintoleranz:
 50
0
 41
1
 51
0
  7
unicode
 71
    0
210
0
220
0
230
1
100
AcDbText
  0
TEXT
  5
74
100
AcDbEntity
  8
Schriftfeld-Label
  6
ByLayer
 62
  256
370
   -1
100
AcDbText
 10
372
 20
51
 30
0
 40
2
  1
Werkstoff:
 50
0
 41
1
 51
0
  7
unicode
 71
    0
210
0
220
0
230
1
100
AcDbText
  0
TEXT
  5
75
100
AcDbEntity
  8
Schriftfeld-Label
  6
ByLayer
 62
  256
370
   -1
100
AcDbText
 10
232
 20
51
 30
0
 40
2
  1
Oberfläche:
 50
0
 41
1
 51
0
  7
unicode
 71
    0
210
0
220
0
230
1
100
AcDbText
  0
TEXT
  5
76
100
AcDbEntity
  8
Schriftfeld-Label
  6
ByLayer
 62
  256
370
   -1
100
AcDbText
 10
232
 20
40
 30
0
 40
2
  1
Open Source CAD-System:
 50
0
 41
1
 51
0
  7
unicode
 71
    0
210
0
220
0
230
1
100
AcDbText
  0
MTEXT
  5
77
100
AcDbEntity
  8
Schriftfeld-Text
  6
ByLayer
 62
  256
370
   -1
100
AcDbMText
 10
292
 20
16
 30
0
 40
2
 41
30.8340004497298
 71
    7
 72
    1
  1
Weitere Beschreibung...
  7
unicode
210
0
220
0
230
1
 50
0
 73
    2
 44
1
  0
MTEXT
  5
78
100
AcDbEntity
  8
Schriftfeld-Text
  6
ByLayer
 62
  256
370
   -1
100
AcDbMText
 10
352
 20
12
 30
0
 40
3
 41
7.833333333333333
 71
    7
 72
    1
  1
1 : 1
  7
unicode
210
0
220
0
230
1
 50
0
 73
    2
 44
1
  0
MTEXT
  5
79
100
AcDbEntity
  8
Schriftfeld-Text
  6
ByLayer
 62
  256
370
   -1
100
AcDbMText
 10
234
 20
15
 30
0
 40
6
 41
34
 71
    7
 72
    1
  1
LibreCAD\P
  7
unicode
210
0
220
0
230
1
 50
0
 73
    2
 44
1
  0
LWPOLYLINE
  5
7A
100
AcDbEntity
  8
Schriftfeld-Text
  6
ByLayer
 62
  256
370
   -1
100
AcDbPolyline
 90
    4
 70
    1
 43
0
 10
274.1
 20
31.9
 10
275.2
 20
31.9
 10
275.2
 20
33
 10
274.1
 20
33
  0
LWPOLYLINE
  5
7B
100
AcDbEntity
  8
Schriftfeld-Text
  6
ByLayer
 62
  256
370
   -1
100
AcDbPolyline
 90
    4
 70
    1
 43
0
 10
274.1
 20
23.1
 10
275.2
 20
23.1
 10
275.2
 20
24.2
 10
274.1
 20
24.2
  0
LWPOLYLINE
  5
7C
100
AcDbEntity
  8
Schriftfeld-Text
  6
ByLayer
 62
  256
370
   -1
100
AcDbPolyline
 90
    4
 70
    1
 43
0
 10
282.9
 20
31.9
 10
284
 20
31.9
 10
284
 20
33
 10
282.9
 20
33
  0
LWPOLYLINE
  5
7D
100
AcDbEntity
  8
Schriftfeld-Text
  6
ByLayer
 62
  256
370
   -1
100
AcDbPolyline
 90
    4
 70
    1
 43
0
 10
282.9
 20
23.1
 10
284
 20
23.1
 10
284
 20
24.2
 10
282.9
 20
24.2
  0
ARC
  5
7E
100
AcDbEntity
  8
Schriftfeld-Text
  6
ByLayer
 62
  256
370
   -1
100
AcDbCircle
 10
279.05
 20
28.05
 40
3.850000000000001
100
AcDbArc
 50
196.6015495990166
 51
351.7867892982619
  0
ARC
  5
7F
100
AcDbEntity
  8
Schriftfeld-Text
  6
ByLayer
 62
  256
370
   -1
100
AcDbCircle
 10
279.05
 20
28.05
 40
4.951222071367837
100
AcDbArc
 50
192.8363651965822
 51
353.6222108980889
  0
ARC
  5
80
100
AcDbEntity
  8
Schriftfeld-Text
  6
ByLayer
 62
  256
370
   -1
100
AcDbCircle
 10
279.05
 20
28.05
 40
4.951222071367837
100
AcDbArc
 50
6.377789101910463
 51
167.1636348034204
  0
ARC
  5
81
100
AcDbEntity
  8
Schriftfeld-Text
  6
ByLayer
 62
  256
370
   -1
100
AcDbCircle
 10
279.05
 20
28.05
 40
3.850000000000001
100
AcDbArc
 50
8.213210701736893
 51
163.3984504009887
  0
LINE
  5
82
100
AcDbEntity
  8
Schriftfeld-Text
  6
ByLayer
 62
  256
370
   -1
100
AcDbLine
 10
274.1
 20
26.95
 11
274.1
 21
29.15
  0
LINE
  5
83
100
AcDbEntity
  8
Schriftfeld-Text
  6
ByLayer
 62
  256
370
   -1
100
AcDbLine
 10
274.1
 20
29.15
 11
276.3
 21
29.15
  0
LINE
  5
84
100
AcDbEntity
  8
Schriftfeld-Text
  6
ByLayer
 62
  256
370
   -1
100
AcDbLine
 10
276.3
 20
29.15
 11
276.3
 21
28.6
  0
LINE
  5
85
100
AcDbEntity
  8
Schriftfeld-Text
  6
ByLayer
 62
  256
370
   -1
100
AcDbLine
 10
276.3
 20
28.6
 11
284
 21
28.6
  0
LINE
  5
86
100
AcDbEntity
  8
Schriftfeld-Text
  6
ByLayer
 62
  256
370
   -1
100
AcDbLine
 10
284
 20
28.6
 11
284
 21
27.5
  0
LINE
  5
87
100
AcDbEntity
  8
Schriftfeld-Text
  6
ByLayer
 62
  256
370
   -1
100
AcDbLine
 10
284
 20
27.5
 11
276.3
 21
27.5
  0
LINE
  5
88
100
AcDbEntity
  8
Schriftfeld-Text
  6
ByLayer
 62
  256
370
   -1
100
AcDbLine
 10
276.3
 20
27.5
 11
276.3
 21
26.95
  0
LINE
  5
89
100
AcDbEntity
  8
Schriftfeld-Text
  6
ByLayer
 62
  256
370
   -1
100
AcDbLine
 10
276.3
 20
26.95
 11
274.1
 21
26.95
  0
TEXT
  5
8A
100
AcDbEntity
  8
Schriftfeld-Label
  6
ByLayer
 62
  256
370
   -1
100
AcDbText
 10
396
 20
18
 30
0
 40
2
  1
Blatt-Nr.:
 50
0
 41
1
 51
0
  7
unicode
 71
    0
210
0
220
0
230
1
100
AcDbText
  0
MTEXT
  5
8B
100
AcDbEntity
  8
Schriftfeld-Text
  6
ByLayer
 62
  256
370
   -1
100
AcDbMText
 10
396
 20
12
 30
0
 40
3
 41
9.166666666666666
 71
    7
 72
    1
  1
1 / 1
  7
unicode
210
0
220
0
230
1
 50
0
 73
    2
 44
1
  0
LINE
  5
8C
100
AcDbEntity
  8
Schriftfeld-Rahmen
  6
ByLayer
 62
  256
370
   -1
100
AcDbLine
 10
394
 20
10
 11
394
 21
21.25
  0
MTEXT
  5
8D
100
AcDbEntity
  8
Schriftfeld-Text
  6
ByLayer
 62
  256
370
   -1
100
AcDbMText
 10
292
 20
21
 30
0
 40
3
 41
31.0010006745947
 71
    7
 72
    1
  1
Zeichnungsname
  7
unicode
210
0
220
0
230
1
 50
0
 73
    2
 44
1
  0
MTEXT
  5
8E
100
AcDbEntity
  8
Schriftfeld-Text
  6
ByLayer
 62
  256
370
   -1
100
AcDbMText
 10
332
 20
34
 30
0
 40
2.8
 41
1.866666666666667
 71
    7
 72
    1
  1
...
  7
unicode
210
0
220
0
230
1
 50
0
 73
    2
 44
1
  0
MTEXT
  5
8F
100
AcDbEntity
  8
Schriftfeld-Text
  6
ByLayer
 62
  256
370
   -1
100
AcDbMText
 10
372
 20
34
 30
0
 40
2.8
 41
1.866666666666667
 71
    7
 72
    1
  1
...
  7
unicode
210
0
220
0
230
1
 50
0
 73
    2
 44
1
  0
MTEXT
  5
90
100
AcDbEntity
  8
Schriftfeld-Text
  6
ByLayer
 62
  256
370
   -1
100
AcDbMText
 10
372
 20
46
 30
0
 40
2.8
 41
1.866666666666667
 71
    7
 72
    1
  1
...
  7
unicode
210
0
220
0
230
1
 50
0
 73
    2
 44
1
  0
MTEXT
  5
91
100
AcDbEntity
  8
Schriftfeld-Text
  6
ByLayer
 62
  256
370
   -1
100
AcDbMText
 10
292
 20
46
 30
0
 40
2.8
 41
1.866666666666667
 71
    7
 72
    1
  1
...
  7
unicode
210
0
220
0
230
1
 50
0
 73
    2
 44
1
  0
MTEXT
  5
92
100
AcDbEntity
  8
Schriftfeld-Text
  6
ByLayer
 62
  256
370
   -1
100
AcDbMText
 10
232
 20
46
 30
0
 40
2.8
 41
1.866666666666667
 71
    7
 72
    1
  1
...
  7
unicode
210
0
220
0
230
1
 50
0
 73
    2
 44
1
  0
TEXT
  5
93
100
AcDbEntity
  8
Schriftfeld-Label
  6
ByLayer
 62
  256
370
   -1
100
AcDbText
 10
372
 20
40
 30
0
 40
2
  1
Sonstiges:
 50
0
 41
1
 51
0
  7
unicode
 71
    0
210
0
220
0
230
1
100
AcDbText
  0
MTEXT
  5
94
100
AcDbEntity
  8
Schriftfeld-Text
  6
ByLayer
 62
  256
370
   -1
100
AcDbMText
 10
352
 20
23
 30
0
 40
4
 41
31.55555555555555
 71
    7
 72
    1
  1
ZN-08154711
  7
unicode
210
0
220
0
230
1
 50
0
 73
    2
 44
1
  0
LINE
  5
95
100
AcDbEntity
  8
Rahmen
  6
ByLayer
 62
  256
370
   -1
100
AcDbLine
 10
165
 20
292
 11
165
 21
287
  0
LINE
  5
96
100
AcDbEntity
  8
Rahmen
  6
ByLayer
 62
  256
370
   -1
100
AcDbLine
 10
65
 20
292
 11
65
 21
287
  0
LINE
  5
97
100
AcDbEntity
  8
Rahmen
  6
ByLayer
 62
  256
370
   -1
100
AcDbLine
 10
265
 20
292
 11
265
 21
287
  0
LINE
  5
98
100
AcDbEntity
  8
Rahmen
  6
ByLayer
 62
  256
370
   -1
100
AcDbLine
 10
315
 20
292
 11
315
 21
287
  0
LINE
  5
99
100
AcDbEntity
  8
Rahmen
  6
ByLayer
 62
  256
370
   -1
100
AcDbLine
 10
365
 20
292
 11
365
 21
287
  0
LINE
  5
9A
100
AcDbEntity
  8
Rahmen
  6
ByLayer
 62
  256
370
   -1
100
AcDbLine
 10
115
 20
292
 11
115
 21
287
  0
MTEXT
  5
9B
100
AcDbEntity
  8
Rahmen
  6
ByLayer
 62
  256
370
   -1
100
AcDbMText
 10
90
 20
289.5
 30
0
 40
3.5
 41
1.555555555555556
 71
    5
 72
    1
  1
2
  7
standard
210
0
220
0
230
1
 50
0
 73
    2
 44
1
  0
MTEXT
  5
9C
100
AcDbEntity
  8
Rahmen
  6
ByLayer
 62
  256
370
   -1
100
AcDbMText
 10
140
 20
289.5
 30
0
 40
3.5
 41
1.555555555555773
 71
    5
 72
    1
  1
3
  7
standard
210
0
220
0
230
1
 50
0
 73
    2
 44
1
  0
MTEXT
  5
9D
100
AcDbEntity
  8
Rahmen
  6
ByLayer
 62
  256
370
   -1
100
AcDbMText
 10
239.5
 20
289.5
 30
0
 40
3.5
 41
1.555555555555773
 71
    5
 72
    1
  1
5
  7
standard
210
0
220
0
230
1
 50
0
 73
    2
 44
1
  0
MTEXT
  5
9E
100
AcDbEntity
  8
Rahmen
  6
ByLayer
 62
  256
370
   -1
100
AcDbMText
 10
190.5
 20
289.5
 30
0
 40
3.5
 41
1.944444444444444
 71
    5
 72
    1
  1
4
  7
standard
210
0
220
0
230
1
 50
0
 73
    2
 44
1
  0
MTEXT
  5
9F
100
AcDbEntity
  8
Rahmen
  6
ByLayer
 62
  256
370
   -1
100
AcDbMText
 10
290
 20
289.5
 30
0
 40
3.5
 41
1.555555555555773
 71
    5
 72
    1
  1
6
  7
standard
210
0
220
0
230
1
 50
0
 73
    2
 44
1
  0
MTEXT
  5
A0
100
AcDbEntity
  8
Rahmen
  6
ByLayer
 62
  256
370
   -1
100
AcDbMText
 10
340
 20
289.5
 30
0
 40
3.5
 41
1.555555555555556
 71
    5
 72
    1
  1
7
  7
standard
210
0
220
0
230
1
 50
0
 73
    2
 44
1
  0
MTEXT
  5
A1
100
AcDbEntity
  8
Rahmen
  6
ByLayer
 62
  256
370
   -1
100
AcDbMText
 10
90
 20
7.500000000000009
 30
0
 40
3.5
 41
1.555555555555556
 71
    5
 72
    1
  1
2
  7
standard
210
0
220
0
230
1
 50
0
 73
    2
 44
1
  0
MTEXT
  5
A2
100
AcDbEntity
  8
Rahmen
  6
ByLayer
 62
  256
370
   -1
100
AcDbMText
 10
140
 20
7.499999999999994
 30
0
 40
3.5
 41
1.555555555555773
 71
    5
 72
    1
  1
3
  7
standard
210
0
220
0
230
1
 50
0
 73
    2
 44
1
  0
MTEXT
  5
A3
100
AcDbEntity
  8
Rahmen
  6
ByLayer
 62
  256
370
   -1
100
AcDbMText
 10
187.5
 20
7.499999999999994
 30
0
 40
3.5
 41
1.944444444444444
 71
    5
 72
    1
  1
4
  7
standard
210
0
220
0
230
1
 50
0
 73
    2
 44
1
  0
LINE
  5
A4
100
AcDbEntity
  8
Rahmen
  6
ByLayer
 62
  256
370
   -1
100
AcDbLine
 10
165
 20
10
 11
165
 21
5
  0
LINE
  5
A5
100
AcDbEntity
  8
Rahmen
  6
ByLayer
 62
  256
370
   -1
100
AcDbLine
 10
115
 20
10
 11
115
 21
5
  0
LINE
  5
A6
100
AcDbEntity
  8
Rahmen
  6
ByLayer
 62
  256
370
   -1
100
AcDbLine
 10
65
 20
10
 11
65
 21
5
  0
LINE
  5
A7
100
AcDbEntity
  8
Rahmen
  6
ByLayer
 62
  256
370
   -1
100
AcDbLine
 10
265
 20
10
 11
265
 21
5
  0
LINE
  5
A8
100
AcDbEntity
  8
Rahmen
  6
ByLayer
 62
  256
370
   -1
100
AcDbLine
 10
315
 20
10
 11
315
 21
5
  0
LINE
  5
A9
100
AcDbEntity
  8
Rahmen
  6
ByLayer
 62
  256
370
   -1
100
AcDbLine
 10
365
 20
10
 11
365
 21
5
  0
MTEXT
  5
AA
100
AcDbEntity
  8
Rahmen
  6
ByLayer
 62
  256
370
   -1
100
AcDbMText
 10
239.5
 20
7.5
 30
0
 40
3.5
 41
1.555555555555773
 71
    5
 72
    1
  1
5
  7
standard
210
0
220
0
230
1
 50
0
 73
    2
 44
1
  0
MTEXT
  5
AB
100
AcDbEntity
  8
Rahmen
  6
ByLayer
 62
  256
370
   -1
100
AcDbMText
 10
290
 20
7.5
 30
0
 40
3.5
 41
1.555555555555773
 71
    5
 72
    1
  1
6
  7
standard
210
0
220
0
230
1
 50
0
 73
    2
 44
1
  0
MTEXT
  5
AC
100
AcDbEntity
  8
Rahmen
  6
ByLayer
 62
  256
370
   -1
100
AcDbMText
 10
340
 20
7.5
 30
0
 40
3.5
 41
1.555555555555556
 71
    5
 72
    1
  1
7
  7
standard
210
0
220
0
230
1
 50
0
 73
    2
 44
1
  0
MTEXT
  5
AD
100
AcDbEntity
  8
Rahmen
  6
ByLayer
 62
  256
370
   -1
100
AcDbMText
 10
412.5
 20
223.5
 30
0
 40
3.5
 41
1.944444444444444
 71
    5
 72
    1
  1
B
  7
standard
210
0
220
0
230
1
 50
0
 73
    2
 44
1
  0
MTEXT
  5
AE
100
AcDbEntity
  8
Rahmen
  6
ByLayer
 62
  256
370
   -1
100
AcDbMText
 10
412.5
 20
173.5
 30
0
 40
3.5
 41
1.555555555555773
 71
    5
 72
    1
  1
C
  7
standard
210
0
220
0
230
1
 50
0
 73
    2
 44
1
  0
MTEXT
  5
AF
100
AcDbEntity
  8
Rahmen
  6
ByLayer
 62
  256
370
   -1
100
AcDbMText
 10
412.5
 20
123.5
 30
0
 40
3.5
 41
1.944444444444662
 71
    5
 72
    1
  1
D
  7
standard
210
0
220
0
230
1
 50
0
 73
    2
 44
1
  0
MTEXT
  5
B0
100
AcDbEntity
  8
Rahmen
  6
ByLayer
 62
  256
370
   -1
100
AcDbMText
 10
412.5
 20
73.5
 30
0
 40
3.5
 41
1.555555555555556
 71
    5
 72
    1
  1
E
  7
standard
210
0
220
0
230
1
 50
0
 73
    2
 44
1
  0
MTEXT
  5
B1
100
AcDbEntity
  8
Rahmen
  6
ByLayer
 62
  256
370
   -1
100
AcDbMText
 10
412.5
 20
270.25
 30
0
 40
3.5
 41
2.333333333333333
 71
    5
 72
    1
  1
A
  7
standard
210
0
220
0
230
1
 50
0
 73
    2
 44
1
  0
MTEXT
  5
B2
100
AcDbEntity
  8
Rahmen
  6
ByLayer
 62
  256
370
   -1
100
AcDbMText
 10
412.5
 20
26.75
 30
0
 40
3.5
 41
1.555555555555556
 71
    5
 72
    1
  1
F
  7
standard
210
0
220
0
230
1
 50
0
 73
    2
 44
1
  0
LINE
  5
B3
100
AcDbEntity
  8
Rahmen
  6
ByLayer
 62
  256
370
   -1
100
AcDbLine
 10
410
 20
248.5
 11
415
 21
248.5
  0
LINE
  5
B4
100
AcDbEntity
  8
Rahmen
  6
ByLayer
 62
  256
370
   -1
100
AcDbLine
 10
410
 20
198.5
 11
415
 21
198.5
  0
LINE
  5
B5
100
AcDbEntity
  8
Rahmen
  6
ByLayer
 62
  256
370
   -1
100
AcDbLine
 10
405
 20
148.5
 11
415
 21
148.5
  0
LINE
  5
B6
100
AcDbEntity
  8
Rahmen
  6
ByLayer
 62
  256
370
   -1
100
AcDbLine
 10
410
 20
98.5
 11
415
 21
98.5
  0
LINE
  5
B7
100
AcDbEntity
  8
Rahmen
  6
ByLayer
 62
  256
370
   -1
100
AcDbLine
 10
410
 20
48.5
 11
415
 21
48.5
  0
LWPOLYLINE
  5
B8
100
AcDbEntity
  8
Rahmen
  6
ByLayer
 62
  256
370
   -1
100
AcDbPolyline
 90
    4
 70
    1
 43
0
 10
15
 20
292
 10
15
 20
5
 10
415.00000002
 20
5
 10
415.00000002
 20
292
  0
LWPOLYLINE
  5
B9
100
AcDbEntity
  8
Rahmen
  6
ByLayer
 62
  256
370
    0
100
AcDbPolyline
 90
    4
 70
    1
 43
0
 10
0
 20
0
 10
420
 20
0
 10
420
 20
297
 10
0
 20
297
  0
MTEXT
  5
BA
100
AcDbEntity
  8
Rahmen
  6
ByLayer
 62
  256
370
   -1
100
AcDbMText
 10
40.5
 20
7.5
 30
0
 40
3.5
 41
0.7777777777777778
 71
    5
 72
    1
  1
1
  7
standard
210
0
220
0
230
1
 50
0
 73
    2
 44
1
  0
MTEXT
  5
BB
100
AcDbEntity
  8
Rahmen
  6
ByLayer
 62
  256
370
   -1
100
AcDbMText
 10
40.5
 20
289.5
 30
0
 40
3.5
 41
0.7777777777777778
 71
    5
 72
    1
  1
1
  7
standard
210
0
220
0
230
1
 50
0
 73
    2
 44
1
  0
MTEXT
  5
BC
100
AcDbEntity
  8
Rahmen
  6
ByLayer
 62
  256
370
   -1
100
AcDbMText
 10
390.5
 20
289.5
 30
0
 40
3.5
 41
1.555555555555556
 71
    5
 72
    1
  1
8
  7
standard
210
0
220
0
230
1
 50
0
 73
    2
 44
1
  0
MTEXT
  5
BD
100
AcDbEntity
  8
Rahmen
  6
ByLayer
 62
  256
370
   -1
100
AcDbMText
 10
390.5
 20
7.5
 30
0
 40
3.5
 41
1.555555555555556
 71
    5
 72
    1
  1
8
  7
standard
210
0
220
0
230
1
 50
0
 73
    2
 44
1
  0
LINE
  5
BE
100
AcDbEntity
  8
Rahmen
  6
ByLayer
 62
  256
370
   -1
100
AcDbLine
 10
215
 20
292
 11
215
 21
282
  0
LINE
  5
BF
100
AcDbEntity
  8
Rahmen
  6
ByLayer
 62
  256
370
   -1
100
AcDbLine
 10
215
 20
15
 11
215
 21
5
  0
LWPOLYLINE
  5
C0
100
AcDbEntity
  8
Rahmen
  6
ByLayer
 62
  256
370
   70
100
AcDbPolyline
 90
    4
 70
    1
 43
0
 10
20
 20
287
 10
20
 20
10
 10
410.00000006
 20
10
 10
410.00000006
 20
287
  0
MTEXT
  5
C1
100
AcDbEntity
  8
Schriftfeld-Text
  6
ByLayer
 62
  256
370
   -1
100
AcDbMText
 10
372
 20
12
 30
0
 40
3
 41
19.33333333333333
 71
    7
 72
    1
  1
15.09.2024
  7
unicode
210
0
220
0
230
1
 50
0
 73
    2
 44
1
  0
CIRCLE
  5
C2
100
AcDbEntity
  8
Rahmen
  6
ByLayer
 62
    9
370
   13
100
AcDbCircle
 10
11
 20
268.5
 40
2.75
  0
CIRCLE
  5
C3
100
AcDbEntity
  8
Rahmen
  6
ByLayer
 62
    9
370
   13
100
AcDbCircle
 10
11
 20
188.5
 40
2.75
  0
CIRCLE
  5
C4
100
AcDbEntity
  8
Rahmen
  6
ByLayer
 62
    9
370
   13
100
AcDbCircle
 10
11
 20
108.5
 40
2.75
  0
CIRCLE
  5
C5
100
AcDbEntity
  8
Rahmen
  6
ByLayer
 62
    9
370
   13
100
AcDbCircle
 10
11
 20
28.5
 40
2.75
  0
LINE
  5
C6
100
AcDbEntity
  8
Rahmen
  6
ByLayer
 62
  256
370
   -1
100
AcDbLine
 10
125
 20
0
 11
125
 21
5
  0
LINE
  5
C7
100
AcDbEntity
  8
Rahmen
  6
ByLayer
 62
  256
370
   -1
100
AcDbLine
 10
230
 20
0
 11
230
 21
5
  0
LINE
  5
C8
100
AcDbEntity
  8
Rahmen
  6
ByLayer
 62
  256
370
   -1
100
AcDbLine
 10
230
 20
292
 11
230
 21
297
  0
LINE
  5
C9
100
AcDbEntity
  8
Rahmen
  6
ByLayer
 62
  256
370
   -1
100
AcDbLine
 10
125
 20
292
 11
125
 21
297
  0
MTEXT
  5
CA
100
AcDbEntity
  8
Schriftfeld-Text
  6
ByLayer
 62
  256
370
   -1
100
AcDbMText
 10
292
 20
34
 30
0
 40
2.8
 41
1.866666666666667
 71
    7
 72
    1
  1
...
  7
unicode
210
0
220
0
230
1
 50
0
 73
    2
 44
1
  0
ENDSEC
  0
SECTION
  2
OBJECTS
  0
DICTIONARY
  5
C
330
0
100
AcDbDictionary
281
    1
  3
ACAD_GROUP
350
D
  0
DICTIONARY
  5
D
330
C
100
AcDbDictionary
281
    1
  0
PLOTSETTINGS
  5
CB
100
AcDbPlotSettings
  6
1x1
 40
0
 41
0
 42
0
 43
0
  0
ENDSEC
  0
EOF
