999
dxfrw 0.6.3
  0
SECTION
  2
HEADER
  9
$ACADVER
  1
AC1021
  9
$DWGCODEPAGE
  3
ANSI_1252
  9
$INSBASE
 10
0
 20
0
 30
0
  9
$EXTMIN
 10
1.868983330912073
 20
0.626892980815569
 30
0
  9
$EXTMAX
 10
145.4443933309121
 20
21.09208109444808
 30
0
  9
$LIMMIN
 10
0
 20
0
  9
$LIMMAX
 10
420
 20
297
  9
$ORTHOMODE
 70
    0
  9
$REGENMODE
 70
    1
  9
$FILLMODE
 70
    1
  9
$QTEXTMODE
 70
    0
  9
$MIRRTEXT
 70
    0
  9
$LTSCALE
 40
1
  9
$ATTMODE
 70
    0
  9
$TEXTSIZE
 40
2.5
  9
$TRACEWID
 40
15.68
  9
$TEXTSTYLE
  7
STANDARD
  9
$CLAYER
  8
0
  9
$CELTYPE
  6
BYLAYER
  9
$CECOLOR
 62
  256
  9
$CELTSCALE
 40
1
  9
$DISPSILH
 70
    0
  9
$DIMSCALE
 40
2.5
  9
$DIMASZ
 40
2.5
  9
$DIMEXO
 40
0.625
  9
$DIMDLI
 40
3.75
  9
$DIMRND
 40
0
  9
$DIMDLE
 40
0
  9
$DIMEXE
 40
1.25
  9
$DIMTP
 40
0
  9
$DIMTM
 40
0
  9
$DIMTXT
 40
2.5
  9
$DIMCEN
 40
2.5
  9
$DIMTSZ
 40
0
  9
$DIMTOL
 70
    0
  9
$DIMLIM
 70
    0
  9
$DIMTIH
 70
    0
  9
$DIMTOH
 70
    0
  9
$DIMSE1
 70
    0
  9
$DIMSE2
 70
    0
  9
$DIMTAD
 70
    1
  9
$DIMZIN
 70
    8
  9
$DIMBLK
  1

  9
$DIMASO
 70
    1
  9
$DIMSHO
 70
    1
  9
$DIMPOST
  1

  9
$DIMAPOST
  1

  9
$DIMALT
 70
    0
  9
$DIMALTD
 70
    3
  9
$DIMALTF
 40
0.03937
  9
$DIMLFAC
 40
1
  9
$DIMTOFL
 70
    1
  9
$DIMTVP
 40
0
  9
$DIMTIX
 70
    0
  9
$DIMSOXD
 70
    0
  9
$DIMSAH
 70
    0
  9
$DIMBLK1
  1

  9
$DIMBLK2
  1

  9
$DIMSTYLE
  2
Standard
  9
$DIMCLRD
 70
    0
  9
$DIMCLRE
 70
    0
  9
$DIMCLRT
 70
    0
  9
$DIMTFAC
 40
1
  9
$DIMGAP
 40
0.625
  9
$DIMJUST
 70
    0
  9
$DIMSD1
 70
    0
  9
$DIMSD2
 70
    0
  9
$DIMTOLJ
 70
    0
  9
$DIMTZIN
 70
    8
  9
$DIMALTZ
 70
    0
  9
$DIMALTTZ
 70
    0
  9
$DIMUPT
 70
    0
  9
$DIMDEC
 70
    4
  9
$DIMTDEC
 70
    2
  9
$DIMALTU
 70
    2
  9
$DIMALTTD
 70
    3
  9
$DIMTXSTY
  7
STANDARD
  9
$DIMAUNIT
 70
    0
  9
$DIMADEC
 70
    0
  9
$DIMALTRND
 40
0
  9
$DIMAZIN
 70
    0
  9
$DIMDSEP
 70
   44
  9
$DIMATFIT
 70
    3
  9
$DIMFRAC
 70
    0
  9
$DIMLDRBLK
  1
STANDARD
  9
$DIMLUNIT
 70
    2
  9
$DIMLWD
 70
   -2
  9
$DIMLWE
 70
   -2
  9
$DIMTMOVE
 70
    0
  9
$DIMFXL
 40
1
  9
$DIMFXLON
 70
    0
  9
$DIMJOGANG
 40
0.7854
  9
$DIMTFILL
 70
    0
  9
$DIMTFILLCLR
 70
    0
  9
$DIMARCSYM
 70
    0
  9
$DIMLTYPE
  6

  9
$DIMLTEX1
  6

  9
$DIMLTEX2
  6

  9
$LUNITS
 70
    2
  9
$LUPREC
 70
    4
  9
$SKETCHINC
 40
1
  9
$FILLETRAD
 40
0
  9
$AUNITS
 70
    0
  9
$AUPREC
 70
    2
  9
$MENU
  1
.
  9
$ELEVATION
 40
0
  9
$PELEVATION
 40
0
  9
$THICKNESS
 40
0
  9
$LIMCHECK
 70
    0
  9
$CHAMFERA
 40
0
  9
$CHAMFERB
 40
0
  9
$CHAMFERC
 40
0
  9
$CHAMFERD
 40
0
  9
$SKPOLY
 70
    0
  9
$USRTIMER
 70
    1
  9
$ANGBASE
 50
0
  9
$ANGDIR
 70
    0
  9
$PDMODE
 70
   96
  9
$PDSIZE
 40
-2
  9
$PLINEWID
 40
0
  9
$SPLFRAME
 70
    0
  9
$SPLINETYPE
 70
    2
  9
$SPLINESEGS
 70
    8
  9
$HANDSEED
  5
20000
  9
$SURFTAB1
 70
    6
  9
$SURFTAB2
 70
    6
  9
$SURFTYPE
 70
    6
  9
$SURFU
 70
    6
  9
$SURFV
 70
    6
  9
$UCSBASE
  2

  9
$UCSNAME
  2

  9
$UCSORG
 10
0
 20
0
 30
0
  9
$UCSXDIR
 10
1
 20
0
 30
0
  9
$UCSYDIR
 10
0
 20
1
 30
0
  9
$UCSORTHOREF
  2

  9
$UCSORTHOVIEW
 70
    0
  9
$UCSORGTOP
 10
0
 20
0
 30
0
  9
$UCSORGBOTTOM
 10
0
 20
0
 30
0
  9
$UCSORGLEFT
 10
0
 20
0
 30
0
  9
$UCSORGRIGHT
 10
0
 20
0
 30
0
  9
$UCSORGFRONT
 10
0
 20
0
 30
0
  9
$UCSORGBACK
 10
0
 20
0
 30
0
  9
$PUCSBASE
  2

  9
$PUCSNAME
  2

  9
$PUCSORG
 10
0
 20
0
 30
0
  9
$PUCSXDIR
 10
1
 20
0
 30
0
  9
$PUCSYDIR
 10
0
 20
1
 30
0
  9
$PUCSORTHOREF
  2

  9
$PUCSORTHOVIEW
 70
    0
  9
$PUCSORGTOP
 10
0
 20
0
 30
0
  9
$PUCSORGBOTTOM
 10
0
 20
0
 30
0
  9
$PUCSORGLEFT
 10
0
 20
0
 30
0
  9
$PUCSORGRIGHT
 10
0
 20
0
 30
0
  9
$PUCSORGFRONT
 10
0
 20
0
 30
0
  9
$PUCSORGBACK
 10
0
 20
0
 30
0
  9
$USERI1
 70
    0
  9
$USERI2
 70
    0
  9
$USERI3
 70
    0
  9
$USERI4
 70
    0
  9
$USERI5
 70
    0
  9
$USERR1
 40
0
  9
$USERR2
 40
0
  9
$USERR3
 40
0
  9
$USERR4
 40
0
  9
$USERR5
 40
0
  9
$WORLDVIEW
 70
    1
  9
$SHADEDGE
 70
    3
  9
$SHADEDIF
 70
   70
  9
$TILEMODE
 70
    1
  9
$MAXACTVP
 70
   64
  9
$PINSBASE
 10
-2.733661004287122
 20
132.6164146569201
 30
0
  9
$PLIMCHECK
 70
    0
  9
$PEXTMIN
 10
0
 20
0
 30
0
  9
$PEXTMAX
 10
0
 20
0
 30
0
  9
$GRIDMODE
 70
    1
  9
$SNAPSTYLE
 70
    0
  9
$PLIMMIN
 10
0
 20
0
  9
$PLIMMAX
 10
210
 20
297
  9
$UNITMODE
 70
    0
  9
$VISRETAIN
 70
    1
  9
$PLINEGEN
 70
    0
  9
$PSLTSCALE
 70
    1
  9
$TREEDEPTH
 70
 3020
  9
$CMLSTYLE
  2
Standard
  9
$CMLJUST
 70
    0
  9
$CMLSCALE
 40
20
  9
$PROXYGRAPHICS
 70
    1
  9
$MEASUREMENT
 70
    1
  9
$CELWEIGHT
370
   -1
  9
$ENDCAPS
280
    0
  9
$JOINSTYLE
280
    0
  9
$LWDISPLAY
290
    0
  9
$INSUNITS
 70
    4
  9
$HYPERLINKBASE
  1

  9
$STYLESHEET
  1

  9
$XEDIT
290
    1
  9
$CEPSNTYPE
380
    0
  9
$PSTYLEMODE
290
    1
  9
$EXTNAMES
290
    1
  9
$PSVPSCALE
 40
1.462646006025684
  9
$OLESTARTUP
290
    0
  9
$SORTENTS
280
  127
  9
$INDEXCTL
280
    0
  9
$HIDETEXT
280
    1
  9
$XCLIPFRAME
290
    0
  9
$HALOGAP
280
    0
  9
$OBSCOLOR
 70
  257
  9
$OBSLTYPE
280
    0
  9
$INTERSECTIONDISPLAY
280
    0
  9
$INTERSECTIONCOLOR
 70
  257
  9
$DIMASSOC
280
    1
  9
$PROJECTNAME
  1

  9
$CAMERADISPLAY
290
    0
  9
$LENSLENGTH
 40
50
  9
$CAMERAHEIGHT
 40
0
  9
$STEPSPERSEC
 40
2
  9
$STEPSIZE
 40
50
  9
$3DDWFPREC
 40
2
  9
$PSOLWIDTH
 40
5
  9
$PSOLHEIGHT
 40
80
  9
$LOFTANG1
 40
1.570796326794897
  9
$LOFTANG2
 40
1.570796326794897
  9
$LOFTMAG1
 40
0
  9
$LOFTMAG2
 40
0
  9
$LOFTPARAM
 70
    7
  9
$LOFTNORMALS
280
    1
  9
$LATITUDE
 40
1
  9
$LONGITUDE
 40
1
  9
$NORTHDIRECTION
 40
0
  9
$TIMEZONE
 70
-8000
  9
$LIGHTGLYPHDISPLAY
280
    1
  9
$TILEMODELIGHTSYNCH
280
    1
  9
$SOLIDHIST
280
    1
  9
$SHOWHIST
280
    1
  9
$DWFFRAME
280
    2
  9
$DGNFRAME
280
    0
  9
$REALWORLDSCALE
290
    1
  9
$INTERFERECOLOR
 62
    1
  9
$CSHADOW
280
    0
  9
$SHADOWPLANELOCATION
 40
0
  0
ENDSEC
  0
SECTION
  2
CLASSES
  0
ENDSEC
  0
SECTION
  2
TABLES
  0
TABLE
  2
VPORT
  5
8
330
0
100
AcDbSymbolTable
 70
    1
  0
VPORT
  5
31
330
2
100
AcDbSymbolTableRecord
100
AcDbViewportTableRecord
  2
*ACTIVE
 70
    0
 10
0
 20
0
 11
1
 21
1
 12
249.5565203538181
 22
267.7391447876118
 13
0
 23
0
 14
10
 24
10
 15
10
 25
10
 16
0
 26
0
 36
1
 17
0
 27
0
 37
0
 40
573.6618008861903
 41
1.748019017432647
 42
50
 43
0
 44
0
 50
0
 51
0
 71
    0
 72
  100
 73
    1
 74
    3
 75
    0
 76
    1
 77
    0
 78
    0
281
    0
 65
    1
110
0
120
0
130
0
111
1
121
0
131
0
112
0
122
1
132
0
 79
    0
146
0
348
10020
 60
    7
 61
    5
292
1
282
    1
141
0
142
0
 63
  250
421
3358443
  0
ENDTAB
  0
TABLE
  2
LTYPE
  5
5
330
0
100
AcDbSymbolTable
 70
    4
  0
LTYPE
  5
14
330
5
100
AcDbSymbolTableRecord
100
AcDbLinetypeTableRecord
  2
ByBlock
 70
    0
  3

 72
   65
 73
    0
 40
0
  0
LTYPE
  5
15
330
5
100
AcDbSymbolTableRecord
100
AcDbLinetypeTableRecord
  2
ByLayer
 70
    0
  3

 72
   65
 73
    0
 40
0
  0
LTYPE
  5
16
330
5
100
AcDbSymbolTableRecord
100
AcDbLinetypeTableRecord
  2
Continuous
 70
    0
  3
Solid line
 72
   65
 73
    0
 40
0
  0
LTYPE
  5
32
330
5
100
AcDbSymbolTableRecord
100
AcDbLinetypeTableRecord
  2
DOT
 70
    0
  3
Dot . . . . . . . . . . . . . . . . . . . . . .
 72
   65
 73
    2
 40
6.35
 49
0
 74
    0
 49
-6.35
 74
    0
  0
LTYPE
  5
33
330
5
100
AcDbSymbolTableRecord
100
AcDbLinetypeTableRecord
  2
DOTTINY
 70
    0
  3
Dot (.15x) .....................................
 72
   65
 73
    2
 40
0.9525
 49
0
 74
    0
 49
-0.9525
 74
    0
  0
LTYPE
  5
34
330
5
100
AcDbSymbolTableRecord
100
AcDbLinetypeTableRecord
  2
DOT2
 70
    0
  3
Dot (.5x) .....................................
 72
   65
 73
    2
 40
3.175
 49
0
 74
    0
 49
-3.175
 74
    0
  0
LTYPE
  5
35
330
5
100
AcDbSymbolTableRecord
100
AcDbLinetypeTableRecord
  2
DOTX2
 70
    0
  3
Dot (2x) .  .  .  .  .  .  .  .  .  .  .  .  .
 72
   65
 73
    2
 40
12.7
 49
0
 74
    0
 49
-12.7
 74
    0
  0
LTYPE
  5
36
330
5
100
AcDbSymbolTableRecord
100
AcDbLinetypeTableRecord
  2
DASHED
 70
    0
  3
Dashed _ _ _ _ _ _ _ _ _ _ _ _ _ _ _ _ _
 72
   65
 73
    2
 40
19.05
 49
12.7
 74
    0
 49
-6.35
 74
    0
  0
LTYPE
  5
37
330
5
100
AcDbSymbolTableRecord
100
AcDbLinetypeTableRecord
  2
DASHEDTINY
 70
    0
  3
Dashed (.15x) _ _ _ _ _ _ _ _ _ _ _ _ _ _ _ _ _
 72
   65
 73
    2
 40
2.8575
 49
1.905
 74
    0
 49
-0.9525
 74
    0
  0
LTYPE
  5
38
330
5
100
AcDbSymbolTableRecord
100
AcDbLinetypeTableRecord
  2
DASHED2
 70
    0
  3
Dashed (.5x) _ _ _ _ _ _ _ _ _ _ _ _ _ _ _ _ _
 72
   65
 73
    2
 40
9.524999999999999
 49
6.35
 74
    0
 49
-3.175
 74
    0
  0
LTYPE
  5
39
330
5
100
AcDbSymbolTableRecord
100
AcDbLinetypeTableRecord
  2
DASHEDX2
 70
    0
  3
Dashed (2x) ____  ____  ____  ____  ____  ___
 72
   65
 73
    2
 40
38.09999999999999
 49
25.4
 74
    0
 49
-12.7
 74
    0
  0
LTYPE
  5
3A
330
5
100
AcDbSymbolTableRecord
100
AcDbLinetypeTableRecord
  2
DASHDOT
 70
    0
  3
Dash dot __ . __ . __ . __ . __ . __ . __ . __
 72
   65
 73
    4
 40
25.4
 49
12.7
 74
    0
 49
-6.35
 74
    0
 49
0
 74
    0
 49
-6.35
 74
    0
  0
LTYPE
  5
3B
330
5
100
AcDbSymbolTableRecord
100
AcDbLinetypeTableRecord
  2
DASHDOTTINY
 70
    0
  3
Dash dot (.15x) _._._._._._._._._._._._._._._.
 72
   65
 73
    4
 40
3.81
 49
1.905
 74
    0
 49
-0.9525
 74
    0
 49
0
 74
    0
 49
-0.9525
 74
    0
  0
LTYPE
  5
3C
330
5
100
AcDbSymbolTableRecord
100
AcDbLinetypeTableRecord
  2
DASHDOT2
 70
    0
  3
Dash dot (.5x) _._._._._._._._._._._._._._._.
 72
   65
 73
    4
 40
12.7
 49
6.35
 74
    0
 49
-3.175
 74
    0
 49
0
 74
    0
 49
-3.175
 74
    0
  0
LTYPE
  5
3D
330
5
100
AcDbSymbolTableRecord
100
AcDbLinetypeTableRecord
  2
DASHDOTX2
 70
    0
  3
Dash dot (2x) ____  .  ____  .  ____  .  ___
 72
   65
 73
    4
 40
50.8
 49
25.4
 74
    0
 49
-12.7
 74
    0
 49
0
 74
    0
 49
-12.7
 74
    0
  0
LTYPE
  5
3E
330
5
100
AcDbSymbolTableRecord
100
AcDbLinetypeTableRecord
  2
DIVIDE
 70
    0
  3
Divide ____ . . ____ . . ____ . . ____ . . ____
 72
   65
 73
    6
 40
31.75
 49
12.7
 74
    0
 49
-6.35
 74
    0
 49
0
 74
    0
 49
-6.35
 74
    0
 49
0
 74
    0
 49
-6.35
 74
    0
  0
LTYPE
  5
3F
330
5
100
AcDbSymbolTableRecord
100
AcDbLinetypeTableRecord
  2
DIVIDETINY
 70
    0
  3
Divide (.15x) __..__..__..__..__..__..__..__.._
 72
   65
 73
    6
 40
4.7625
 49
1.905
 74
    0
 49
-0.9525
 74
    0
 49
0
 74
    0
 49
-0.9525
 74
    0
 49
0
 74
    0
 49
-0.9525
 74
    0
  0
LTYPE
  5
40
330
5
100
AcDbSymbolTableRecord
100
AcDbLinetypeTableRecord
  2
DIVIDE2
 70
    0
  3
Divide (.5x) __..__..__..__..__..__..__..__.._
 72
   65
 73
    6
 40
15.875
 49
6.35
 74
    0
 49
-3.175
 74
    0
 49
0
 74
    0
 49
-3.175
 74
    0
 49
0
 74
    0
 49
-3.175
 74
    0
  0
LTYPE
  5
41
330
5
100
AcDbSymbolTableRecord
100
AcDbLinetypeTableRecord
  2
DIVIDEX2
 70
    0
  3
Divide (2x) ________  .  .  ________  .  .  _
 72
   65
 73
    6
 40
63.5
 49
25.4
 74
    0
 49
-12.7
 74
    0
 49
0
 74
    0
 49
-12.7
 74
    0
 49
0
 74
    0
 49
-12.7
 74
    0
  0
LTYPE
  5
42
330
5
100
AcDbSymbolTableRecord
100
AcDbLinetypeTableRecord
  2
BORDER
 70
    0
  3
Border __ __ . __ __ . __ __ . __ __ . __ __ .
 72
   65
 73
    6
 40
44.45
 49
12.7
 74
    0
 49
-6.35
 74
    0
 49
12.7
 74
    0
 49
-6.35
 74
    0
 49
0
 74
    0
 49
-6.35
 74
    0
  0
LTYPE
  5
43
330
5
100
AcDbSymbolTableRecord
100
AcDbLinetypeTableRecord
  2
BORDERTINY
 70
    0
  3
Border (.15x) __.__.__.__.__.__.__.__.__.__.__.
 72
   65
 73
    6
 40
6.6675
 49
1.905
 74
    0
 49
-0.9525
 74
    0
 49
1.905
 74
    0
 49
-0.9525
 74
    0
 49
0
 74
    0
 49
-0.9525
 74
    0
  0
LTYPE
  5
44
330
5
100
AcDbSymbolTableRecord
100
AcDbLinetypeTableRecord
  2
BORDER2
 70
    0
  3
Border (.5x) __.__.__.__.__.__.__.__.__.__.__.
 72
   65
 73
    6
 40
22.225
 49
6.35
 74
    0
 49
-3.175
 74
    0
 49
6.35
 74
    0
 49
-3.175
 74
    0
 49
0
 74
    0
 49
-3.175
 74
    0
  0
LTYPE
  5
45
330
5
100
AcDbSymbolTableRecord
100
AcDbLinetypeTableRecord
  2
BORDERX2
 70
    0
  3
Border (2x) ____  ____  .  ____  ____  .  ___
 72
   65
 73
    6
 40
88.89999999999999
 49
25.4
 74
    0
 49
-12.7
 74
    0
 49
25.4
 74
    0
 49
-12.7
 74
    0
 49
0
 74
    0
 49
-12.7
 74
    0
  0
LTYPE
  5
46
330
5
100
AcDbSymbolTableRecord
100
AcDbLinetypeTableRecord
  2
CENTER
 70
    0
  3
Center ____ _ ____ _ ____ _ ____ _ ____ _ ____
 72
   65
 73
    4
 40
50.8
 49
31.75
 74
    0
 49
-6.35
 74
    0
 49
6.35
 74
    0
 49
-6.35
 74
    0
  0
LTYPE
  5
47
330
5
100
AcDbSymbolTableRecord
100
AcDbLinetypeTableRecord
  2
CENTERTINY
 70
    0
  3
Center (.15x) ___ _ ___ _ ___ _ ___ _ ___ _ ___
 72
   65
 73
    4
 40
7.619999999999999
 49
4.7625
 74
    0
 49
-0.9525
 74
    0
 49
0.9525
 74
    0
 49
-0.9525
 74
    0
  0
LTYPE
  5
48
330
5
100
AcDbSymbolTableRecord
100
AcDbLinetypeTableRecord
  2
CENTER2
 70
    0
  3
Center (.5x) ___ _ ___ _ ___ _ ___ _ ___ _ ___
 72
   65
 73
    4
 40
28.575
 49
19.05
 74
    0
 49
-3.175
 74
    0
 49
3.175
 74
    0
 49
-3.175
 74
    0
  0
LTYPE
  5
49
330
5
100
AcDbSymbolTableRecord
100
AcDbLinetypeTableRecord
  2
CENTERX2
 70
    0
  3
Center (2x) ________  __  ________  __  _____
 72
   65
 73
    4
 40
101.6
 49
63.5
 74
    0
 49
-12.7
 74
    0
 49
12.7
 74
    0
 49
-12.7
 74
    0
  0
ENDTAB
  0
TABLE
  2
LAYER
  5
2
330
0
100
AcDbSymbolTable
 70
    1
  0
LAYER
  5
10
330
2
100
AcDbSymbolTableRecord
100
AcDbLayerTableRecord
  2
0
 70
    0
 62
    7
  6
CONTINUOUS
370
   -3
390
F
  0
LAYER
  5
4A
330
2
100
AcDbSymbolTableRecord
100
AcDbLayerTableRecord
  2
triplex 2mm
 70
    0
 62
    7
  6
CONTINUOUS
370
    0
390
F
  0
ENDTAB
  0
TABLE
  2
STYLE
  5
3
330
0
100
AcDbSymbolTable
 70
    3
  0
STYLE
  5
4B
330
2
100
AcDbSymbolTableRecord
100
AcDbTextStyleTableRecord
  2
Standard
 70
    0
 40
0
 41
1
 50
0
 71
    0
 42
1
  3
Standard
  4

  0
STYLE
  5
4C
330
2
100
AcDbSymbolTableRecord
100
AcDbTextStyleTableRecord
  2
standard
 70
    0
 40
0
 41
1
 50
0
 71
    0
 42
1
  3
standard
  4

  0
ENDTAB
  0
TABLE
  2
VIEW
  5
6
330
0
100
AcDbSymbolTable
 70
    0
  0
ENDTAB
  0
TABLE
  2
UCS
  5
7
330
0
100
AcDbSymbolTable
 70
    0
  0
ENDTAB
  0
TABLE
  2
APPID
  5
9
330
0
100
AcDbSymbolTable
 70
    1
  0
APPID
  5
12
330
9
100
AcDbSymbolTableRecord
100
AcDbRegAppTableRecord
  2
ACAD
 70
    0
  0
APPID
  5
4D
330
9
100
AcDbSymbolTableRecord
100
AcDbRegAppTableRecord
  2
LibreCad
 70
    0
  0
ENDTAB
  0
TABLE
  2
DIMSTYLE
  5
A
330
0
100
AcDbSymbolTable
 70
    1
100
AcDbDimStyleTable
 71
    1
  0
DIMSTYLE
105
4E
330
A
100
AcDbSymbolTableRecord
100
AcDbDimStyleTableRecord
  2
Standard
 70
    0
 40
2.5
 41
2.5
 42
0.625
 43
0.38
 44
1.25
 45
0
 46
0
 47
0
 48
0
 49
1
140
2.5
141
0.09
142
0
143
25.4
144
1
145
0
146
1
147
0.625
148
0
 71
    0
 72
    0
 73
    0
 74
    1
 75
    0
 76
    0
 77
    0
 78
    8
 79
    0
170
    0
171
    2
172
    0
173
    0
174
    0
175
    0
176
    0
177
    0
178
    0
179
    0
271
    4
272
    4
273
    2
274
    2
275
    0
276
    0
277
    2
278
   44
279
    0
280
    0
281
    0
282
    0
283
    1
284
    0
285
    0
286
    0
288
    0
289
    3
340
4C
  0
ENDTAB
  0
TABLE
  2
BLOCK_RECORD
  5
1
330
0
100
AcDbSymbolTable
 70
    2
  0
BLOCK_RECORD
  5
1F
330
1
100
AcDbSymbolTableRecord
100
AcDbBlockTableRecord
  2
*Model_Space
 70
    0
280
    1
281
    0
  0
BLOCK_RECORD
  5
1E
330
1
100
AcDbSymbolTableRecord
100
AcDbBlockTableRecord
  2
*Paper_Space
 70
    0
280
    1
281
    0
  0
BLOCK_RECORD
  5
4F
330
1
100
AcDbSymbolTableRecord
100
AcDbBlockTableRecord
  2
_CLOSEDFILLED
 70
    0
280
    1
281
    0
  0
BLOCK_RECORD
  5
52
330
1
100
AcDbSymbolTableRecord
100
AcDbBlockTableRecord
  2
_CLOSEDBLANK
 70
    0
280
    1
281
    0
  0
BLOCK_RECORD
  5
55
330
1
100
AcDbSymbolTableRecord
100
AcDbBlockTableRecord
  2
_CLOSED
 70
    0
280
    1
281
    0
  0
BLOCK_RECORD
  5
58
330
1
100
AcDbSymbolTableRecord
100
AcDbBlockTableRecord
  2
_DOT
 70
    0
280
    1
281
    0
  0
BLOCK_RECORD
  5
5B
330
1
100
AcDbSymbolTableRecord
100
AcDbBlockTableRecord
  2
_ARCHTICK
 70
    0
280
    1
281
    0
  0
BLOCK_RECORD
  5
5E
330
1
100
AcDbSymbolTableRecord
100
AcDbBlockTableRecord
  2
_OBLIQUE
 70
    0
280
    1
281
    0
  0
BLOCK_RECORD
  5
61
330
1
100
AcDbSymbolTableRecord
100
AcDbBlockTableRecord
  2
_OPEN
 70
    0
280
    1
281
    0
  0
BLOCK_RECORD
  5
64
330
1
100
AcDbSymbolTableRecord
100
AcDbBlockTableRecord
  2
_ORIGIN
 70
    0
280
    1
281
    0
  0
BLOCK_RECORD
  5
67
330
1
100
AcDbSymbolTableRecord
100
AcDbBlockTableRecord
  2
_ORIGIN2
 70
    0
280
    1
281
    0
  0
BLOCK_RECORD
  5
6A
330
1
100
AcDbSymbolTableRecord
100
AcDbBlockTableRecord
  2
_OPEN90
 70
    0
280
    1
281
    0
  0
BLOCK_RECORD
  5
6D
330
1
100
AcDbSymbolTableRecord
100
AcDbBlockTableRecord
  2
_OPEN30
 70
    0
280
    1
281
    0
  0
BLOCK_RECORD
  5
70
330
1
100
AcDbSymbolTableRecord
100
AcDbBlockTableRecord
  2
_DOTSMALL
 70
    0
280
    1
281
    0
  0
BLOCK_RECORD
  5
73
330
1
100
AcDbSymbolTableRecord
100
AcDbBlockTableRecord
  2
_DOTBLANK
 70
    0
280
    1
281
    0
  0
BLOCK_RECORD
  5
76
330
1
100
AcDbSymbolTableRecord
100
AcDbBlockTableRecord
  2
_SMALL
 70
    0
280
    1
281
    0
  0
BLOCK_RECORD
  5
79
330
1
100
AcDbSymbolTableRecord
100
AcDbBlockTableRecord
  2
_BOXBLANK
 70
    0
280
    1
281
    0
  0
BLOCK_RECORD
  5
7C
330
1
100
AcDbSymbolTableRecord
100
AcDbBlockTableRecord
  2
_BOXFILLED
 70
    0
280
    1
281
    0
  0
BLOCK_RECORD
  5
7F
330
1
100
AcDbSymbolTableRecord
100
AcDbBlockTableRecord
  2
_DATUMBLANK
 70
    0
280
    1
281
    0
  0
BLOCK_RECORD
  5
82
330
1
100
AcDbSymbolTableRecord
100
AcDbBlockTableRecord
  2
_DATUMFILLED
 70
    0
280
    1
281
    0
  0
BLOCK_RECORD
  5
85
330
1
100
AcDbSymbolTableRecord
100
AcDbBlockTableRecord
  2
_INTEGRAL
 70
    0
280
    1
281
    0
  0
BLOCK_RECORD
  5
88
330
1
100
AcDbSymbolTableRecord
100
AcDbBlockTableRecord
  2
_NONE
 70
    0
280
    1
281
    0
  0
BLOCK_RECORD
  5
8B
330
1
100
AcDbSymbolTableRecord
100
AcDbBlockTableRecord
  2
*R
 70
    0
280
    1
281
    0
  0
BLOCK_RECORD
  5
8E
330
1
100
AcDbSymbolTableRecord
100
AcDbBlockTableRecord
  2
*R1
 70
    0
280
    1
281
    0
  0
BLOCK_RECORD
  5
91
330
1
100
AcDbSymbolTableRecord
100
AcDbBlockTableRecord
  2
*R2
 70
    0
280
    1
281
    0
  0
BLOCK_RECORD
  5
94
330
1
100
AcDbSymbolTableRecord
100
AcDbBlockTableRecord
  2
*R3
 70
    0
280
    1
281
    0
  0
BLOCK_RECORD
  5
97
330
1
100
AcDbSymbolTableRecord
100
AcDbBlockTableRecord
  2
*R4
 70
    0
280
    1
281
    0
  0
BLOCK_RECORD
  5
9A
330
1
100
AcDbSymbolTableRecord
100
AcDbBlockTableRecord
  2
*R5
 70
    0
280
    1
281
    0
  0
BLOCK_RECORD
  5
9D
330
1
100
AcDbSymbolTableRecord
100
AcDbBlockTableRecord
  2
*R6
 70
    0
280
    1
281
    0
  0
BLOCK_RECORD
  5
A0
330
1
100
AcDbSymbolTableRecord
100
AcDbBlockTableRecord
  2
*R7
 70
    0
280
    1
281
    0
  0
BLOCK_RECORD
  5
A3
330
1
100
AcDbSymbolTableRecord
100
AcDbBlockTableRecord
  2
*R8
 70
    0
280
    1
281
    0
  0
BLOCK_RECORD
  5
A6
330
1
100
AcDbSymbolTableRecord
100
AcDbBlockTableRecord
  2
*R9
 70
    0
280
    1
281
    0
  0
BLOCK_RECORD
  5
A9
330
1
100
AcDbSymbolTableRecord
100
AcDbBlockTableRecord
  2
*R10
 70
    0
280
    1
281
    0
  0
BLOCK_RECORD
  5
AC
330
1
100
AcDbSymbolTableRecord
100
AcDbBlockTableRecord
  2
*R11
 70
    0
280
    1
281
    0
  0
BLOCK_RECORD
  5
AF
330
1
100
AcDbSymbolTableRecord
100
AcDbBlockTableRecord
  2
*R12
 70
    0
280
    1
281
    0
  0
BLOCK_RECORD
  5
B2
330
1
100
AcDbSymbolTableRecord
100
AcDbBlockTableRecord
  2
*R13
 70
    0
280
    1
281
    0
  0
BLOCK_RECORD
  5
B5
330
1
100
AcDbSymbolTableRecord
100
AcDbBlockTableRecord
  2
*R14
 70
    0
280
    1
281
    0
  0
BLOCK_RECORD
  5
B8
330
1
100
AcDbSymbolTableRecord
100
AcDbBlockTableRecord
  2
*R15
 70
    0
280
    1
281
    0
  0
BLOCK_RECORD
  5
BB
330
1
100
AcDbSymbolTableRecord
100
AcDbBlockTableRecord
  2
*R16
 70
    0
280
    1
281
    0
  0
BLOCK_RECORD
  5
BE
330
1
100
AcDbSymbolTableRecord
100
AcDbBlockTableRecord
  2
*R17
 70
    0
280
    1
281
    0
  0
BLOCK_RECORD
  5
C1
330
1
100
AcDbSymbolTableRecord
100
AcDbBlockTableRecord
  2
*R18
 70
    0
280
    1
281
    0
  0
BLOCK_RECORD
  5
C4
330
1
100
AcDbSymbolTableRecord
100
AcDbBlockTableRecord
  2
*R19
 70
    0
280
    1
281
    0
  0
BLOCK_RECORD
  5
C7
330
1
100
AcDbSymbolTableRecord
100
AcDbBlockTableRecord
  2
*R20
 70
    0
280
    1
281
    0
  0
BLOCK_RECORD
  5
CA
330
1
100
AcDbSymbolTableRecord
100
AcDbBlockTableRecord
  2
*R21
 70
    0
280
    1
281
    0
  0
BLOCK_RECORD
  5
CD
330
1
100
AcDbSymbolTableRecord
100
AcDbBlockTableRecord
  2
*R22
 70
    0
280
    1
281
    0
  0
BLOCK_RECORD
  5
D0
330
1
100
AcDbSymbolTableRecord
100
AcDbBlockTableRecord
  2
*R23
 70
    0
280
    1
281
    0
  0
BLOCK_RECORD
  5
D3
330
1
100
AcDbSymbolTableRecord
100
AcDbBlockTableRecord
  2
*R24
 70
    0
280
    1
281
    0
  0
BLOCK_RECORD
  5
D6
330
1
100
AcDbSymbolTableRecord
100
AcDbBlockTableRecord
  2
*R25
 70
    0
280
    1
281
    0
  0
BLOCK_RECORD
  5
D9
330
1
100
AcDbSymbolTableRecord
100
AcDbBlockTableRecord
  2
*R26
 70
    0
280
    1
281
    0
  0
BLOCK_RECORD
  5
DC
330
1
100
AcDbSymbolTableRecord
100
AcDbBlockTableRecord
  2
*R27
 70
    0
280
    1
281
    0
  0
BLOCK_RECORD
  5
DF
330
1
100
AcDbSymbolTableRecord
100
AcDbBlockTableRecord
  2
*R28
 70
    0
280
    1
281
    0
  0
BLOCK_RECORD
  5
E2
330
1
100
AcDbSymbolTableRecord
100
AcDbBlockTableRecord
  2
*R29
 70
    0
280
    1
281
    0
  0
BLOCK_RECORD
  5
E5
330
1
100
AcDbSymbolTableRecord
100
AcDbBlockTableRecord
  2
*R30
 70
    0
280
    1
281
    0
  0
BLOCK_RECORD
  5
E8
330
1
100
AcDbSymbolTableRecord
100
AcDbBlockTableRecord
  2
*R31
 70
    0
280
    1
281
    0
  0
BLOCK_RECORD
  5
EB
330
1
100
AcDbSymbolTableRecord
100
AcDbBlockTableRecord
  2
*R32
 70
    0
280
    1
281
    0
  0
BLOCK_RECORD
  5
EE
330
1
100
AcDbSymbolTableRecord
100
AcDbBlockTableRecord
  2
*R33
 70
    0
280
    1
281
    0
  0
BLOCK_RECORD
  5
F1
330
1
100
AcDbSymbolTableRecord
100
AcDbBlockTableRecord
  2
*R34
 70
    0
280
    1
281
    0
  0
BLOCK_RECORD
  5
F4
330
1
100
AcDbSymbolTableRecord
100
AcDbBlockTableRecord
  2
*R35
 70
    0
280
    1
281
    0
  0
BLOCK_RECORD
  5
F7
330
1
100
AcDbSymbolTableRecord
100
AcDbBlockTableRecord
  2
*R36
 70
    0
280
    1
281
    0
  0
BLOCK_RECORD
  5
FA
330
1
100
AcDbSymbolTableRecord
100
AcDbBlockTableRecord
  2
*R37
 70
    0
280
    1
281
    0
  0
BLOCK_RECORD
  5
FD
330
1
100
AcDbSymbolTableRecord
100
AcDbBlockTableRecord
  2
*R38
 70
    0
280
    1
281
    0
  0
BLOCK_RECORD
  5
100
330
1
100
AcDbSymbolTableRecord
100
AcDbBlockTableRecord
  2
*R39
 70
    0
280
    1
281
    0
  0
BLOCK_RECORD
  5
103
330
1
100
AcDbSymbolTableRecord
100
AcDbBlockTableRecord
  2
*R40
 70
    0
280
    1
281
    0
  0
ENDTAB
  0
ENDSEC
  0
SECTION
  2
BLOCKS
  0
BLOCK
  5
20
330
1F
100
AcDbEntity
  8
0
100
AcDbBlockBegin
  2
*Model_Space
 70
    0
 10
0
 20
0
 30
0
  3
*Model_Space
  1

  0
ENDBLK
  5
21
330
1F
100
AcDbEntity
  8
0
100
AcDbBlockEnd
  0
BLOCK
  5
1C
330
1B
100
AcDbEntity
  8
0
100
AcDbBlockBegin
  2
*Paper_Space
 70
    0
 10
0
 20
0
 30
0
  3
*Paper_Space
  1

  0
ENDBLK
  5
1D
330
1F
100
AcDbEntity
  8
0
100
AcDbBlockEnd
  0
BLOCK
  5
50
330
4F
100
AcDbEntity
  8
0
100
AcDbBlockBegin
  2
_CLOSEDFILLED
 70
    0
 10
0
 20
0
  3
_CLOSEDFILLED
  1

  0
SOLID
  5
106
100
AcDbEntity
  8
0
  6
ByLayer
 62
  256
370
   -1
100
AcDbTrace
 10
-1
 20
0.166667
 30
0
 11
-1
 21
-0.166667
 31
0
 12
0
 22
0
 32
0
 13
0
 23
0
 33
0
  0
ENDBLK
  5
51
330
4F
100
AcDbEntity
  8
0
100
AcDbBlockEnd
  0
BLOCK
  5
53
330
52
100
AcDbEntity
  8
0
100
AcDbBlockBegin
  2
_CLOSEDBLANK
 70
    0
 10
0
 20
0
  3
_CLOSEDBLANK
  1

  0
LINE
  5
107
100
AcDbEntity
  8
0
  6
ByLayer
 62
  256
370
   -1
100
AcDbLine
 10
-1
 20
0.166667
 11
0
 21
0
  0
LINE
  5
108
100
AcDbEntity
  8
0
  6
ByLayer
 62
  256
370
   -1
100
AcDbLine
 10
0
 20
0
 11
-1
 21
-0.166667
  0
LINE
  5
109
100
AcDbEntity
  8
0
  6
ByLayer
 62
  256
370
   -1
100
AcDbLine
 10
-1
 20
0.166667
 11
-1
 21
-0.166667
  0
ENDBLK
  5
54
330
52
100
AcDbEntity
  8
0
100
AcDbBlockEnd
  0
BLOCK
  5
56
330
55
100
AcDbEntity
  8
0
100
AcDbBlockBegin
  2
_CLOSED
 70
    0
 10
0
 20
0
  3
_CLOSED
  1

  0
LINE
  5
10A
100
AcDbEntity
  8
0
  6
ByLayer
 62
  256
370
   -1
100
AcDbLine
 10
-1
 20
0.166667
 11
0
 21
0
  0
LINE
  5
10B
100
AcDbEntity
  8
0
  6
ByLayer
 62
  256
370
   -1
100
AcDbLine
 10
0
 20
0
 11
-1
 21
-0.166667
  0
LINE
  5
10C
100
AcDbEntity
  8
0
  6
ByLayer
 62
  256
370
   -1
100
AcDbLine
 10
-1
 20
0.166667
 11
-1
 21
-0.166667
  0
LINE
  5
10D
100
AcDbEntity
  8
0
  6
ByLayer
 62
  256
370
   -1
100
AcDbLine
 10
0
 20
0
 11
-1
 21
0
  0
ENDBLK
  5
57
330
55
100
AcDbEntity
  8
0
100
AcDbBlockEnd
  0
BLOCK
  5
59
330
58
100
AcDbEntity
  8
0
100
AcDbBlockBegin
  2
_DOT
 70
    0
 10
0
 20
0
  3
_DOT
  1

  0
LWPOLYLINE
  5
10E
100
AcDbEntity
  8
0
  6
ByLayer
 62
  256
370
   -1
100
AcDbPolyline
 90
    2
 70
    1
 43
0
 10
0.25
 20
5.883850840630953e-17
 42
0.9999999999999999
 10
-0.25
 20
9.543319046389229e-17
 42
0.9999999999999999
  0
LINE
  5
10F
100
AcDbEntity
  8
0
  6
ByLayer
 62
  256
370
   -1
100
AcDbLine
 10
-0.5
 20
0
 11
-1
 21
0
  0
ENDBLK
  5
5A
330
58
100
AcDbEntity
  8
0
100
AcDbBlockEnd
  0
BLOCK
  5
5C
330
5B
100
AcDbEntity
  8
0
100
AcDbBlockBegin
  2
_ARCHTICK
 70
    0
 10
0
 20
0
  3
_ARCHTICK
  1

  0
LWPOLYLINE
  5
110
100
AcDbEntity
  8
0
  6
ByLayer
 62
  256
370
   -1
100
AcDbPolyline
 90
    2
 70
    0
 43
0
 10
0.5
 20
0.5
 10
-0.5
 20
-0.5
  0
ENDBLK
  5
5D
330
5B
100
AcDbEntity
  8
0
100
AcDbBlockEnd
  0
BLOCK
  5
5F
330
5E
100
AcDbEntity
  8
0
100
AcDbBlockBegin
  2
_OBLIQUE
 70
    0
 10
0
 20
0
  3
_OBLIQUE
  1

  0
LINE
  5
111
100
AcDbEntity
  8
0
  6
ByLayer
 62
  256
370
   -1
100
AcDbLine
 10
-0.5
 20
-0.5
 11
0.5
 21
0.5
  0
ENDBLK
  5
60
330
5E
100
AcDbEntity
  8
0
100
AcDbBlockEnd
  0
BLOCK
  5
62
330
61
100
AcDbEntity
  8
0
100
AcDbBlockBegin
  2
_OPEN
 70
    0
 10
0
 20
0
  3
_OPEN
  1

  0
LINE
  5
112
100
AcDbEntity
  8
0
  6
ByLayer
 62
  256
370
   -1
100
AcDbLine
 10
-1
 20
0.166667
 11
0
 21
0
  0
LINE
  5
113
100
AcDbEntity
  8
0
  6
ByLayer
 62
  256
370
   -1
100
AcDbLine
 10
-1
 20
-0.166667
 11
0
 21
0
  0
LINE
  5
114
100
AcDbEntity
  8
0
  6
ByLayer
 62
  256
370
   -1
100
AcDbLine
 10
0
 20
0
 11
-1
 21
0
  0
ENDBLK
  5
63
330
61
100
AcDbEntity
  8
0
100
AcDbBlockEnd
  0
BLOCK
  5
65
330
64
100
AcDbEntity
  8
0
100
AcDbBlockBegin
  2
_ORIGIN
 70
    0
 10
0
 20
0
  3
_ORIGIN
  1

  0
CIRCLE
  5
115
100
AcDbEntity
  8
0
  6
ByLayer
 62
  256
370
   -1
100
AcDbCircle
 10
0
 20
0
 40
0.5
  0
LINE
  5
116
100
AcDbEntity
  8
0
  6
ByLayer
 62
  256
370
   -1
100
AcDbLine
 10
0
 20
0
 11
-1
 21
0
  0
ENDBLK
  5
66
330
64
100
AcDbEntity
  8
0
100
AcDbBlockEnd
  0
BLOCK
  5
68
330
67
100
AcDbEntity
  8
0
100
AcDbBlockBegin
  2
_ORIGIN2
 70
    0
 10
0
 20
0
  3
_ORIGIN2
  1

  0
CIRCLE
  5
117
100
AcDbEntity
  8
0
  6
ByLayer
 62
  256
370
   -1
100
AcDbCircle
 10
0
 20
0
 40
0.5
  0
CIRCLE
  5
118
100
AcDbEntity
  8
0
  6
ByLayer
 62
  256
370
   -1
100
AcDbCircle
 10
0
 20
0
 40
0.25
  0
LINE
  5
119
100
AcDbEntity
  8
0
  6
ByLayer
 62
  256
370
   -1
100
AcDbLine
 10
-0.5
 20
0
 11
-1
 21
0
  0
ENDBLK
  5
69
330
67
100
AcDbEntity
  8
0
100
AcDbBlockEnd
  0
BLOCK
  5
6B
330
6A
100
AcDbEntity
  8
0
100
AcDbBlockBegin
  2
_OPEN90
 70
    0
 10
0
 20
0
  3
_OPEN90
  1

  0
LINE
  5
11A
100
AcDbEntity
  8
0
  6
ByLayer
 62
  256
370
   -1
100
AcDbLine
 10
-0.5
 20
0.5
 11
0
 21
0
  0
LINE
  5
11B
100
AcDbEntity
  8
0
  6
ByLayer
 62
  256
370
   -1
100
AcDbLine
 10
0
 20
0
 11
-0.5
 21
-0.5
  0
LINE
  5
11C
100
AcDbEntity
  8
0
  6
ByLayer
 62
  256
370
   -1
100
AcDbLine
 10
0
 20
0
 11
-1
 21
0
  0
ENDBLK
  5
6C
330
6A
100
AcDbEntity
  8
0
100
AcDbBlockEnd
  0
BLOCK
  5
6E
330
6D
100
AcDbEntity
  8
0
100
AcDbBlockBegin
  2
_OPEN30
 70
    0
 10
0
 20
0
  3
_OPEN30
  1

  0
LINE
  5
11D
100
AcDbEntity
  8
0
  6
ByLayer
 62
  256
370
   -1
100
AcDbLine
 10
-1
 20
0.267949
 11
0
 21
0
  0
LINE
  5
11E
100
AcDbEntity
  8
0
  6
ByLayer
 62
  256
370
   -1
100
AcDbLine
 10
0
 20
0
 11
-1
 21
-0.267949
  0
LINE
  5
11F
100
AcDbEntity
  8
0
  6
ByLayer
 62
  256
370
   -1
100
AcDbLine
 10
0
 20
0
 11
-1
 21
0
  0
ENDBLK
  5
6F
330
6D
100
AcDbEntity
  8
0
100
AcDbBlockEnd
  0
BLOCK
  5
71
330
70
100
AcDbEntity
  8
0
100
AcDbBlockBegin
  2
_DOTSMALL
 70
    0
 10
0
 20
0
  3
_DOTSMALL
  1

  0
LWPOLYLINE
  5
120
100
AcDbEntity
  8
0
  6
ByLayer
 62
  256
370
   -1
100
AcDbPolyline
 90
    2
 70
    1
 43
0
 10
0.0625
 20
1.470962710157739e-17
 42
0.9999999999999999
 10
-0.0625
 20
2.385829761597308e-17
 42
0.9999999999999999
  0
ENDBLK
  5
72
330
70
100
AcDbEntity
  8
0
100
AcDbBlockEnd
  0
BLOCK
  5
74
330
73
100
AcDbEntity
  8
0
100
AcDbBlockBegin
  2
_DOTBLANK
 70
    0
 10
0
 20
0
  3
_DOTBLANK
  1

  0
CIRCLE
  5
121
100
AcDbEntity
  8
0
  6
ByLayer
 62
  256
370
   -1
100
AcDbCircle
 10
0
 20
0
 40
0.5
  0
LINE
  5
122
100
AcDbEntity
  8
0
  6
ByLayer
 62
  256
370
   -1
100
AcDbLine
 10
-0.5
 20
0
 11
-1
 21
0
  0
ENDBLK
  5
75
330
73
100
AcDbEntity
  8
0
100
AcDbBlockEnd
  0
BLOCK
  5
77
330
76
100
AcDbEntity
  8
0
100
AcDbBlockBegin
  2
_SMALL
 70
    0
 10
0
 20
0
  3
_SMALL
  1

  0
CIRCLE
  5
123
100
AcDbEntity
  8
0
  6
ByLayer
 62
  256
370
   -1
100
AcDbCircle
 10
0
 20
0
 40
0.25
  0
ENDBLK
  5
78
330
76
100
AcDbEntity
  8
0
100
AcDbBlockEnd
  0
BLOCK
  5
7A
330
79
100
AcDbEntity
  8
0
100
AcDbBlockBegin
  2
_BOXBLANK
 70
    0
 10
0
 20
0
  3
_BOXBLANK
  1

  0
LINE
  5
124
100
AcDbEntity
  8
0
  6
ByLayer
 62
  256
370
   -1
100
AcDbLine
 10
-0.5
 20
-0.5
 11
0.5
 21
-0.5
  0
LINE
  5
125
100
AcDbEntity
  8
0
  6
ByLayer
 62
  256
370
   -1
100
AcDbLine
 10
0.5
 20
-0.5
 11
0.5
 21
0.5
  0
LINE
  5
126
100
AcDbEntity
  8
0
  6
ByLayer
 62
  256
370
   -1
100
AcDbLine
 10
0.5
 20
0.5
 11
-0.5
 21
0.5
  0
LINE
  5
127
100
AcDbEntity
  8
0
  6
ByLayer
 62
  256
370
   -1
100
AcDbLine
 10
-0.5
 20
0.5
 11
-0.5
 21
-0.5
  0
LINE
  5
128
100
AcDbEntity
  8
0
  6
ByLayer
 62
  256
370
   -1
100
AcDbLine
 10
-0.5
 20
0
 11
-1
 21
0
  0
ENDBLK
  5
7B
330
79
100
AcDbEntity
  8
0
100
AcDbBlockEnd
  0
BLOCK
  5
7D
330
7C
100
AcDbEntity
  8
0
100
AcDbBlockBegin
  2
_BOXFILLED
 70
    0
 10
0
 20
0
  3
_BOXFILLED
  1

  0
SOLID
  5
129
100
AcDbEntity
  8
0
  6
ByLayer
 62
  256
370
   -1
100
AcDbTrace
 10
-0.5
 20
0.5
 30
0
 11
0.5
 21
0.5
 31
0
 12
-0.5
 22
-0.5
 32
0
 13
0.5
 23
-0.5
 33
0
  0
LINE
  5
12A
100
AcDbEntity
  8
0
  6
ByLayer
 62
  256
370
   -1
100
AcDbLine
 10
-0.5
 20
0
 11
-1
 21
0
  0
ENDBLK
  5
7E
330
7C
100
AcDbEntity
  8
0
100
AcDbBlockEnd
  0
BLOCK
  5
80
330
7F
100
AcDbEntity
  8
0
100
AcDbBlockBegin
  2
_DATUMBLANK
 70
    0
 10
0
 20
0
  3
_DATUMBLANK
  1

  0
LINE
  5
12B
100
AcDbEntity
  8
0
  6
ByLayer
 62
  256
370
   -1
100
AcDbLine
 10
0
 20
0.57735
 11
-1
 21
0
  0
LINE
  5
12C
100
AcDbEntity
  8
0
  6
ByLayer
 62
  256
370
   -1
100
AcDbLine
 10
-1
 20
0
 11
0
 21
-0.57735
  0
LINE
  5
12D
100
AcDbEntity
  8
0
  6
ByLayer
 62
  256
370
   -1
100
AcDbLine
 10
0
 20
-0.57735
 11
0
 21
0.57735
  0
ENDBLK
  5
81
330
7F
100
AcDbEntity
  8
0
100
AcDbBlockEnd
  0
BLOCK
  5
83
330
82
100
AcDbEntity
  8
0
100
AcDbBlockBegin
  2
_DATUMFILLED
 70
    0
 10
0
 20
0
  3
_DATUMFILLED
  1

  0
SOLID
  5
12E
100
AcDbEntity
  8
0
  6
ByLayer
 62
  256
370
   -1
100
AcDbTrace
 10
0
 20
0.57735
 30
0
 11
-1
 21
0
 31
0
 12
0
 22
-0.57735
 32
0
 13
0
 23
-0.57735
 33
0
  0
ENDBLK
  5
84
330
82
100
AcDbEntity
  8
0
100
AcDbBlockEnd
  0
BLOCK
  5
86
330
85
100
AcDbEntity
  8
0
100
AcDbBlockBegin
  2
_INTEGRAL
 70
    0
 10
0
 20
0
  3
_INTEGRAL
  1

  0
ARC
  5
12F
100
AcDbEntity
  8
0
  6
ByLayer
 62
  256
370
   -1
100
AcDbCircle
 10
0.444888
 20
-0.091335
 40
0.454167
100
AcDbArc
 50
102
 51
168
  0
ARC
  5
130
100
AcDbEntity
  8
0
  6
ByLayer
 62
  256
370
   -1
100
AcDbCircle
 10
-0.444888
 20
0.091335
 40
0.454167
100
AcDbArc
 50
282
 51
348
  0
ENDBLK
  5
87
330
85
100
AcDbEntity
  8
0
100
AcDbBlockEnd
  0
BLOCK
  5
89
330
88
100
AcDbEntity
  8
0
100
AcDbBlockBegin
  2
_NONE
 70
    0
 10
0
 20
0
  3
_NONE
  1

  0
ENDBLK
  5
8A
330
88
100
AcDbEntity
  8
0
100
AcDbBlockEnd
  0
BLOCK
  5
8C
330
8B
100
AcDbEntity
  8
0
100
AcDbBlockBegin
  2
*R
 70
    0
 10
71.88746999999999
 20
362.196639
  3
*R
  1

  0
LWPOLYLINE
  5
131
100
AcDbEntity
  8
0
  6
CONTINUOUS
 62
  256
370
   -1
100
AcDbPolyline
 90
   26
 70
    0
 43
0
 10
0.09976500000000001
 20
361.705262
 10
0.1059770000000135
 20
361.670309
 42
0.1262669999999987
 10
0.8526949999999927
 20
360.734329
 42
0.08717900000000063
 10
3.600182999999946
 20
359.463032
 42
0.03972600000000005
 10
8.958967999999864
 20
358.3623309999999
 42
0.0206519999999999
 10
16.22767899999957
 20
357.6847689999998
 42
0.01411400000000001
 10
28.99992599999869
 20
357.3295700000001
 42
0.00581300000000001
 10
41.77792999999697
 20
357.4372939999998
 42
0.003613000000000006
 10
63.06788699999534
 20
358.0121189999991
 42
0.002274999999999897
 10
95.90402799999593
 20
359.2509339999988
 10
125.08233
 20
360.470913
 10
134.977918
 20
360.861993
 10
134.898938
 20
362.860433
 10
143.675175
 20
363.207275
 10
115.388176
 20
364.333271
 10
86.23325800000083
 20
365.5502749999987
 42
0.003710999999999955
 10
45.5222210000009
 20
366.8878909999989
 42
0.007844000000000044
 10
26.67697500000025
 20
367.0518460000002
 42
0.01880799999999998
 10
12.70983599999997
 20
366.456328
 42
0.04034500000000005
 10
4.311099999999978
 20
365.139325
 42
0.06118500000000037
 10
1.474746999999992
 20
364.0671189999999
 42
0.1366289999999982
 10
0.1468570000000273
 20
362.856052
 10
0.109288
 20
362.705262
 10
9.797902000000001
 20
362.705262
 10
9.797902000000001
 20
361.705262
 10
0.09976500000000001
 20
361.705262
  0
LWPOLYLINE
  5
132
100
AcDbEntity
  8
0
  6
CONTINUOUS
 62
  256
370
   -1
100
AcDbPolyline
 90
    3
 70
    0
 43
0
 10
65.50796099999999
 20
362.4293
 42
-0.9561090000000004
 10
70.497902
 20
362.205262
 42
-1.045905000000002
 10
65.50796099999999
 20
362.4293
 42
-1.045905000000002
  0
LWPOLYLINE
  5
133
100
AcDbEntity
  8
0
  6
CONTINUOUS
 62
  256
370
   -1
100
AcDbPolyline
 90
    3
 70
    0
 43
0
 10
20.497902
 20
362.205262
 42
-1.045905000000002
 10
15.507961
 20
362.4293
 42
-0.9561090000000004
 10
20.497902
 20
362.205262
 42
-0.9561090000000004
  0
ENDBLK
  5
8D
330
8B
100
AcDbEntity
  8
0
100
AcDbBlockEnd
  0
BLOCK
  5
8F
330
8E
100
AcDbEntity
  8
0
100
AcDbBlockBegin
  2
*R1
 70
    0
 10
17.997902
 20
362.205262
  3
*R1
  1

  0
LWPOLYLINE
  5
134
100
AcDbEntity
  8
0
  6
CONTINUOUS
 62
  256
370
   -1
100
AcDbPolyline
 90
    3
 70
    0
 43
0
 10
20.497902
 20
362.205262
 42
0.9561090000000004
 10
15.507961
 20
362.4293
 42
1.045905000000002
 10
20.497902
 20
362.205262
 42
1.045905000000002
  0
ENDBLK
  5
90
330
8E
100
AcDbEntity
  8
0
100
AcDbBlockEnd
  0
BLOCK
  5
92
330
91
100
AcDbEntity
  8
0
100
AcDbBlockBegin
  2
*R2
 70
    0
 10
67.997902
 20
362.205262
  3
*R2
  1

  0
LWPOLYLINE
  5
135
100
AcDbEntity
  8
0
  6
CONTINUOUS
 62
  256
370
   -1
100
AcDbPolyline
 90
    3
 70
    0
 43
0
 10
70.497902
 20
362.205262
 42
0.9561090000000004
 10
65.50796099999999
 20
362.4293
 42
1.045905000000002
 10
70.497902
 20
362.205262
 42
1.045905000000002
  0
ENDBLK
  5
93
330
91
100
AcDbEntity
  8
0
100
AcDbBlockEnd
  0
BLOCK
  5
95
330
94
100
AcDbEntity
  8
0
100
AcDbBlockBegin
  2
*R3
 70
    0
 10
4.998951
 20
362.205262
  3
*R3
  1

  0
LWPOLYLINE
  5
136
100
AcDbEntity
  8
0
  6
CONTINUOUS
 62
  256
370
   -1
100
AcDbPolyline
 90
    6
 70
    0
 43
0
 10
0.109288
 20
362.705262
 10
0
 20
362.266619
 10
0.09976500000000001
 20
361.705262
 10
9.997902
 20
361.705262
 10
9.997902
 20
362.705262
 10
0.109288
 20
362.705262
  0
ENDBLK
  5
96
330
94
100
AcDbEntity
  8
0
100
AcDbBlockEnd
  0
BLOCK
  5
98
330
97
100
AcDbEntity
  8
0
100
AcDbBlockBegin
  2
*R4
 70
    0
 10
132.458413
 20
361.763201
  3
*R4
  1

  0
LWPOLYLINE
  5
137
100
AcDbEntity
  8
0
  6
CONTINUOUS
 62
  256
370
   -1
100
AcDbPolyline
 90
    5
 70
    0
 43
0
 10
129.977918
 20
360.66439
 10
135.017887
 20
360.863572
 10
134.938907
 20
362.862012
 10
129.898939
 20
362.66283
 10
129.977918
 20
360.66439
  0
ENDBLK
  5
99
330
97
100
AcDbEntity
  8
0
100
AcDbBlockEnd
  0
BLOCK
  5
9B
330
9A
100
AcDbEntity
  8
0
100
AcDbBlockBegin
  2
*R5
 70
    0
 10
142.448448
 20
362.034019
  3
*R5
  1

  0
LWPOLYLINE
  5
138
100
AcDbEntity
  8
0
  6
CONTINUOUS
 62
  256
370
   -1
100
AcDbPolyline
 90
    6
 70
    0
 43
0
 10
134.977918
 20
360.861993
 10
149.997959
 20
361.455594
 10
149.997845
 20
362.955594
 10
143.644071
 20
363.206046
 10
134.898938
 20
362.860433
 10
134.977918
 20
360.861993
  0
ENDBLK
  5
9C
330
9A
100
AcDbEntity
  8
0
100
AcDbBlockEnd
  0
BLOCK
  5
9E
330
9D
100
AcDbEntity
  8
0
100
AcDbBlockBegin
  2
*R6
 70
    0
 10
197.085685
 20
364.283539
  3
*R6
  1

  0
LWPOLYLINE
  5
139
100
AcDbEntity
  8
0
  6
CONTINUOUS
 62
  256
370
   -1
100
AcDbPolyline
 90
   21
 70
    0
 43
0
 10
160.17959
 20
363.793678
 42
0.1511120000000012
 10
161.079717
 20
363.099888
 42
0.03942200000000057
 10
162.051738
 20
362.729693
 42
0.04527499999999983
 10
165.4520109999999
 20
362.055932
 42
0.01727800000000034
 10
169.2536199999998
 20
361.7154899999998
 42
0.0172310000000002
 10
179.3144749999987
 20
361.5162499999999
 42
0.005924000000000041
 10
192.4993439999968
 20
361.7924719999992
 42
0.003076000000000105
 10
217.1228689999984
 20
362.7119719999994
 42
-0.002985999999999995
 10
230.4772459999998
 20
363.1928660000005
 10
230.417209
 20
365.1919649999999
 42
-0.000799999999999921
 10
234.001315999999
 20
365.2938659999998
 42
-0.003596999999999843
 10
217.8411960000005
 20
365.8432250000001
 42
0.004712000000000004
 10
184.9212870000008
 20
366.9865299999999
 42
0.01261999999999994
 10
171.746741
 20
366.980172
 42
0.02334399999999996
 10
165.179773
 20
366.488273
 42
0.03639999999999991
 10
162.123757
 20
365.8720929999998
 42
0.08080999999999817
 10
160.5456150000001
 20
365.1718279999998
 42
0.07112199999999977
 10
160.170054
 20
364.793678
 10
169.797237
 20
364.793678
 10
169.797237
 20
363.793678
 10
160.17959
 20
363.793678
  0
ENDBLK
  5
9F
330
9D
100
AcDbEntity
  8
0
100
AcDbBlockEnd
  0
BLOCK
  5
A1
330
A0
100
AcDbEntity
  8
0
100
AcDbBlockBegin
  2
*R7
 70
    0
 10
164.997598
 20
364.293678
  3
*R7
  1

  0
LWPOLYLINE
  5
13A
100
AcDbEntity
  8
0
  6
CONTINUOUS
 62
  256
370
   -1
100
AcDbPolyline
 90
    7
 70
    0
 43
0
 10
160.170054
 20
364.793678
 42
0.02071399999999954
 10
160.082191
 20
364.664845
 42
0.2131759999999913
 10
160.058876
 20
363.988576
 42
0.02982899999999986
 10
160.17959
 20
363.793678
 10
169.997237
 20
363.793678
 10
169.997237
 20
364.793678
 10
160.170054
 20
364.793678
  0
ENDBLK
  5
A2
330
A0
100
AcDbEntity
  8
0
100
AcDbBlockEnd
  0
BLOCK
  5
A4
330
A3
100
AcDbEntity
  8
0
100
AcDbBlockBegin
  2
*R8
 70
    0
 10
227.962751
 20
364.112342
  3
*R8
  1

  0
LWPOLYLINE
  5
13B
100
AcDbEntity
  8
0
  6
CONTINUOUS
 62
  256
370
   -1
100
AcDbPolyline
 90
    5
 70
    0
 43
0
 10
225.4772489999998
 20
363.0315169999998
 42
-0.001127000000000096
 10
230.517228
 20
363.1940659999997
 10
230.4572620000004
 20
365.1931669999998
 42
0.001127000000000096
 10
225.4082740000002
 20
365.0303269999998
 10
225.477249
 20
363.031517
  0
ENDBLK
  5
A5
330
A3
100
AcDbEntity
  8
0
100
AcDbBlockEnd
  0
BLOCK
  5
A7
330
A6
100
AcDbEntity
  8
0
100
AcDbBlockBegin
  2
*R9
 70
    0
 10
237.982239
 20
364.243016
  3
*R9
  1

  0
LWPOLYLINE
  5
13C
100
AcDbEntity
  8
0
  6
CONTINUOUS
 62
  256
370
   -1
100
AcDbPolyline
 90
    6
 70
    0
 43
0
 10
230.4772460000002
 20
363.1928660000003
 42
-0.003367999999999936
 10
245.5472690000001
 20
363.5438669999999
 10
245.5472039999995
 20
365.0438669999999
 42
-0.002588000000000256
 10
233.9752559999985
 20
365.293167
 42
0.0007940000000000966
 10
230.417209
 20
365.1919650000002
 10
230.477246
 20
363.192866
  0
ENDBLK
  5
A8
330
A6
100
AcDbEntity
  8
0
100
AcDbBlockEnd
  0
BLOCK
  5
AA
330
A9
100
AcDbEntity
  8
0
100
AcDbBlockBegin
  2
*R10
 70
    0
 10
15.007267
 20
337.587014
  3
*R10
  1

  0
LWPOLYLINE
  5
13D
100
AcDbEntity
  8
0
  6
CONTINUOUS
 62
  256
370
   -1
100
AcDbPolyline
 90
   32
 70
    0
 43
0
 10
60.881136
 20
344.453585
 10
60.881136
 20
345.326764
 42
0.414213999999996
 10
58.881136
 20
347.326764
 10
2
 20
347.326764
 42
0.4142139999999963
 10
-6.661338147750939e-16
 20
345.326764
 10
8.881784197001252e-16
 20
329.847265
 42
0.4142139999999964
 10
2
 20
327.847265
 10
51.160852
 20
327.847265
 42
0.414213999999996
 10
53.160852
 20
329.847265
 10
53.16085199999998
 20
330.851315
 42
0.4043120000000049
 10
51.22868499999981
 20
332.8501640000002
 42
-0.005522000000000023
 10
46.23409599999979
 20
333.0749030000001
 10
46.22548699999987
 20
333.075367
 42
-0.02060900000000012
 10
38.97170299999983
 20
333.75127
 10
38.95059299999997
 20
333.754004
 42
-0.03949999999999998
 10
33.62197699999998
 20
334.847708
 10
33.58389499999998
 20
334.85831
 42
-0.0860990000000012
 10
30.86995699999996
 20
336.114191
 10
30.84162599999998
 20
336.134707
 42
-0.124524000000001
 10
30.10807499999998
 20
337.060685
 10
30.002098
 20
337.656995
 10
30.14895500000002
 20
338.246428
 42
-0.1358169999999989
 10
31.46732400000002
 20
339.452665
 10
31.487934
 20
339.463312
 42
-0.06090300000000005
 10
34.311789
 20
340.529357
 10
34.31464899999997
 20
340.5300500000001
 42
-0.0403130000000001
 10
42.70678199999998
 20
341.8463170000001
 10
42.71715099999994
 20
341.847123
 42
-0.01879900000000009
 10
56.67710099999996
 20
342.4422119999999
 10
56.68105199999977
 20
342.4422359999998
 42
-0.0009179999999999987
 10
58.88775799999976
 20
342.4535959999995
 42
0.4132440000000003
 10
60.88113600000001
 20
344.453585
 42
0.4132440000000003
  0
ENDBLK
  5
AB
330
A9
100
AcDbEntity
  8
0
100
AcDbBlockEnd
  0
BLOCK
  5
AD
330
AC
100
AcDbEntity
  8
0
100
AcDbBlockBegin
  2
*R11
 70
    0
 10
85.811303
 20
337.637315
  3
*R11
  1

  0
LWPOLYLINE
  5
13E
100
AcDbEntity
  8
0
  6
CONTINUOUS
 62
  256
370
   -1
100
AcDbPolyline
 90
   32
 70
    0
 43
0
 10
121.836752
 20
332.9252650000001
 42
-0.005510999999999967
 10
116.877689
 20
333.1485140000001
 10
116.869081
 20
333.1489780000001
 42
-0.02060899999999989
 10
109.652643
 20
333.8214
 10
109.631538
 20
333.8241340000001
 42
-0.03949900000000015
 10
104.330446
 20
334.912185
 10
104.292387
 20
334.92278
 42
-0.08609400000000049
 10
101.592548
 20
336.172136
 10
101.56423
 20
336.1926419999999
 42
-0.1245160000000044
 10
100.834507
 20
337.113817
 10
100.729074
 20
337.707063
 10
100.875176
 20
338.293467
 42
-0.1358139999999989
 10
102.186738
 20
339.49349
 10
102.20732
 20
339.504123
 42
-0.06090200000000007
 10
105.016614
 20
340.564665
 10
105.019473
 20
340.565358
 42
-0.04030899999999998
 10
113.36761
 20
341.874794
 10
113.379672
 20
341.875737
 42
-0.01856900000000001
 10
126.662129
 20
342.4595899999999
 10
126.6662609999999
 20
342.4596220000001
 42
-0.001221999999999977
 10
129.457392
 20
342.4775339999999
 42
0.4130499999999934
 10
131.449446
 20
344.477519
 10
131.449446
 20
345.326764
 42
0.414213999999996
 10
129.449446
 20
347.326764
 10
72.881136
 20
347.326764
 42
0.414213999999996
 10
70.881136
 20
345.326764
 10
70.881136
 20
329.947866
 42
0.4142139999999961
 10
72.881136
 20
327.947866
 10
121.768831
 20
327.947866
 42
0.414213999999996
 10
123.768831
 20
329.947866
 10
123.768831
 20
330.926419
 42
0.4042999999999925
 10
121.836752
 20
332.925265
 42
0.4042999999999925
  0
ENDBLK
  5
AE
330
AC
100
AcDbEntity
  8
0
100
AcDbBlockEnd
  0
BLOCK
  5
B0
330
AF
100
AcDbEntity
  8
0
100
AcDbBlockBegin
  2
*R12
 70
    0
 10
155.961594
 20
337.90896
  3
*R12
  1

  0
LWPOLYLINE
  5
13F
100
AcDbEntity
  8
0
  6
CONTINUOUS
 62
  256
370
   -1
100
AcDbPolyline
 90
   32
 70
    0
 43
0
 10
200.322043
 20
344.612456
 10
200.322043
 20
345.326764
 42
0.414213999999996
 10
198.322043
 20
347.326764
 10
143.449446
 20
347.326764
 42
0.414213999999996
 10
141.449446
 20
345.326764
 10
141.449446
 20
330.491156
 42
0.4142139999999961
 10
143.449446
 20
328.491156
 10
190.85646
 20
328.491156
 42
0.414213999999996
 10
192.85646
 20
330.491156
 10
192.85646
 20
331.331564
 42
0.404228000000004
 10
190.92487
 20
333.3303940000002
 42
-0.005446000000000019
 10
186.160886
 20
333.5454169999999
 10
186.147265
 20
333.5461340000001
 42
-0.02791099999999987
 10
177.38578
 20
334.4693560000001
 10
177.37549
 20
334.470997
 42
-0.04226200000000022
 10
173.395335
 20
335.445247
 10
173.373776
 20
335.452363
 42
-0.07461499999999985
 10
171.299083
 20
336.48578
 10
171.275143
 20
336.5032220000001
 42
-0.1247399999999965
 10
170.564221
 20
337.399852
 10
170.46174
 20
337.976489
 10
170.603752
 20
338.546476
 42
-0.1365169999999986
 10
171.886562
 20
339.716946
 10
171.889343
 20
339.7183560000001
 42
-0.06343900000000026
 10
175.193735
 20
340.8989050000001
 10
175.206695
 20
340.901799
 42
-0.03520199999999996
 10
182.162189
 20
341.972168
 10
182.171826
 20
341.972986
 42
-0.01977099999999994
 10
195.080466
 20
342.588084
 10
195.085359
 20
342.5881289999999
 42
-0.001511000000000035
 10
198.3310009999997
 20
342.6124759999999
 42
0.4129020000000055
 10
200.322043
 20
344.612456
 42
0.4129020000000055
  0
ENDBLK
  5
B1
330
AF
100
AcDbEntity
  8
0
100
AcDbBlockEnd
  0
BLOCK
  5
B3
330
B2
100
AcDbEntity
  8
0
100
AcDbBlockBegin
  2
*R13
 70
    0
 10
218.877491
 20
341.760814
  3
*R13
  1

  0
LWPOLYLINE
  5
140
100
AcDbEntity
  8
0
  6
CONTINUOUS
 62
  256
370
   -1
100
AcDbPolyline
 90
   28
 70
    0
 43
0
 10
243.653513
 20
347.317189
 10
211.713947
 20
347.326764
 42
0.4143009999999982
 10
210.322043
 20
345.935277
 10
210.322043
 20
337.586352
 42
0.4142139999999999
 10
211.71353
 20
336.194864
 10
239.249961
 20
336.194864
 42
0.4142139999999923
 10
240.641449
 20
337.586352
 10
240.641449
 20
337.683771
 42
0.4036049999999994
 10
239.300537
 20
339.074339
 42
-0.004476000000000065
 10
236.688426
 20
339.192766
 42
-0.01722100000000017
 10
232.899295
 20
339.531655
 10
232.87459
 20
339.534501
 42
-0.04510600000000007
 10
229.487157
 20
340.2067880000001
 10
229.485966
 20
340.207137
 42
-0.03769000000000088
 10
228.555322
 20
340.557992
 10
228.479252
 20
340.590703
 42
-0.1766910000000004
 10
227.493682
 20
341.465852
 42
-0.2131760000000001
 10
227.516997
 20
342.14212
 42
-0.08924300000000043
 10
227.96422
 20
342.636729
 10
227.999092
 20
342.661251
 42
-0.07935399999999973
 10
229.550002
 20
343.347117
 10
229.567834
 20
343.3519499999999
 42
-0.03626899999999982
 10
232.612966
 20
343.965344
 10
232.61621
 20
343.965748
 42
-0.02333499999999991
 10
239.180729
 20
344.457424
 10
239.182368
 20
344.4574690000001
 42
-0.004294000000000044
 10
243.664983
 20
344.5342649999999
 42
0.9955890000000275
 10
243.653513
 20
347.317189
 42
0.9955890000000275
  0
ENDBLK
  5
B4
330
B2
100
AcDbEntity
  8
0
100
AcDbBlockEnd
  0
BLOCK
  5
B6
330
B5
100
AcDbEntity
  8
0
100
AcDbBlockBegin
  2
*R14
 70
    0
 10
16.301222
 20
313.029513
  3
*R14
  1

  0
LWPOLYLINE
  5
141
100
AcDbEntity
  8
0
  6
CONTINUOUS
 62
  256
370
   -1
100
AcDbPolyline
 90
  140
 70
    0
 43
0
 10
23.38044
 20
317.653035
 10
23.38044
 20
312.948188
 10
20.38044
 20
312.948188
 10
20.38043999999993
 20
317.5271220000001
 42
0.007368000000000087
 10
13.68305899999992
 20
317.102782
 42
0.03761899999999995
 10
4.099006000000015
 20
315.7350809999999
 10
2.284478
 20
315.182033
 10
0.620913
 20
314.397796
 10
0
 20
313.54265
 10
12.222004
 20
313.54265
 10
12.222004
 20
312.54265
 10
0.019549
 20
312.54265
 10
0.49268
 20
311.756966
 10
2.133714
 20
310.937686
 10
3.944469000000039
 20
310.375862
 42
0.02641299999999995
 10
9.641998999999856
 20
309.3697080000001
 42
0.01341999999999995
 10
17.42309699999915
 20
308.6944979999997
 42
0.01210500000000018
 10
37.04209499999803
 20
308.2117600000004
 42
0.006481999999999976
 10
83.55540899998755
 20
309.0849259999986
 42
0.0005680000000000069
 10
96.79304899998951
 20
309.4789479999981
 10
98.66990699999999
 20
309.539048
 10
100.542728
 20
309.59918
 10
102.411521
 20
309.659412
 10
104.276299
 20
309.719808
 10
106.140008
 20
309.78051
 10
108.000192
 20
309.841479
 10
109.856214
 20
309.902717
 10
111.708088
 20
309.964229
 10
113.555828
 20
310.026005
 10
115.399449
 20
310.08801
 10
117.239789
 20
310.150221
 10
119.077089
 20
310.212577
 10
120.910205
 20
310.274959
 10
122.739153
 20
310.337284
 10
124.5639519999991
 20
310.3994680000005
 42
-0.0008230000000000562
 10
133.6352549999992
 20
310.7175940000002
 10
135.438237
 20
310.778788
 10
137.236935
 20
310.83984
 10
139.031363
 20
310.900749
 10
140.822096
 20
310.961534
 10
142.609495
 20
311.0222059999974
 42
-0.0007249999999999209
 10
155.0033719999996
 20
311.4389869999973
 10
156.75803
 20
311.493732
 10
158.508237
 20
311.548337
 10
160.254008
 20
311.602803
 10
161.995361
 20
311.65713
 10
163.608842
 20
311.707469
 10
163.517068
 20
313.706163
 10
163.708404
 20
313.712115
 10
163.899741
 20
313.718068
 10
164.091079
 20
313.72402
 10
164.282418
 20
313.729971
 10
164.473757
 20
313.735922
 10
164.665097
 20
313.741873
 10
164.856437
 20
313.747823
 10
165.047778
 20
313.753772
 10
165.239119
 20
313.75972
 10
165.430461
 20
313.765668
 10
165.621804
 20
313.771615
 10
165.813147
 20
313.777562
 10
166.00449
 20
313.783507
 10
166.195834
 20
313.789451
 10
166.387179
 20
313.795395
 10
166.578524
 20
313.801338
 10
166.769869
 20
313.80728
 10
166.961215
 20
313.813221
 10
167.152562
 20
313.819161
 10
167.343909
 20
313.825101
 10
167.535257
 20
313.831039
 10
167.726605
 20
313.836977
 10
167.917954
 20
313.842913
 10
168.109304
 20
313.848849
 10
168.300654
 20
313.854784
 10
168.492004
 20
313.860718
 10
168.683355
 20
313.866652
 10
168.874707
 20
313.872584
 10
169.066059
 20
313.878515
 10
169.257411
 20
313.884446
 10
169.448765
 20
313.890376
 10
169.640118
 20
313.896305
 10
169.831472
 20
313.902233
 10
170.022827
 20
313.90816
 10
170.214183
 20
313.914086
 10
170.405538
 20
313.920011
 10
170.596895
 20
313.925936
 10
170.788252
 20
313.931859
 10
170.979609
 20
313.937782
 10
171.170967
 20
313.943704
 10
171.362326
 20
313.949625
 10
171.553685
 20
313.955545
 10
171.745045
 20
313.961464
 10
171.936405
 20
313.967383
 10
172.127765
 20
313.9733
 10
172.319127
 20
313.979217
 10
172.510489
 20
313.985132
 10
172.701851
 20
313.991047
 10
172.893214
 20
313.996961
 10
173.084577
 20
314.002874
 10
173.275941
 20
314.008787
 10
173.467306
 20
314.014698
 10
173.658671
 20
314.02061
 10
173.850036
 20
314.02652
 10
174.041402
 20
314.032431
 10
174.232769
 20
314.038341
 10
174.39706
 20
314.043415
 10
174.072854
 20
314.053435
 10
172.363441
 20
314.106268
 10
170.649525
 20
314.159246
 10
168.931088
 20
314.212368
 10
167.208112
 20
314.265635
 10
165.480578
 20
314.319045
 10
163.7485639999955
 20
314.3725929999982
 42
-0.0005419999999998502
 10
151.3804399999988
 20
314.7633670000005
 10
151.38044
 20
312.941831
 10
148.38044
 20
312.941831
 10
148.38044
 20
314.863688
 10
147.975873
 20
314.877518
 10
146.203111
 20
314.938124
 10
144.426032
 20
314.998881
 10
142.644621
 20
315.059791
 10
140.858863
 20
315.120855
 10
139.069754
 20
315.182039
 10
137.277
 20
315.243352
 10
135.479992
 20
315.304814
 10
133.678714
 20
315.366424
 10
131.8731500000009
 20
315.428179999999
 42
0.0006730000000000233
 10
119.3804410000014
 20
315.8808819999986
 10
119.380441
 20
312.949809
 10
116.380441
 20
312.949809
 10
116.3804410000014
 20
315.9845779999987
 42
0.001562999999999976
 10
87.38044000000102
 20
316.8868579999989
 10
87.38043999999999
 20
312.940273
 10
84.38043999999999
 20
312.940273
 10
84.38044000000119
 20
316.9698430000008
 42
0.001562000000000038
 10
55.38044100000148
 20
317.6719750000002
 10
55.380441
 20
312.9456
 10
52.380441
 20
312.9456
 10
52.38044100000017
 20
317.73038
 42
0.007553999999999911
 10
29.32484700000033
 20
317.7856020000002
 42
0.006528000000000057
 10
23.38044000000006
 20
317.6530349999999
 42
0.006528000000000057
  0
ENDBLK
  5
B7
330
B5
100
AcDbEntity
  8
0
100
AcDbBlockEnd
  0
BLOCK
  5
B9
330
B8
100
AcDbEntity
  8
0
100
AcDbBlockBegin
  2
*R15
 70
    0
 10
268.808198
 20
313.203023
  3
*R15
  1

  0
LWPOLYLINE
  5
142
100
AcDbEntity
  8
0
  6
CONTINUOUS
 62
  256
370
   -1
100
AcDbPolyline
 90
   52
 70
    0
 43
0
 10
212.534077
 20
317.780817
 10
212.534077
 20
313.120448
 10
209.534077
 20
313.120448
 10
209.534077
 20
317.718703
 42
0.01169799999999993
 10
198.323668
 20
317.153783
 42
0.03526100000000004
 10
188.580285
 20
315.831906
 10
186.721914
 20
315.295214
 10
185.021874
 20
314.532788
 10
184.39706
 20
313.713676
 10
197.237863
 20
313.713676
 10
197.237863
 20
312.713676
 10
184.415333
 20
312.713676
 10
184.890763
 20
311.962143
 10
186.567702
 20
311.1657729999999
 42
0.04076800000000004
 10
192.2841629999998
 20
309.900638
 42
0.02634600000000003
 10
207.9967579999989
 20
308.7577199999997
 42
0.01075900000000011
 10
233.2214519999948
 20
308.643305999999
 42
0.004214999999999971
 10
292.654702999995
 20
310.2095109999996
 10
294.447076
 20
310.271001
 10
296.234255
 20
310.332313
 10
298.016262
 20
310.393448
 10
299.793119
 20
310.454408
 10
301.564849
 20
310.515194
 10
303.331474
 20
310.575809
 10
305.095966
 20
310.636355
 10
306.856245
 20
310.696759
 10
308.611227
 20
310.756985
 10
310.360935
 20
310.817033
 10
312.105392
 20
310.876901
 10
313.8446229999983
 20
310.9365890000008
 42
-0.001254000000000062
 10
343.1634029999982
 20
311.9118510000008
 10
343.0731059999977
 20
313.9106320000028
 42
-0.0004769999999999944
 10
353.2193349999872
 20
314.2145350000019
 42
-0.0005539999999999802
 10
340.5340779999898
 20
314.5957130000015
 10
340.534078
 20
313.113023
 10
337.534078
 20
313.113023
 10
337.5340779999927
 20
314.6899700000031
 42
-0.0008059999999998358
 10
319.0754099999975
 20
315.3045290000027
 42
0.0004839999999999009
 10
308.5340770000021
 20
315.6874000000016
 10
308.534077
 20
313.121461
 10
305.534077
 20
313.121461
 10
305.5340770000018
 20
315.7926279999983
 42
0.001330999999999975
 10
276.5340780000012
 20
316.7245389999989
 10
276.534078
 20
313.104556
 10
273.534078
 20
313.104556
 10
273.534078000002
 20
316.8121219999985
 42
0.001330999999999975
 10
244.5340770000012
 20
317.573508999998
 10
244.534077
 20
313.120738
 10
241.534077
 20
313.120738
 10
241.5340770000001
 20
317.643175
 42
0.008268000000000062
 10
214.007806
 20
317.797585
 42
0.001535999999999979
 10
212.534077
 20
317.7808170000001
 42
0.001535999999999979
  0
ARC
  5
143
100
AcDbEntity
  8
0
  6
CONTINUOUS
 62
    1
370
    0
100
AcDbCircle
 10
223.102
 20
-514.5359999999999
 40
832.383
100
AcDbArc
 50
88.7312
 51
90.626
  0
ARC
  5
144
100
AcDbEntity
  8
0
  6
CONTINUOUS
 62
    1
370
    0
100
AcDbCircle
 10
223.267
 20
894.763
 40
586.204
100
AcDbArc
 50
268.507
 51
270.973
  0
ENDBLK
  5
BA
330
B8
100
AcDbEntity
  8
0
100
AcDbBlockEnd
  0
BLOCK
  5
BC
330
BB
100
AcDbEntity
  8
0
100
AcDbBlockBegin
  2
*R16
 70
    0
 10
440.973742
 20
313.416015
  3
*R16
  1

  0
LWPOLYLINE
  5
145
100
AcDbEntity
  8
0
  6
CONTINUOUS
 62
  256
370
   -1
100
AcDbPolyline
 90
   41
 70
    0
 43
0
 10
393.728149
 20
317.819101
 10
393.728149
 20
313.324888
 10
390.728149
 20
313.324888
 10
390.728149
 20
317.7923430000001
 42
0.01552799999999999
 10
376.877329
 20
317.194475
 42
0.02658999999999998
 10
369.206581
 20
316.3067379999998
 42
0.04124399999999982
 10
365.491654
 20
315.4256429999999
 10
363.817703
 20
314.694692
 10
363.219335
 20
313.929157
 10
376.385511
 20
313.929157
 10
376.385511
 20
312.929157
 10
363.234596
 20
312.929157
 10
363.688822
 20
312.228437
 10
365.339642
 20
311.464887
 10
367.169382
 20
310.9551540000001
 42
0.02788300000000003
 10
372.8734099999999
 20
310.0058759999999
 42
0.01515299999999992
 10
384.4445679999992
 20
309.2187260000003
 42
0.01082499999999991
 10
407.2974939999963
 20
309.0330349999995
 42
0.004613000000000024
 10
458.1401409999976
 20
310.2690990000001
 10
459.8821259999989
 20
310.3253170000016
 42
0.0005699999999998827
 10
470.231587999997
 20
310.6583429999973
 42
-0.002016000000000102
 10
514.7585450000001
 20
312.1523329999964
 10
514.6717340000004
 20
314.1542959999997
 42
-0.0002580000000000633
 10
518.7281490000005
 20
314.2740739999999
 10
518.7281489999913
 20
314.5849580000004
 42
-0.001042999999999918
 10
500.0384329999882
 20
315.1608269999997
 42
-0.0005390000000000843
 10
491.966288999996
 20
315.4279669999987
 42
0.0001169999999999985
 10
489.7281500000017
 20
315.5123499999982
 10
489.72815
 20
313.33689
 10
486.72815
 20
313.33689
 10
486.7281500000013
 20
315.6238079999985
 42
0.001518000000000044
 10
457.7281490000013
 20
316.6039409999985
 10
457.728149
 20
313.327734
 10
454.728149
 20
313.327734
 10
454.7281490000013
 20
316.6952710000023
 42
0.001518000000000044
 10
425.7281500000014
 20
317.4808980000025
 10
425.72815
 20
313.328574
 10
422.72815
 20
313.328574
 10
422.7281500000014
 20
317.5521129999979
 42
0.0001179999999999558
 10
420.4643940000016
 20
317.604602999998
 42
0.00815700000000007
 10
393.728149
 20
317.8191009999998
 42
0.00815700000000007
  0
ENDBLK
  5
BD
330
BB
100
AcDbEntity
  8
0
100
AcDbBlockEnd
  0
BLOCK
  5
BF
330
BE
100
AcDbEntity
  8
0
100
AcDbBlockBegin
  2
*R17
 70
    0
 10
603.885276
 20
313.696515
  3
*R17
  1

  0
LWPOLYLINE
  5
146
100
AcDbEntity
  8
0
  6
CONTINUOUS
 62
  256
370
   -1
100
AcDbPolyline
 90
   48
 70
    0
 43
0
 10
652.2418269999999
 20
315.51058
 10
651.79088
 20
315.526063
 10
650.283636
 20
315.577812
 10
648.768254
 20
315.629839
 10
647.24467
 20
315.682144
 10
645.718375
 20
315.73454
 10
644.185971
 20
315.787144
 10
642.64572
 20
315.840015
 10
641.097562
 20
315.893158
 10
639.5414350000013
 20
315.9465739999996
 42
0.0005520000000000371
 10
626.8547349999972
 20
316.3754959999987
 42
-0.0001609999999998399
 10
623.2418279999993
 20
316.4907269999994
 10
623.2418280000001
 20
313.589965
 10
620.2418280000001
 20
313.589965
 10
620.2418280000004
 20
316.588724000002
 42
0.0004739999999999516
 10
610.3908510000008
 20
316.9018910000023
 42
0.002413999999999946
 10
591.2418270000005
 20
317.4265289999998
 10
591.2418269999999
 20
313.604968
 10
588.2418269999999
 20
313.604968
 10
588.2418270000005
 20
317.4919570000006
 42
0.00274900000000004
 10
566.4324400000007
 20
317.8311579999998
 42
0.004617000000000043
 10
559.2418269999999
 20
317.8301659999999
 10
559.2418269999999
 20
313.601121
 10
556.2418269999999
 20
313.601121
 10
556.2418269999999
 20
317.79049
 42
0.006626999999999934
 10
545.9258589999999
 20
317.4775020000001
 42
0.02741400000000009
 10
534.602577
 20
316.413691
 42
0.03787499999999998
 10
530.948214
 20
315.584208
 10
529.297593
 20
314.893994
 10
528.728149
 20
314.199903
 10
542.506772
 20
314.199903
 10
542.506772
 20
313.199903
 10
528.7390349999999
 20
313.199903
 10
529.1695130000001
 20
312.566684
 10
530.799569
 20
311.846895
 10
532.600729
 20
311.3671459999999
 42
0.02680500000000011
 10
538.2046459999998
 20
310.4768609999998
 42
0.01831999999999992
 10
551.4270959999993
 20
309.7011190000002
 42
0.01120699999999995
 10
577.2207439999953
 20
309.6798710000012
 42
0.003809999999999896
 10
631.6049119999943
 20
311.1728840000014
 42
-0.002548999999999911
 10
670.6732350000002
 20
312.4660100000019
 10
670.5908789999999
 20
314.4704890000012
 42
-0.000812000000000051
 10
679.0424029999976
 20
314.7007740000013
 42
-0.001993000000000074
 10
656.264439999997
 20
315.3724520000001
 10
655.2418269999999
 20
315.407568
 10
655.2418269999999
 20
313.606823
 10
652.2418269999999
 20
313.606823
 10
652.2418269999999
 20
315.51058
  0
ENDBLK
  5
C0
330
BE
100
AcDbEntity
  8
0
100
AcDbBlockEnd
  0
BLOCK
  5
C2
330
C1
100
AcDbEntity
  8
0
100
AcDbBlockBegin
  2
*R18
 70
    0
 10
756.193274
 20
314.100261
  3
*R18
  1

  0
LWPOLYLINE
  5
147
100
AcDbEntity
  8
0
  6
CONTINUOUS
 62
  256
370
   -1
100
AcDbPolyline
 90
   39
 70
    0
 43
0
 10
808.6970660000009
 20
315.5160130000022
 42
0.0009049999999999913
 10
789.1563580000011
 20
316.1958190000023
 42
0.0006380000000000526
 10
779.6970660000004
 20
316.5189810000002
 10
779.6970659999999
 20
314.002561
 10
776.6970659999999
 20
314.002561
 10
776.6970660000001
 20
316.6164250000006
 42
0.001954999999999959
 10
747.6970669999998
 20
317.4331070000003
 10
747.6970669999999
 20
313.999827
 10
744.6970669999999
 20
313.999827
 10
744.6970669999989
 20
317.5046360000001
 42
0.0006109999999999861
 10
735.6298709999983
 20
317.7060630000001
 42
0.00874899999999996
 10
715.6970659999999
 20
317.801116
 10
715.6970659999999
 20
313.998272
 10
712.6970659999999
 20
313.998272
 10
712.6970659999999
 20
317.7550230000001
 42
0.001519000000000087
 10
709.237383
 20
317.6822399999999
 42
0.023255
 10
696.499473
 20
316.8345519999999
 42
0.04176399999999988
 10
691.1478069999999
 20
315.8330839999999
 10
689.562181
 20
315.195906
 10
689.0451880000001
 20
314.604135
 10
703.660355
 20
314.604135
 10
703.660355
 20
313.604135
 10
689.042403
 20
313.604135
 10
689.4275720000001
 20
313.062296
 10
691.007175
 20
312.413052
 10
692.733599
 20
311.952542
 42
0.01962700000000003
 10
698.1769219999998
 20
311.1733149999999
 42
0.0171610000000001
 10
709.0973169999992
 20
310.518148
 42
0.01055800000000006
 10
732.0817229999981
 20
310.437707
 42
0.004216000000000005
 10
783.3367159999971
 20
311.8141680000008
 42
-0.0003449999999999741
 10
790.5326119999905
 20
312.0719030000046
 42
0.0003110000000000471
 10
797.5124369999922
 20
312.2982010000032
 42
-0.002997999999999998
 10
817.5291499999996
 20
312.9541760000002
 10
817.4530270000001
 20
314.9528420000001
 42
-0.001042999999999918
 10
823.3441459999988
 20
315.1045150000002
 42
-0.001853000000000265
 10
811.697065999997
 20
315.4178439999996
 10
811.6970659999999
 20
314.003129
 10
808.6970659999999
 20
314.003129
 10
808.6970659999999
 20
315.516013
  0
ENDBLK
  5
C3
330
C1
100
AcDbEntity
  8
0
100
AcDbBlockEnd
  0
BLOCK
  5
C5
330
C4
100
AcDbEntity
  8
0
100
AcDbBlockBegin
  2
*R19
 70
    0
 10
865.022286
 20
314.725655
  3
*R19
  1

  0
LWPOLYLINE
  5
148
100
AcDbEntity
  8
0
  6
CONTINUOUS
 62
  256
370
   -1
100
AcDbPolyline
 90
   19
 70
    0
 43
0
 10
896.6977340000009
 20
317.2098280000009
 42
0.0004769999999999944
 10
885.8625220000007
 20
317.5125349999998
 42
0.001273999999999956
 10
881.2615819999999
 20
317.6261059999997
 10
881.261582
 20
314.646127
 10
878.261582
 20
314.646127
 10
878.2615820000001
 20
317.6875249999994
 42
0.005545999999999914
 10
858.2293860000002
 20
317.8421249999997
 42
0.01028099999999999
 10
849.261583
 20
317.644861
 10
849.261583
 20
315.238716
 10
850.240962
 20
315.238716
 10
850.240962
 20
314.238716
 10
833.346838
 20
314.238716
 10
833.6733819999999
 20
313.853113
 10
835.201601
 20
313.272254
 42
0.03075600000000039
 10
840.4585279999998
 20
312.3938209999999
 42
0.01268800000000023
 10
849.3587859999999
 20
311.8064240000002
 42
0.007448000000000054
 10
863.2031259999987
 20
311.6040630000005
 42
0.005251999999999946
 10
896.6977339999983
 20
312.2475400000001
 10
896.697734
 20
317.209828
  0
ENDBLK
  5
C6
330
C4
100
AcDbEntity
  8
0
100
AcDbBlockEnd
  0
BLOCK
  5
C8
330
C7
100
AcDbEntity
  8
0
100
AcDbBlockBegin
  2
*R20
 70
    0
 10
839.802864
 20
316.367571
  3
*R20
  1

  0
LWPOLYLINE
  5
149
100
AcDbEntity
  8
0
  6
CONTINUOUS
 62
  256
370
   -1
100
AcDbPolyline
 90
    7
 70
    0
 43
0
 10
846.261583
 20
317.496425
 42
0.004425999999999974
 10
842.407478
 20
317.2448759999999
 42
0.04229600000000004
 10
835.3455
 20
316.2271499999999
 10
833.785256
 20
315.680026
 10
833.344146
 20
315.238716
 10
846.261583
 20
315.238716
 10
846.261583
 20
317.496425
  0
ENDBLK
  5
C9
330
C7
100
AcDbEntity
  8
0
100
AcDbBlockEnd
  0
BLOCK
  5
CB
330
CA
100
AcDbEntity
  8
0
100
AcDbBlockBegin
  2
*R21
 70
    0
 10
960.069475
 20
313.355612
  3
*R21
  1

  0
LWPOLYLINE
  5
14A
100
AcDbEntity
  8
0
  6
CONTINUOUS
 62
  256
370
   -1
100
AcDbPolyline
 90
   91
 70
    0
 43
0
 10
906.697734
 20
317.847265
 10
906.6977339999974
 20
308.8639590000002
 42
0.003125000000000057
 10
959.3931659999978
 20
310.4143750000003
 42
-0.0004960000000000054
 10
965.0415859999996
 20
310.6132240000002
 10
966.918778
 20
310.677954
 10
968.794006
 20
310.742602
 10
970.665655
 20
310.807103
 10
972.533737
 20
310.871451
 10
974.398261
 20
310.935642
 10
976.259238
 20
310.99967
 10
978.117978
 20
311.063579
 10
979.973287
 20
311.127327
 10
981.824959
 20
311.190911
 10
983.673006
 20
311.254336
 10
985.517437
 20
311.317611
 10
987.358591
 20
311.380754
 10
989.197089
 20
311.443796
 10
991.0318690000001
 20
311.5067120000008
 42
-0.000598999999999907
 10
1000.151265
 20
311.8120080000003
 10
1001.964815
 20
311.869694
 10
1003.774616
 20
311.927261
 10
1005.580679
 20
311.98471
 10
1006.268698
 20
312.006594
 10
1006.175106
 20
314.005427
 10
1006.366355
 20
314.011501
 10
1006.557604
 20
314.017574
 10
1006.748854
 20
314.023647
 10
1006.940105
 20
314.029719
 10
1007.131356
 20
314.035791
 10
1007.322607
 20
314.041862
 10
1007.51386
 20
314.047932
 10
1007.705112
 20
314.054002
 10
1007.896365
 20
314.06007
 10
1008.087619
 20
314.066137
 10
1008.278873
 20
314.072204
 10
1008.470128
 20
314.078269
 10
1008.661383
 20
314.084334
 10
1008.852639
 20
314.090397
 10
1009.043896
 20
314.09646
 10
1009.235153
 20
314.102521
 10
1009.42641
 20
314.108581
 10
1009.617668
 20
314.11464
 10
1009.808927
 20
314.120697
 10
1010.000186
 20
314.126754
 10
1010.191445
 20
314.132808
 10
1010.382706
 20
314.138862
 10
1010.573966
 20
314.144913
 10
1010.765227
 20
314.150964
 10
1010.956487
 20
314.157012
 10
1011.147748
 20
314.16306
 10
1011.33901
 20
314.169106
 10
1011.530272
 20
314.175151
 10
1011.721535
 20
314.181195
 10
1011.912798
 20
314.187238
 10
1012.104061
 20
314.19328
 10
1012.295326
 20
314.199321
 10
1012.486591
 20
314.205361
 10
1012.677856
 20
314.2114
 10
1012.869122
 20
314.217438
 10
1013.060388
 20
314.223477
 10
1013.251655
 20
314.229514
 10
1013.441215
 20
314.235498
 10
1013.441215
 20
314.474545
 10
1012.779205
 20
314.495542
 10
1010.989022
 20
314.552323
 10
1009.19555
 20
314.609211
 10
1007.398508
 20
314.666215
 10
1005.597758
 20
314.723338
 10
1003.793288999997
 20
314.780577999999
 42
-0.0005570000000002163
 10
991.061531999992
 20
315.193389
 10
989.228426
 20
315.256578
 10
987.391606
 20
315.319895
 10
985.552105
 20
315.383304
 10
984.4412160000001
 20
315.421597
 10
984.4412160000001
 20
313.251653
 10
981.4412160000001
 20
313.251653
 10
981.4412160000001
 20
315.525004
 10
980.013008
 20
315.574249
 10
978.159391
 20
315.638162
 10
976.302311
 20
315.702195
 10
974.443029
 20
315.766303
 10
972.5802039999991
 20
315.8305339999997
 42
0.001018000000000098
 10
952.4412149999982
 20
316.5402359999998
 10
952.4412150000001
 20
313.255557
 10
949.4412150000001
 20
313.255557
 10
949.4412149999985
 20
316.6389300000001
 42
0.001466000000000045
 10
920.4412159999987
 20
317.4990640000015
 10
920.4412160000001
 20
313.252163
 10
917.4412160000001
 20
313.252163
 10
917.4412160000019
 20
317.5783310000006
 42
0.0005430000000000871
 10
906.6977340000011
 20
317.8472650000012
 42
0.0005430000000000871
  0
LWPOLYLINE
  5
14B
100
AcDbEntity
  8
0
  6
CONTINUOUS
 62
  256
370
   -1
100
AcDbPolyline
 90
    6
 70
    0
 43
0
 10
927.704348
 20
315.477539
 42
-0.2886669999999972
 10
929.2042469999999
 20
313.353225
 42
-0.2078410000000039
 10
928.462012
 20
311.7462560000001
 42
-0.3598719999999942
 10
923.667316
 20
311.6863030000001
 42
-0.4616199999999892
 10
923.537912
 20
314.898623
 42
-0.3040760000000051
 10
927.704348
 20
315.477539
 42
-0.3040760000000051
  0
ENDBLK
  5
CC
330
CA
100
AcDbEntity
  8
0
100
AcDbBlockEnd
  0
BLOCK
  5
CE
330
CD
100
AcDbEntity
  8
0
100
AcDbBlockBegin
  2
*R22
 70
    0
 10
1041.547163
 20
315.265824
  3
*R22
  1

  0
LWPOLYLINE
  5
14C
100
AcDbEntity
  8
0
  6
CONTINUOUS
 62
  256
370
   -1
100
AcDbPolyline
 90
   37
 70
    0
 43
0
 10
1023.441215
 20
317.847265
 10
1023.441215
 20
312.684383
 10
1024.550505
 20
312.7226
 10
1026.437756
 20
312.787616
 10
1028.323252
 20
312.852569
 10
1030.206993
 20
312.917459
 10
1032.089545
 20
312.982304
 10
1033.974229
 20
313.04722
 10
1035.856785
 20
313.112062
 10
1037.737217
 20
313.176829
 10
1039.615530000002
 20
313.2415229999979
 42
-0.0005249999999999483
 10
1050.855747000002
 20
313.6234049999985
 10
1052.722479
 20
313.683876
 10
1054.587515
 20
313.744291
 10
1056.449741
 20
313.804612
 10
1058.309165
 20
313.864842
 10
1059.653111
 20
313.908375
 10
1059.592845
 20
315.167416
 10
1057.226564
 20
315.167416
 10
1057.226564
 20
316.704856
 10
1056.468849999993
 20
316.7292899999984
 42
-0.0005059999999998384
 10
1045.273923999996
 20
317.0972239999983
 10
1043.400435
 20
317.161669
 10
1041.524455
 20
317.226187
 10
1039.649456
 20
317.290657
 10
1037.772834
 20
317.355163
 10
1035.894097
 20
317.419723
 10
1034.013241
 20
317.484335
 10
1032.130263
 20
317.549005
 10
1030.249281
 20
317.613598
 10
1028.367208
 20
317.678228
 10
1028.226564
 20
317.683057
 10
1028.226564
 20
315.166096
 10
1025.226564
 20
315.166096
 10
1025.226564
 20
317.786003
 10
1024.597803
 20
317.807578
 10
1023.441215
 20
317.847265
  0
ENDBLK
  5
CF
330
CD
100
AcDbEntity
  8
0
100
AcDbBlockEnd
  0
BLOCK
  5
D1
330
D0
100
AcDbEntity
  8
0
100
AcDbBlockBegin
  2
*R23
 70
    0
 10
1171.380905
 20
313.623575
  3
*R23
  1

  0
LWPOLYLINE
  5
14D
100
AcDbEntity
  8
0
  6
CONTINUOUS
 62
  256
370
   -1
100
AcDbPolyline
 90
  175
 70
    0
 43
0
 10
1254.34593
 20
312.198133
 10
1254.34593
 20
313.520181
 10
1257.083361
 20
313.520181
 10
1257.03278
 20
314.259386
 10
1257.305825
 20
314.265504
 10
1257.578869
 20
314.271621
 10
1257.851912
 20
314.277739
 10
1258.124953
 20
314.283858
 10
1258.397993
 20
314.289977
 10
1258.671032
 20
314.296097
 10
1258.944069
 20
314.302218
 10
1259.217105
 20
314.30834
 10
1259.490139
 20
314.314463
 10
1259.763172
 20
314.320587
 10
1260.036203
 20
314.326713
 10
1260.309233
 20
314.332841
 10
1260.582262
 20
314.33897
 10
1260.855289
 20
314.345101
 10
1261.128315
 20
314.351235
 10
1261.406131
 20
314.357477
 10
1261.705697
 20
314.364211
 10
1262.004551
 20
314.37093
 10
1262.302695
 20
314.377635
 10
1262.600131
 20
314.384326
 10
1262.896862
 20
314.391002
 10
1263.19289
 20
314.397664
 10
1263.488218
 20
314.404311
 10
1263.782848
 20
314.410944
 10
1264.076782
 20
314.417562
 10
1264.370024
 20
314.424165
 10
1264.662576
 20
314.430754
 10
1264.95444
 20
314.437328
 10
1265.245618
 20
314.443887
 10
1265.536113
 20
314.450432
 10
1265.825928
 20
314.456963
 10
1266.115064
 20
314.463478
 10
1266.403524
 20
314.46998
 10
1266.691311
 20
314.476466
 10
1266.978427
 20
314.482939
 10
1267.264873
 20
314.489397
 10
1267.550654
 20
314.49584
 10
1267.83577
 20
314.50227
 10
1268.120224
 20
314.508685
 10
1268.404019
 20
314.515086
 10
1268.687156
 20
314.521472
 10
1268.969638
 20
314.527845
 10
1269.251468
 20
314.534203
 10
1269.525817
 20
314.540393
 10
1269.774056
 20
314.545995
 10
1270.02285
 20
314.551609
 10
1270.272204
 20
314.557237
 10
1270.522118
 20
314.562878
 10
1270.772594
 20
314.568533
 10
1271.023634
 20
314.574201
 10
1271.27524
 20
314.579882
 10
1271.527414
 20
314.585576
 10
1271.780159
 20
314.591284
 10
1272.033475
 20
314.597005
 10
1272.287364
 20
314.60274
 10
1272.54183
 20
314.608488
 10
1272.796873
 20
314.614248
 10
1273.052496
 20
314.620022
 10
1273.108699
 20
314.621292
 10
1270.957936
 20
314.669569
 10
1268.327796
 20
314.728586
 10
1265.705255
 20
314.787403
 10
1263.08894
 20
314.846045
 10
1260.480097
 20
314.904483
 10
1257.880495
 20
314.962678
 10
1255.287868
 20
315.020685
 10
1252.703058
 20
315.078491
 10
1250.128959
 20
315.136039
 10
1247.562431
 20
315.19341
 10
1245.003611999999
 20
315.2506079999989
 42
-0.0006879999999999379
 10
1237.386641
 20
315.4223929999989
 10
1234.866878
 20
315.481572
 10
1232.355934
 20
315.540538
 10
1229.853208
 20
315.599301
 10
1227.360437
 20
315.657817
 10
1224.877163
 20
315.716091
 10
1222.402229
 20
315.774147
 10
1219.936797
 20
315.831954
 10
1217.482268
 20
315.889476
 10
1215.036222
 20
315.94677
 10
1212.598613
 20
316.003837
 10
1210.171278
 20
316.060636
 10
1207.754055
 20
316.117175
 10
1205.345348
 20
316.173496
 10
1202.945114
 20
316.229606
 10
1200.557322
 20
316.28542
 10
1198.179973
 20
316.3409890000012
 42
0.0007219999999999979
 10
1181.807088
 20
316.7243710000012
 10
1179.512193999999
 20
316.7736330000007
 42
0.0002099999999999573
 10
1174.948838
 20
316.8705390000005
 10
1172.684924
 20
316.91676
 10
1170.431281
 20
316.962649
 10
1168.186473
 20
317.008202
 10
1165.950449
 20
317.053411
 10
1163.730101
 20
317.098144
 10
1161.522528
 20
317.14249
 10
1159.323934
 20
317.186565
 10
1157.134267
 20
317.230416
 10
1154.958331
 20
317.273991
 42
0.005003999999999974
 10
1106.347964
 20
317.8470249999992
 42
0.01188199999999995
 10
1086.44973
 20
317.3953789999999
 42
0.02405299999999997
 10
1076.263348
 20
316.4608359999997
 42
0.04804199999999986
 10
1071.487781
 20
315.3923179999998
 10
1070.107511
 20
314.734472
 10
1069.653111
 20
314.120555
 10
1082.066534
 20
314.120555
 10
1082.066534
 20
313.120555
 10
1069.654242
 20
313.120555
 10
1069.993957
 20
312.560385
 10
1071.365244
 20
311.882588
 10
1072.896003
 20
311.4225270000001
 42
0.01944599999999974
 10
1076.128445
 20
310.7765570000001
 42
0.01809299999999989
 10
1084.581665
 20
309.9370170000001
 42
0.007083000000000101
 10
1094.345929
 20
309.5373269999999
 10
1094.345929
 20
313.513518
 10
1097.345929
 20
313.513518
 10
1097.345929
 20
309.47013
 42
0.00238500000000018
 10
1100.635813999998
 20
309.4264510000005
 42
0.004167999999999813
 10
1126.345928999997
 20
309.4898629999998
 10
1126.345929
 20
313.510207
 10
1129.345929
 20
313.510207
 10
1129.345928999999
 20
309.5251909999997
 42
0.001719999999999932
 10
1139.956335999999
 20
309.6969749999996
 10
1142.051159
 20
309.732116
 10
1144.155133999999
 20
309.7674109999998
 42
0.0001829999999998408
 10
1148.401044999996
 20
309.8413779999983
 10
1150.544903
 20
309.881909
 10
1152.69781
 20
309.922623
 10
1154.859822
 20
309.963518
 10
1157.036769
 20
310.004697
 10
1158.345931
 20
310.029461
 10
1158.345931
 20
313.517709
 10
1161.345931
 20
313.517709
 10
1161.345931
 20
310.088156
 10
1161.428078
 20
310.089849
 10
1163.637143
 20
310.135463
 10
1165.858561
 20
310.181504
 10
1168.096123
 20
310.228097
 10
1170.34248
 20
310.275105
 10
1172.597683
 20
310.322517
 10
1174.86292
 20
310.370321
 10
1177.141738
 20
310.418538
 10
1179.429337
 20
310.467004
 10
1181.725814999996
 20
310.5156579999989
 42
0.0003349999999997896
 10
1186.355992999994
 20
310.6184529999987
 10
1188.687953
 20
310.672595
 10
1190.34593
 20
310.711089
 10
1190.34593
 20
313.519736
 10
1193.34593
 20
313.519736
 10
1193.34593
 20
310.781003
 10
1193.378547
 20
310.78177
 10
1195.740418
 20
310.837363
 10
1198.110877
 20
310.893157
 10
1200.489973
 20
310.9491550000002
 42
-0.0005200000000000044
 10
1210.11068
 20
311.1799890000002
 10
1212.539882
 20
311.236352
 10
1214.979454
 20
311.292995
 10
1217.427468
 20
311.349869
 10
1219.883969
 20
311.406956
 10
1222.34593
 20
311.46417
 10
1222.34593
 20
313.519075
 10
1225.34593
 20
313.519075
 10
1225.34593
 20
311.534115
 10
1227.313511
 20
311.58003
 10
1229.808239
 20
311.638246
 10
1232.312991999999
 20
311.696697000003
 42
-0.0006079999999999801
 10
1244.970800999999
 20
311.9889890000022
 10
1247.531689
 20
312.046118
 10
1250.100353
 20
312.103421
 10
1252.6766
 20
312.160893
 10
1254.34593
 20
312.198133
  0
ENDBLK
  5
D2
330
D0
100
AcDbEntity
  8
0
100
AcDbBlockEnd
  0
BLOCK
  5
D4
330
D3
100
AcDbEntity
  8
0
100
AcDbBlockBegin
  2
*R24
 70
    0
 10
1374.69404
 20
313.962247
  3
*R24
  1

  0
LWPOLYLINE
  5
14E
100
AcDbEntity
  8
0
  6
CONTINUOUS
 62
  256
370
   -1
100
AcDbPolyline
 90
  149
 70
    0
 43
0
 10
1304.501511
 20
310.2367649999998
 42
0.007122999999999814
 10
1316.037414999996
 20
310.077264999999
 42
0.001843000000000097
 10
1333.501510999999
 20
310.1925279999996
 10
1333.501511
 20
313.876164
 10
1336.501511
 20
313.876164
 10
1336.501510999998
 20
310.2252899999994
 42
0.002404000000000013
 10
1359.26957999999
 20
310.597824999998
 42
0.0002669999999998133
 10
1365.501510999988
 20
310.7161139999971
 10
1365.501511
 20
313.866895
 10
1368.501511
 20
313.866895
 10
1368.501510999992
 20
310.775434000002
 42
0.0003820000000001776
 10
1377.398130999996
 20
310.9604300000019
 10
1379.478655
 20
311.008231
 10
1381.569858000001
 20
311.0562769999997
 42
-0.0001939999999999912
 10
1385.797227000001
 20
311.1527589999996
 42
-0.0002979999999999403
 10
1390.073348999997
 20
311.252712
 42
0.0003830000000002963
 10
1394.400735999999
 20
311.3518940000004
 10
1396.584535
 20
311.402539
 10
1397.501512
 20
311.423804
 10
1397.501512
 20
313.868771
 10
1400.501512
 20
313.868771
 10
1400.501512
 20
311.493326
 10
1400.98386
 20
311.504479
 10
1403.205166
 20
311.555842
 10
1405.438719
 20
311.607484
 10
1407.682712
 20
311.659364
 10
1409.937218
 20
311.711483
 10
1412.206566
 20
311.763943
 10
1414.488792
 20
311.816699
 10
1416.781303
 20
311.869691
 10
1419.08417
 20
311.922922
 10
1421.400672
 20
311.976468
 10
1423.729652
 20
312.030302
 10
1426.068762999997
 20
312.0843700000005
 42
-0.0001560000000000848
 10
1429.501510999999
 20
312.16489
 10
1429.501511
 20
313.869486
 10
1432.501511
 20
313.869486
 10
1432.501510999999
 20
312.233505000002
 42
-0.0002470000000000893
 10
1437.933517999997
 20
312.3535790000024
 42
0.0002589999999999679
 10
1442.756212999997
 20
312.4586179999997
 10
1445.182704
 20
312.511344
 10
1447.619156
 20
312.564286
 10
1450.068288
 20
312.617505
 10
1450.612726
 20
312.629335
 10
1450.480331
 20
314.62786
 10
1450.753552
 20
314.633753
 10
1451.02677
 20
314.639647
 10
1451.299988
 20
314.645542
 10
1451.573204
 20
314.651438
 10
1451.846418
 20
314.657334
 10
1452.119631
 20
314.663232
 10
1452.392843
 20
314.669131
 10
1452.666053
 20
314.675031
 10
1452.939262
 20
314.680933
 10
1453.21247
 20
314.686836
 10
1453.485676
 20
314.692741
 10
1453.758881
 20
314.698647
 10
1454.032084
 20
314.704555
 10
1454.305286
 20
314.710464
 10
1454.578486
 20
314.716375
 10
1454.851686
 20
314.722288
 10
1455.124883
 20
314.728202
 10
1455.398079
 20
314.734118
 10
1455.671274
 20
314.740036
 10
1455.944468
 20
314.745956
 10
1456.21766
 20
314.751877
 10
1456.490851
 20
314.7578
 10
1456.76404
 20
314.763725
 10
1457.037228
 20
314.769651
 10
1457.310415
 20
314.77558
 10
1457.5836
 20
314.78151
 10
1457.856785
 20
314.787442
 10
1458.129968
 20
314.793376
 10
1458.403149
 20
314.799311
 10
1458.676329
 20
314.805248
 10
1458.949508
 20
314.811187
 10
1459.222685
 20
314.817128
 10
1459.495861
 20
314.82307
 10
1459.769036
 20
314.829013
 10
1460.042209
 20
314.834959
 10
1460.315381
 20
314.840906
 10
1460.588551
 20
314.846854
 10
1460.86172
 20
314.852804
 10
1461.134887
 20
314.858756
 10
1461.408053
 20
314.864709
 10
1461.681218
 20
314.870664
 10
1461.954381
 20
314.87662
 10
1462.227543
 20
314.882578
 10
1462.500703
 20
314.888537
 10
1462.773862
 20
314.894498
 10
1463.04702
 20
314.900461
 10
1463.320176
 20
314.906425
 10
1463.593331
 20
314.912391
 10
1463.866484
 20
314.918358
 10
1464.139636
 20
314.924327
 10
1464.412787
 20
314.930297
 10
1464.685936
 20
314.936268
 10
1464.959084
 20
314.94224
 10
1465.23223
 20
314.948214
 10
1465.505375
 20
314.954187
 10
1465.778519
 20
314.960162
 10
1466.051661
 20
314.966136
 10
1466.279381
 20
314.971117
 10
1464.980576
 20
314.999401
 10
1462.474612
 20
315.053948
 10
1459.978247
 20
315.108253
 10
1457.491426
 20
315.162309
 10
1455.015033
 20
315.216097
 10
1452.548464
 20
315.269633
 10
1450.091511
 20
315.322928
 10
1447.644374
 20
315.375988
 10
1445.209865
 20
315.428764
 10
1442.785293999998
 20
315.4813229999986
 42
-0.0007630000000001061
 10
1430.819041999996
 20
315.7438469999979
 10
1428.458332
 20
315.798322
 10
1426.110863
 20
315.852493
 10
1423.773575
 20
315.906431
 10
1421.446401
 20
315.96014
 10
1419.131569
 20
316.013569
 10
1416.830463
 20
316.066691
 10
1414.539696
 20
316.119584
 10
1412.259199
 20
316.172251
 10
1409.991401
 20
316.224637
 10
1407.738603
 20
316.276689
 10
1405.496307
 20
316.328508
 10
1403.264439
 20
316.380095
 10
1401.044575
 20
316.431409
 10
1398.841146
 20
316.482347
 10
1396.648322
 20
316.5330390000017
 42
0.0003300000000000783
 10
1390.141460000002
 20
316.6820640000005
 42
0.001733999999999912
 10
1349.748551000004
 20
317.5057199999974
 42
0.0004059999999999983
 10
1340.458239000001
 20
317.6531019999984
 42
0.008092999999999956
 10
1306.490798
 20
317.7567530000001
 42
0.01560499999999996
 10
1294.354711
 20
317.2067230000001
 42
0.03256900000000014
 10
1287.267155
 20
316.3022219999999
 42
0.04360099999999995
 10
1284.628323
 20
315.577973
 10
1283.460791
 20
314.980273
 10
1283.108699
 20
314.469867
 10
1294.641561
 20
314.469867
 10
1294.641561
 20
313.469867
 10
1283.113642
 20
313.469867
 10
1283.379169
 20
313.01453
 10
1284.525973
 20
312.392818
 42
0.05166099999999998
 10
1288.530074
 20
311.397121
 42
0.02710699999999982
 10
1298.673763
 20
310.4424020000001
 42
0.001747000000000053
 10
1301.501511
 20
310.3321280000002
 10
1301.501511
 20
313.878991
 10
1304.501511
 20
313.878991
 10
1304.501511
 20
310.236765
  0
ENDBLK
  5
D5
330
D3
100
AcDbEntity
  8
0
100
AcDbBlockEnd
  0
BLOCK
  5
D7
330
D6
100
AcDbEntity
  8
0
100
AcDbBlockBegin
  2
*R25
 70
    0
 10
1555.255407
 20
314.37738
  3
*R25
  1

  0
LWPOLYLINE
  5
14F
100
AcDbEntity
  8
0
  6
CONTINUOUS
 62
  256
370
   -1
100
AcDbPolyline
 90
  101
 70
    0
 43
0
 10
1486.598461
 20
311.394918
 42
0.006902999999999689
 10
1488.531917
 20
311.2764030000001
 42
0.01416299999999971
 10
1507.966638999996
 20
310.9256179999998
 42
0.000566000000000012
 10
1515.598459999997
 20
310.9980689999993
 10
1515.59846
 20
314.293758
 10
1518.59846
 20
314.293758
 10
1518.598459999997
 20
311.0312829999989
 42
0.002151999999999769
 10
1547.598459999994
 20
311.4901249999994
 10
1547.59846
 20
314.275228
 10
1550.59846
 20
314.275228
 10
1550.598459999998
 20
311.5518459999994
 42
0.0008549999999998514
 10
1562.111758999996
 20
311.8135329999991
 10
1563.998804
 20
311.8577380000002
 42
0.0008359999999998981
 10
1577.607008999999
 20
312.1696360000005
 10
1579.59846
 20
312.215297
 10
1579.59846
 20
314.281529
 10
1582.59846
 20
314.281529
 10
1582.59846
 20
312.283844
 10
1583.653348
 20
312.307582
 10
1585.696077
 20
312.353468
 10
1587.755747
 20
312.399608
 10
1589.82793
 20
312.445866
 10
1591.912743
 20
312.492217
 10
1594.010299
 20
312.538644
 10
1596.124852
 20
312.58523
 10
1598.252704
 20
312.631894
 10
1600.393265
 20
312.678633
 10
1602.54665
 20
312.725475
 10
1604.715977
 20
312.77252
 10
1606.900618
 20
312.819796
 10
1609.097851
 20
312.867292
 10
1611.307782
 20
312.915055
 10
1611.598461
 20
312.921338
 10
1611.598461
 20
314.283506
 10
1614.598461
 20
314.283506
 10
1614.598461
 20
312.984937
 10
1615.771575
 20
313.0098069999995
 42
-0.0001429999999999641
 10
1618.997269
 20
313.0772269999998
 10
1618.867627
 20
315.075641
 10
1619.141113
 20
315.081312
 10
1619.414597
 20
315.0869830000011
 42
-0.0001560000000000848
 10
1622.422808999999
 20
315.148825000002
 10
1622.696281
 20
315.154165
 10
1622.969751
 20
315.159505
 10
1623.243217
 20
315.164846
 10
1623.516681
 20
315.170187
 10
1623.790141
 20
315.17553
 10
1624.063598
 20
315.180873
 10
1624.337053
 20
315.186218
 10
1624.610504
 20
315.191565
 10
1624.883952
 20
315.196914
 10
1625.157397
 20
315.202265
 10
1625.430838
 20
315.207619
 10
1625.704277
 20
315.212974
 10
1625.977712
 20
315.218331
 10
1626.251144
 20
315.223689
 10
1626.524573
 20
315.229049
 10
1626.797999
 20
315.234409
 10
1627.071420999999
 20
315.2397690000007
 42
0.0002009999999998169
 10
1631.719031999995
 20
315.3325679999998
 10
1631.992364
 20
315.338303
 10
1632.265691
 20
315.344037
 10
1632.539013
 20
315.349772
 10
1632.812331
 20
315.355506
 10
1633.085645
 20
315.36124
 10
1633.358954
 20
315.366974
 10
1633.632259
 20
315.372708
 10
1633.905559
 20
315.378442
 10
1634.178854
 20
315.384175
 10
1634.231433
 20
315.3852779999988
 42
0.0003140000000000055
 10
1627.179948999992
 20
315.5273919999977
 42
-0.0004279999999999148
 10
1620.309742999994
 20
315.6633460000003
 10
1618.046842
 20
315.710981
 10
1615.796466
 20
315.75843
 10
1613.558513
 20
315.805728
 10
1611.336034
 20
315.852841
 10
1609.127768
 20
315.899817
 10
1606.93218
 20
315.946708
 10
1604.749162
 20
315.993528
 10
1602.581373
 20
316.040226
 10
1600.429636
 20
316.086788
 10
1598.290705
 20
316.133277
 10
1596.164468
 20
316.179684
 10
1594.05141
 20
316.225984
 10
1591.955383
 20
316.27207
 10
1589.87208
 20
316.318014
 10
1587.801384
 20
316.363792
 10
1585.743182
 20
316.409379
 10
1583.701759
 20
316.45465
 10
1581.675209
 20
316.49962
 10
1579.661194
 20
316.544312
 42
0.002713000000000009
 10
1518.190538000001
 20
317.7552630000011
 42
0.01053200000000003
 10
1492.249622
 20
317.6572720000005
 42
0.02640800000000003
 10
1481.677768
 20
316.829615
 42
0.05961299999999973
 10
1477.428945
 20
315.787453
 10
1476.513172
 20
315.264575
 10
1476.279381
 20
314.884137
 10
1486.628354
 20
314.884137
 10
1486.628354
 20
313.884137
 10
1486.598461
 20
313.884137
 10
1486.598461
 20
311.394918
  0
ENDBLK
  5
D8
330
D6
100
AcDbEntity
  8
0
100
AcDbBlockEnd
  0
BLOCK
  5
DA
330
D9
100
AcDbEntity
  8
0
100
AcDbBlockBegin
  2
*R26
 70
    0
 10
1701.721258
 20
314.934582
  3
*R26
  1

  0
LWPOLYLINE
  5
150
100
AcDbEntity
  8
0
  6
CONTINUOUS
 62
  256
370
   -1
100
AcDbPolyline
 90
  101
 70
    0
 43
0
 10
1644.231433
 20
312.244901
 42
0.01412699999999996
 10
1655.744691
 20
312.03153
 10
1655.744691
 20
314.845094
 10
1658.744691
 20
314.845094
 10
1658.744690999998
 20
312.0543470000002
 42
0.002957999999999981
 10
1687.744691999998
 20
312.4529079999998
 10
1687.744692
 20
314.843454
 10
1690.744692
 20
314.843454
 10
1690.744691999999
 20
312.513731
 42
0.0003710000000000061
 10
1694.380635999998
 20
312.5923720000028
 42
-0.0004600000000000765
 10
1703.727858999994
 20
312.8010060000029
 42
0.0005120000000004243
 10
1710.296577
 20
312.9347809999999
 10
1711.984463
 20
312.971818
 10
1713.686747
 20
313.0091710000002
 42
-0.0003729999999999427
 10
1719.744691
 20
313.1557260000004
 10
1719.744691
 20
314.85118
 10
1722.744691
 20
314.85118
 10
1722.744691000001
 20
313.2249590000001
 42
-0.0004320000000000044
 10
1729.776173
 20
313.378549
 10
1731.648868
 20
313.415832
 10
1733.536561
 20
313.453367
 10
1735.439433
 20
313.491147
 10
1737.364178
 20
313.529302
 10
1739.305596
 20
313.567738
 10
1741.261866
 20
313.606431
 10
1743.233159
 20
313.645402
 10
1745.219838
 20
313.684675
 10
1745.431173
 20
313.688853
 10
1745.308529
 20
315.688268
 10
1745.582236
 20
315.693564
 10
1745.855942
 20
315.698859
 10
1746.129646
 20
315.704152
 10
1746.403348
 20
315.709443
 10
1746.677049
 20
315.714731
 10
1746.950748
 20
315.720016
 10
1747.224445
 20
315.725298
 10
1747.49814
 20
315.730577
 10
1747.771834
 20
315.735853
 10
1748.045525
 20
315.741125
 10
1748.319216
 20
315.746393
 10
1748.592904
 20
315.751658
 10
1748.866591
 20
315.75692
 10
1749.140275
 20
315.762178
 10
1749.413959
 20
315.767432
 10
1749.68764
 20
315.772683
 10
1749.96132
 20
315.777931
 10
1750.234997
 20
315.783175
 10
1750.508673
 20
315.788416
 10
1750.782348
 20
315.793654
 10
1751.05602
 20
315.798888
 10
1751.329691
 20
315.804119
 10
1751.60336
 20
315.809347
 10
1751.877027
 20
315.814571
 10
1752.150693
 20
315.81979
 10
1752.424357
 20
315.825006
 10
1752.698018
 20
315.830216
 10
1752.971679
 20
315.83542
 10
1753.245337
 20
315.840619
 10
1753.518994
 20
315.845811
 10
1753.792649
 20
315.850997
 10
1754.613602
 20
315.866548
 10
1754.887248
 20
315.871725
 10
1755.160891
 20
315.876897
 10
1755.434532
 20
315.882063
 10
1755.70817
 20
315.887225
 10
1755.981806
 20
315.892382
 10
1756.255439
 20
315.897535
 10
1756.52907
 20
315.902686
 10
1756.802699
 20
315.907833
 10
1757.076324
 20
315.912978
 10
1757.349948
 20
315.918121
 10
1757.623568
 20
315.923262
 10
1757.897187
 20
315.928402
 10
1758.170802
 20
315.933541
 10
1758.444415
 20
315.938679
 10
1758.718025
 20
315.943816
 10
1758.991633
 20
315.948953
 10
1759.211082
 20
315.953074
 10
1757.499489
 20
315.985669
 10
1755.416631
 20
316.025393
 10
1753.350288
 20
316.064884
 10
1751.300737
 20
316.104147
 10
1749.266418
 20
316.143213
 10
1747.247161
 20
316.182077
 10
1745.242801
 20
316.220725
 10
1743.257618
 20
316.259052
 10
1741.287837
 20
316.297105
 10
1739.333044
 20
316.3348700000006
 42
-0.0005580000000000777
 10
1726.113060999998
 20
316.6039090000004
 10
1724.295722
 20
316.644144
 10
1722.493308
 20
316.684048
 10
1720.705635
 20
316.723626
 10
1718.932524
 20
316.762881
 10
1717.175096999997
 20
316.8017889999974
 42
-0.0004450000000001189
 10
1707.019199999994
 20
317.01458
 42
0.001029000000000028
 10
1695.947373000001
 20
317.2674299999999
 42
0.0008250000000000407
 10
1680.150544000001
 20
317.5743969999971
 42
0.0002219999999999888
 10
1677.496488
 20
317.6208109999994
 42
0.007468999999999982
 10
1649.024717
 20
317.8161900000002
 42
0.00957699999999998
 10
1644.231433
 20
317.675117
 10
1644.231433
 20
312.244901
  0
ENDBLK
  5
DB
330
D9
100
AcDbEntity
  8
0
100
AcDbBlockEnd
  0
BLOCK
  5
DD
330
DC
100
AcDbEntity
  8
0
100
AcDbBlockBegin
  2
*R27
 70
    0
 10
1789.947453
 20
316.056591
  3
*R27
  1

  0
LWPOLYLINE
  5
151
100
AcDbEntity
  8
0
  6
CONTINUOUS
 62
  256
370
   -1
100
AcDbPolyline
 90
   49
 70
    0
 43
0
 10
1769.211082
 20
317.847265
 10
1769.211082
 20
314.265917
 10
1770.068503
 20
314.2849539999997
 42
-0.0007319999999999952
 10
1778.758391
 20
314.4728909999994
 42
-0.0007090000000000082
 10
1787.723202
 20
314.6556329999994
 10
1787.723202
 20
315.947667
 10
1790.723202
 20
315.947667
 10
1790.723202
 20
314.7111069999992
 42
-0.0002839999999999374
 10
1794.314882
 20
314.7737769999994
 10
1795.84067
 20
314.800027
 10
1797.393254
 20
314.826736
 10
1798.964637
 20
314.853769
 10
1799.697294
 20
314.866373
 10
1799.585343
 20
316.865775
 10
1799.85935
 20
316.870418
 10
1800.133355
 20
316.875058
 10
1800.407358
 20
316.879692
 10
1800.68136
 20
316.884321
 10
1800.95536
 20
316.888943
 10
1801.229359
 20
316.893558
 10
1801.503356
 20
316.898166
 10
1801.777351
 20
316.902769
 10
1802.051344
 20
316.907367
 10
1802.325336
 20
316.911964
 10
1802.599326
 20
316.9165600000006
 42
-0.0001279999999999602
 10
1805.61312
 20
316.9662250000001
 10
1805.887096
 20
316.970583
 10
1806.161068
 20
316.974937
 10
1806.435037
 20
316.979287
 10
1806.709002
 20
316.983633
 10
1806.982964
 20
316.987973
 10
1807.256922
 20
316.992308
 10
1807.530876
 20
316.996637
 10
1807.804827
 20
317.00096
 10
1808.078775
 20
317.005277
 10
1808.352718
 20
317.009588
 10
1808.626658
 20
317.013894
 10
1808.900594
 20
317.018194
 10
1809.174527
 20
317.022489
 10
1809.448456
 20
317.026779
 10
1809.722381
 20
317.031064
 10
1809.996303
 20
317.035346
 10
1810.270221
 20
317.039626
 10
1810.544135
 20
317.043905
 10
1810.683823
 20
317.046087
 10
1810.518157999995
 20
317.0487419999981
 42
-0.001165000000000074
 10
1782.809385999994
 20
317.5358419999998
 42
0.0003970000000000313
 10
1776.215458999999
 20
317.6946800000023
 42
0.0006470000000000435
 10
1769.211082
 20
317.8472650000003
 42
0.0006470000000000435
  0
ENDBLK
  5
DE
330
DC
100
AcDbEntity
  8
0
100
AcDbBlockEnd
  0
BLOCK
  5
E0
330
DF
100
AcDbEntity
  8
0
100
AcDbBlockBegin
  2
*R28
 70
    0
 10
1900.427432
 20
313.331279
  3
*R28
  1

  0
LWPOLYLINE
  5
152
100
AcDbEntity
  8
0
  6
CONTINUOUS
 62
  256
370
   -1
100
AcDbPolyline
 90
   76
 70
    0
 43
0
 10
1980.17104
 20
310.918009
 10
1980.17104
 20
315.743227
 10
1980.085446
 20
315.745256
 10
1977.488036
 20
315.806812
 10
1974.894881
 20
315.868263
 10
1972.313729
 20
315.929424
 10
1969.743063
 20
315.990333
 10
1967.17746
 20
316.051117
 10
1964.627537
 20
316.111528
 10
1962.087575
 20
316.171703
 10
1959.553459
 20
316.23174
 10
1957.032468
 20
316.291467
 10
1954.524671
 20
316.350882
 10
1952.02337
 20
316.410144
 10
1949.532072
 20
316.46917
 10
1947.056894000001
 20
316.5278139999982
 42
0.0003469999999999891
 10
1939.683716
 20
316.6971259999991
 10
1937.247558
 20
316.750057
 10
1934.818691
 20
316.802829
 10
1932.402501000002
 20
316.8553259999999
 42
0.002210000000000114
 10
1879.441636999999
 20
317.7527259999988
 42
0.007801999999999954
 10
1849.85337
 20
317.70888
 42
0.01658799999999999
 10
1833.967739
 20
316.9955719999999
 42
0.02597199999999998
 10
1826.397533
 20
316.0940639999999
 42
0.04175900000000014
 10
1822.824331
 20
315.2357880000002
 10
1821.232176
 20
314.535273
 10
1820.683823
 20
313.832229
 10
1833.857792
 20
313.832229
 10
1833.857792
 20
312.832229
 10
1820.694935
 20
312.832229
 10
1821.109733
 20
312.191059
 10
1822.679618
 20
311.459896
 10
1824.426714
 20
310.966284
 42
0.02752999999999997
 10
1829.991834
 20
310.0253109999999
 42
0.0124040000000001
 10
1839.682419
 20
309.2755559999998
 42
0.004202000000000064
 10
1848.322959
 20
308.981693
 10
1848.322959
 20
313.227003
 10
1851.322959
 20
313.227003
 10
1851.322959
 20
308.9136519999997
 42
0.004232999999999753
 10
1860.031153999998
 20
308.8152940000004
 42
0.001913999999999748
 10
1880.322959999996
 20
308.9257279999997
 10
1880.32296
 20
313.231245
 10
1883.32296
 20
313.231245
 10
1883.322959999995
 20
308.9552370000001
 42
0.002608000000000205
 10
1910.968876999998
 20
309.3870259999999
 10
1912.322959
 20
309.413338
 10
1912.322959
 20
313.232866
 10
1915.322959
 20
313.232866
 10
1915.322959
 20
309.471768
 10
1915.643925
 20
309.478068
 10
1917.993865
 20
309.52419
 10
1920.357671
 20
309.570584
 10
1922.729071
 20
309.617127
 10
1925.108100999994
 20
309.6638200000034
 42
0.0006380000000000526
 10
1937.155462999995
 20
309.9083030000029
 10
1939.593407
 20
309.963945
 10
1942.038692
 20
310.019756
 10
1944.322959
 20
310.071892
 10
1944.322959
 20
313.230061
 10
1947.322959
 20
313.230061
 10
1947.322959
 20
310.140628
 10
1949.449129
 20
310.189428
 10
1951.941977
 20
310.246643
 10
1954.44517
 20
310.3040959999989
 42
-0.0003249999999999917
 10
1962.013249000001
 20
310.4867249999998
 10
1964.555225
 20
310.547093
 10
1967.106758
 20
310.60769
 10
1969.674354
 20
310.668673
 10
1972.247024
 20
310.729779
 10
1974.829905
 20
310.791129
 10
1976.322959
 20
310.826592
 10
1976.322959
 20
313.230524
 10
1979.322959
 20
313.230524
 10
1979.322959
 20
310.897861
 10
1980.024762
 20
310.914534
 10
1980.17104
 20
310.918009
  0
LWPOLYLINE
  5
153
100
AcDbEntity
  8
0
  6
CONTINUOUS
 62
  256
370
   -1
100
AcDbPolyline
 90
    4
 70
    0
 43
0
 10
1917.798163
 20
314.112313
 42
-0.1250209999999997
 10
1918.000908
 20
313.332229
 42
-0.1231049999999944
 10
1917.798163
 20
312.5521460000001
 10
1917.798163
 20
314.112313
  0
ENDBLK
  5
E1
330
DF
100
AcDbEntity
  8
0
100
AcDbBlockEnd
  0
BLOCK
  5
E3
330
E2
100
AcDbEntity
  8
0
100
AcDbBlockBegin
  2
*R29
 70
    0
 10
2041.274287
 20
313.115871
  3
*R29
  1

  0
LWPOLYLINE
  5
154
100
AcDbEntity
  8
0
  6
CONTINUOUS
 62
  256
370
   -1
100
AcDbPolyline
 90
   39
 70
    0
 43
0
 10
2092.377532999999
 20
317.1331369999998
 42
0.001688000000000067
 10
2052.099913999999
 20
317.7606670000007
 42
0.007234999999999937
 10
2022.402917
 20
317.7167550000008
 42
0.014903
 10
2004.959541
 20
316.9846130000001
 42
0.03235500000000002
 10
1994.529945
 20
315.65164
 10
1992.576037
 20
315.126184
 10
1990.805052
 20
314.385903
 10
1990.17104
 20
313.61332
 10
2004.054586
 20
313.61332
 10
2004.054586
 20
312.61332
 10
1990.187463
 20
312.61332
 10
1990.668805
 20
311.906152
 10
1992.41513
 20
311.133407
 42
0.03765699999999999
 10
1998.459314
 20
309.8850269999999
 42
0.01597400000000016
 10
2009.083828
 20
308.9481539999998
 42
0.004200999999999735
 10
2017.530592
 20
308.6190429999998
 10
2017.530592
 20
313.015919
 10
2020.530592
 20
313.015919
 10
2020.530592
 20
308.5363499999999
 42
0.00643699999999967
 10
2033.480258999993
 20
308.3848230000003
 42
0.001619000000000111
 10
2049.530591999996
 20
308.4482890000004
 10
2049.530592
 20
313.016767
 10
2052.530592
 20
313.016767
 10
2052.530591999999
 20
308.4716819999985
 42
0.00292600000000019
 10
2081.530590999998
 20
308.8850779999984
 10
2081.530591
 20
313.009349
 10
2084.530591
 20
313.009349
 10
2084.530591
 20
308.945286
 10
2086.049935
 20
308.974412
 10
2088.588931
 20
309.023086
 10
2091.131984
 20
309.071837
 10
2092.377533
 20
309.095714
 10
2092.377533
 20
310.606686
 42
-0.03794800000000012
 10
2091.528105
 20
310.638766
 42
-0.1728540000000056
 10
2088.622009
 20
311.829127
 42
-0.4208109999999831
 10
2088.496729
 20
314.258886
 42
-0.1814070000000005
 10
2091.274346
 20
315.560326
 42
-0.04894800000000012
 10
2092.377533
 20
315.622732
 10
2092.377533
 20
317.133137
  0
ENDBLK
  5
E4
330
E2
100
AcDbEntity
  8
0
100
AcDbBlockEnd
  0
BLOCK
  5
E6
330
E5
100
AcDbEntity
  8
0
100
AcDbBlockBegin
  2
*R30
 70
    0
 10
2123.5534
 20
312.987713
  3
*R30
  1

  0
LWPOLYLINE
  5
155
100
AcDbEntity
  8
0
  6
CONTINUOUS
 62
  256
370
   -1
100
AcDbPolyline
 90
   20
 70
    0
 43
0
 10
2144.729267
 20
317.8472650000001
 42
0.001209000000000028
 10
2137.611744
 20
317.7835340000001
 42
0.01427899999999994
 10
2118.462377
 20
317.043582
 42
0.03137900000000001
 10
2107.121685
 20
315.660195
 10
2105.010673
 20
315.112468
 10
2103.08582
 20
314.340145
 10
2102.377533
 20
313.511392
 10
2116.847381
 20
313.511392
 10
2116.847381
 20
312.511392
 10
2102.398619
 20
312.511392
 10
2102.937691
 20
311.750912
 10
2104.835839
 20
310.9446539999998
 42
0.03661199999999995
 10
2111.387971
 20
309.6448529999998
 42
0.0162999999999998
 10
2122.956486999999
 20
308.6805370000001
 42
0.001662000000000345
 10
2126.883467
 20
308.5215479999998
 10
2126.883467
 20
312.915699
 10
2129.883467
 20
312.915699
 10
2129.883467
 20
308.4177050000002
 42
0.006280000000000104
 10
2144.729267
 20
308.128161
 10
2144.729267
 20
317.847265
  0
ENDBLK
  5
E7
330
E5
100
AcDbEntity
  8
0
100
AcDbBlockEnd
  0
BLOCK
  5
E9
330
E8
100
AcDbEntity
  8
0
100
AcDbBlockBegin
  2
*R31
 70
    0
 10
135.50046
 20
288.541859
  3
*R31
  1

  0
LWPOLYLINE
  5
156
100
AcDbEntity
  8
0
  6
CONTINUOUS
 62
  256
370
   -1
100
AcDbPolyline
 90
  564
 70
    0
 43
0
 10
0.000218
 20
278.955556
 10
0.000217
 20
278.975813
 10
0.000216
 20
278.996069
 10
0.000215
 20
279.016326
 10
0.000214
 20
279.036582
 10
0.000213
 20
279.056839
 10
0.000212
 20
279.077096
 10
0.000211
 20
279.097352
 10
0.000211
 20
279.117609
 10
0.00021
 20
279.137866
 10
0.000209
 20
279.158122
 10
0.000208
 20
279.178379
 10
0.000207
 20
279.198636
 10
0.000206
 20
279.218892
 10
0.000205
 20
279.239149
 10
0.000204
 20
279.259405
 10
0.000204
 20
279.279662
 10
0.000203
 20
279.299919
 10
0.000202
 20
279.320175
 10
0.000201
 20
279.340432
 10
0.0002
 20
279.360689
 10
0.000199
 20
279.380945
 10
0.000198
 20
279.401202
 10
0.000198
 20
279.421459
 10
0.000197
 20
279.441715
 10
0.000196
 20
279.461972
 10
0.000195
 20
279.482228
 10
0.000194
 20
279.502485
 10
0.000193
 20
279.522742
 10
0.000192
 20
279.542998
 10
0.000191
 20
279.563255
 10
0.000191
 20
279.583512
 10
0.00019
 20
279.603768
 10
0.000189
 20
279.624025
 10
0.000188
 20
279.644282
 10
0.000187
 20
279.664538
 10
0.000186
 20
279.684795
 10
0.000185
 20
279.705051
 10
0.000184
 20
279.725308
 10
0.000184
 20
279.745565
 10
0.000183
 20
279.765821
 10
0.000182
 20
279.786078
 10
0.000181
 20
279.806335
 10
0.00018
 20
279.826591
 10
0.000179
 20
279.846848
 10
0.000178
 20
279.867105
 10
0.000177
 20
279.887361
 10
0.000177
 20
279.907618
 10
0.000176
 20
279.927875
 10
0.000175
 20
279.948131
 10
0.000174
 20
279.968388
 10
0.000173
 20
279.988644
 10
0.000172
 20
280.008901
 10
0.000171
 20
280.029158
 10
0.00017
 20
280.049414
 10
0.00017
 20
280.069671
 10
0.000169
 20
280.089928
 10
0.000168
 20
280.110184
 10
0.000167
 20
280.130441
 10
0.000166
 20
280.150698
 10
0.000165
 20
280.170954
 10
0.000164
 20
280.191211
 10
0.000163
 20
280.211467
 10
0.000163
 20
280.231724
 10
0.000162
 20
280.251981
 10
0.000161
 20
280.272237
 10
0.00016
 20
280.292494
 10
0.000159
 20
280.312751
 10
0.000158
 20
280.333007
 10
0.000157
 20
280.353264
 10
0.000156
 20
280.373521
 10
0.000156
 20
280.393777
 10
0.000155
 20
280.414034
 10
0.000154
 20
280.43429
 10
0.000153
 20
280.454547
 10
0.000152
 20
280.474804
 10
0.000151
 20
280.49506
 10
0.00015
 20
280.515317
 10
0.000149
 20
280.535574
 10
0.000149
 20
280.55583
 10
0.000148
 20
280.576087
 10
0.000147
 20
280.596344
 10
0.000146
 20
280.6166
 10
0.000145
 20
280.636857
 10
0.000144
 20
280.657113
 10
0.000143
 20
280.67737
 10
0.000142
 20
280.697627
 10
0.000142
 20
280.717883
 10
0.000141
 20
280.73814
 10
0.00014
 20
280.758397
 10
0.000139
 20
280.778653
 10
0.000138
 20
280.79891
 10
0.000137
 20
280.819167
 10
0.000136
 20
280.839423
 10
0.000135
 20
280.85968
 10
0.000135
 20
280.879936
 10
0.000134
 20
280.900193
 10
0.000133
 20
280.92045
 10
0.000132
 20
280.940706
 10
0.000131
 20
280.960963
 10
0.00013
 20
280.98122
 10
0.000129
 20
281.001476
 10
0.000128
 20
281.021733
 10
0.000128
 20
281.04199
 10
0.000127
 20
281.062246
 10
0.000126
 20
281.082503
 10
0.000125
 20
281.102759
 10
0.000124
 20
281.123016
 10
0.000123
 20
281.143273
 10
0.000122
 20
281.163529
 10
0.000121
 20
281.183786
 10
0.000121
 20
281.204043
 10
0.00012
 20
281.224299
 10
0.000119
 20
281.244556
 10
0.000118
 20
281.264813
 10
0.000117
 20
281.285069
 10
0.000116
 20
281.305326
 10
0.000115
 20
281.325582
 10
0.000114
 20
281.345839
 10
0.000114
 20
281.366096
 10
0.000113
 20
281.386352
 10
0.000112
 20
281.406609
 10
0.000111
 20
281.426866
 10
0.00011
 20
281.447122
 10
0.000109
 20
281.467379
 10
0.000108
 20
281.487636
 10
0.000107
 20
281.507892
 10
0.000107
 20
281.528149
 10
0.000106
 20
281.548405
 10
0.000105
 20
281.568662
 10
0.000104
 20
281.588919
 10
0.000103
 20
281.609175
 10
0.000102
 20
281.629432
 10
0.000101
 20
281.649689
 10
0.000101
 20
281.669945
 10
0.0001
 20
281.690202
 10
9.899999999999999e-05
 20
281.710459
 10
9.8e-05
 20
281.730715
 10
9.7e-05
 20
281.750972
 10
9.6e-05
 20
281.771228
 10
9.500000000000001e-05
 20
281.791485
 10
9.399999999999999e-05
 20
281.811742
 10
9.399999999999999e-05
 20
281.831998
 10
9.3e-05
 20
281.852255
 10
9.2e-05
 20
281.872512
 10
9.1e-05
 20
281.892768
 10
9.000000000000001e-05
 20
281.913025
 10
8.899999999999999e-05
 20
281.933282
 10
8.8e-05
 20
281.953538
 10
8.7e-05
 20
281.973795
 10
8.7e-05
 20
281.994052
 10
8.6e-05
 20
282.014308
 10
8.500000000000001e-05
 20
282.034565
 10
8.4e-05
 20
282.054821
 10
8.3e-05
 20
282.075078
 10
8.2e-05
 20
282.095335
 10
8.1e-05
 20
282.115591
 10
8.000000000000001e-05
 20
282.135848
 10
8.000000000000001e-05
 20
282.156105
 10
7.9e-05
 20
282.176361
 10
7.8e-05
 20
282.196618
 10
7.7e-05
 20
282.216875
 10
7.6e-05
 20
282.237131
 10
7.499999999999999e-05
 20
282.257388
 10
7.4e-05
 20
282.277644
 10
7.3e-05
 20
282.297901
 10
7.3e-05
 20
282.318158
 10
7.2e-05
 20
282.338414
 10
7.1e-05
 20
282.358671
 10
6.999999999999999e-05
 20
282.378928
 10
6.9e-05
 20
282.399184
 10
6.8e-05
 20
282.419441
 10
6.7e-05
 20
282.439698
 10
6.600000000000001e-05
 20
282.459954
 10
6.600000000000001e-05
 20
282.480211
 10
6.499999999999999e-05
 20
282.500467
 10
6.4e-05
 20
282.520724
 10
6.3e-05
 20
282.540981
 10
6.2e-05
 20
282.561237
 10
6.1e-05
 20
282.581494
 10
6e-05
 20
282.601751
 10
5.9e-05
 20
282.622007
 10
5.9e-05
 20
282.642264
 10
5.8e-05
 20
282.662521
 10
5.7e-05
 20
282.682777
 10
5.6e-05
 20
282.703034
 10
5.5e-05
 20
282.72329
 10
5.4e-05
 20
282.743547
 10
5.3e-05
 20
282.763804
 10
5.2e-05
 20
282.78406
 10
5.2e-05
 20
282.804317
 10
5.1e-05
 20
282.824574
 10
5e-05
 20
282.84483
 10
4.9e-05
 20
282.865087
 10
4.8e-05
 20
282.885344
 10
4.7e-05
 20
282.9056
 10
4.6e-05
 20
282.925857
 10
4.5e-05
 20
282.946113
 10
4.5e-05
 20
282.96637
 10
4.4e-05
 20
282.986627
 10
4.3e-05
 20
283.006883
 10
4.2e-05
 20
283.02714
 10
4.1e-05
 20
283.047397
 10
4e-05
 20
283.067653
 10
3.9e-05
 20
283.08791
 10
3.8e-05
 20
283.108167
 10
3.8e-05
 20
283.128423
 10
3.7e-05
 20
283.14868
 10
3.6e-05
 20
283.168936
 10
3.5e-05
 20
283.189193
 10
3.4e-05
 20
283.20945
 10
3.3e-05
 20
283.229706
 10
3.2e-05
 20
283.249963
 10
3.1e-05
 20
283.27022
 10
3.1e-05
 20
283.290476
 10
3e-05
 20
283.310733
 10
2.9e-05
 20
283.33099
 10
2.8e-05
 20
283.351246
 10
2.7e-05
 20
283.371503
 10
2.6e-05
 20
283.391759
 10
2.5e-05
 20
283.412016
 10
2.4e-05
 20
283.432273
 10
2.4e-05
 20
283.452529
 10
2.3e-05
 20
283.472786
 10
2.2e-05
 20
283.493043
 10
2.1e-05
 20
283.513299
 10
2e-05
 20
283.533556
 10
1.9e-05
 20
283.553813
 10
1.8e-05
 20
283.574069
 10
1.7e-05
 20
283.594326
 10
1.7e-05
 20
283.614582
 10
1.6e-05
 20
283.634839
 10
1.5e-05
 20
283.655096
 10
1.4e-05
 20
283.675352
 10
1.3e-05
 20
283.695609
 10
1.2e-05
 20
283.715866
 10
1.1e-05
 20
283.736122
 10
1e-05
 20
283.756379
 10
1e-05
 20
283.776636
 10
9e-06
 20
283.796892
 10
8e-06
 20
283.817149
 10
7e-06
 20
283.837405
 10
6e-06
 20
283.857662
 10
5e-06
 20
283.877919
 10
4e-06
 20
283.898175
 10
3e-06
 20
283.918432
 10
3e-06
 20
283.938689
 10
2e-06
 20
283.958945
 10
1e-06
 20
283.979202
 10
-4.348521542851813e-12
 20
283.9994590000001
 42
0.003064999999999915
 10
44.60001099999442
 20
286.289554
 10
51.000014
 20
286.625699
 10
58.300397
 20
287.009113
 10
65.60039999999999
 20
287.392527
 10
72.900403
 20
287.775948
 10
80.200406
 20
288.159367
 10
87.500405
 20
288.542822
 10
94.800408
 20
288.926245
 10
102.10041
 20
289.309667
 10
109.400413
 20
289.693088
 10
116.700415
 20
290.076507
 10
124.000416
 20
290.459962
 10
131.300427
 20
290.843479
 10
138.600431
 20
291.226908
 10
145.900435
 20
291.610329
 10
153.20044
 20
291.993742
 10
160.500445
 20
292.377154
 10
167.800451
 20
292.760565
 10
175.100457
 20
293.143919
 10
182.400464
 20
293.527354
 10
189.700472
 20
293.910764
 10
197.00048
 20
294.294174
 10
204.30049
 20
294.677581
 10
211.6005
 20
295.060944
 10
218.900512
 20
295.444348
 10
226.200526
 20
295.827749
 10
233.500544
 20
296.211141
 10
240.800565
 20
296.594569
 10
248.100586
 20
296.977933
 10
251.7585489999944
 20
297.1692340000018
 42
0.0003059999999999843
 10
259.0209609999942
 20
297.5544930000003
 42
-0.002684999999999985
 10
271.000676
 20
298.1281609999994
 10
271.000677
 20
298.10791
 10
271.000678
 20
298.087658
 10
271.000679
 20
298.067407
 10
271.00068
 20
298.047156
 10
271.000681
 20
298.026904
 10
271.000682
 20
298.006653
 10
271.000684
 20
297.986401
 10
271.000685
 20
297.96615
 10
271.000686
 20
297.945899
 10
271.000687
 20
297.925647
 10
271.000688
 20
297.905396
 10
271.000689
 20
297.885144
 10
271.00069
 20
297.864893
 10
271.000691
 20
297.844641
 10
271.000693
 20
297.82439
 10
271.000694
 20
297.804139
 10
271.000695
 20
297.783887
 10
271.000696
 20
297.763636
 10
271.000697
 20
297.743384
 10
271.000698
 20
297.723133
 10
271.000699
 20
297.702881
 10
271.0007
 20
297.68263
 10
271.000701
 20
297.662379
 10
271.000703
 20
297.642127
 10
271.000704
 20
297.621876
 10
271.000705
 20
297.601624
 10
271.000706
 20
297.581373
 10
271.000707
 20
297.561121
 10
271.000708
 20
297.54087
 10
271.000709
 20
297.520619
 10
271.00071
 20
297.500367
 10
271.000711
 20
297.480116
 10
271.000712
 20
297.459864
 10
271.000714
 20
297.439613
 10
271.000715
 20
297.419362
 10
271.000716
 20
297.39911
 10
271.000717
 20
297.378859
 10
271.000718
 20
297.358607
 10
271.000719
 20
297.338356
 10
271.00072
 20
297.318104
 10
271.000721
 20
297.297853
 10
271.000722
 20
297.277602
 10
271.000723
 20
297.25735
 10
271.000724
 20
297.237099
 10
271.000725
 20
297.216847
 10
271.000727
 20
297.196596
 10
271.000728
 20
297.176344
 10
271.000729
 20
297.156093
 10
271.00073
 20
297.135842
 10
271.000731
 20
297.11559
 10
271.000732
 20
297.095339
 10
271.000733
 20
297.075087
 10
271.000734
 20
297.054836
 10
271.000735
 20
297.034584
 10
271.000736
 20
297.014333
 10
271.000737
 20
296.994082
 10
271.000738
 20
296.97383
 10
271.000739
 20
296.953579
 10
271.00074
 20
296.933327
 10
271.000741
 20
296.913076
 10
271.000743
 20
296.892824
 10
271.000744
 20
296.872573
 10
271.000745
 20
296.852322
 10
271.000746
 20
296.83207
 10
271.000747
 20
296.811819
 10
271.000748
 20
296.791567
 10
271.000749
 20
296.771316
 10
271.00075
 20
296.751065
 10
271.000751
 20
296.730813
 10
271.000752
 20
296.710562
 10
271.000753
 20
296.69031
 10
271.000754
 20
296.670059
 10
271.000755
 20
296.649807
 10
271.000756
 20
296.629556
 10
271.000757
 20
296.609305
 10
271.000758
 20
296.589053
 10
271.000759
 20
296.568802
 10
271.00076
 20
296.54855
 10
271.000761
 20
296.528299
 10
271.000762
 20
296.508047
 10
271.000763
 20
296.487796
 10
271.000764
 20
296.467545
 10
271.000765
 20
296.447293
 10
271.000767
 20
296.427042
 10
271.000768
 20
296.40679
 10
271.000769
 20
296.386539
 10
271.00077
 20
296.366287
 10
271.000771
 20
296.346036
 10
271.000772
 20
296.325785
 10
271.000773
 20
296.305533
 10
271.000774
 20
296.285282
 10
271.000775
 20
296.26503
 10
271.000776
 20
296.244779
 10
271.000777
 20
296.224528
 10
271.000778
 20
296.204276
 10
271.000779
 20
296.184025
 10
271.00078
 20
296.163773
 10
271.000781
 20
296.143522
 10
271.000782
 20
296.12327
 10
271.000783
 20
296.103019
 10
271.000784
 20
296.082768
 10
271.000785
 20
296.062516
 10
271.000786
 20
296.042265
 10
271.000787
 20
296.022013
 10
271.000788
 20
296.001762
 10
271.000789
 20
295.98151
 10
271.00079
 20
295.961259
 10
271.000791
 20
295.941008
 10
271.000792
 20
295.920756
 10
271.000793
 20
295.900505
 10
271.000794
 20
295.880253
 10
271.000795
 20
295.860002
 10
271.000796
 20
295.83975
 10
271.000797
 20
295.819499
 10
271.000798
 20
295.799248
 10
271.000799
 20
295.778996
 10
271.0008
 20
295.758745
 10
271.000801
 20
295.738493
 10
271.000802
 20
295.718242
 10
271.000803
 20
295.69799
 10
271.000804
 20
295.677739
 10
271.000805
 20
295.657488
 10
271.000806
 20
295.637236
 10
271.000807
 20
295.616985
 10
271.000808
 20
295.596733
 10
271.000809
 20
295.576482
 10
271.00081
 20
295.556231
 10
271.000811
 20
295.535979
 10
271.000812
 20
295.515728
 10
271.000813
 20
295.495476
 10
271.000814
 20
295.475225
 10
271.000815
 20
295.454973
 10
271.000815
 20
295.434722
 10
271.000816
 20
295.414471
 10
271.000817
 20
295.394219
 10
271.000818
 20
295.373968
 10
271.000819
 20
295.353716
 10
271.00082
 20
295.333465
 10
271.000821
 20
295.313213
 10
271.000822
 20
295.292962
 10
271.000823
 20
295.272711
 10
271.000824
 20
295.252459
 10
271.000825
 20
295.232208
 10
271.000826
 20
295.211956
 10
271.000827
 20
295.191705
 10
271.000828
 20
295.171453
 10
271.000829
 20
295.151202
 10
271.00083
 20
295.130951
 10
271.000831
 20
295.110699
 10
271.000832
 20
295.090448
 10
271.000833
 20
295.070196
 10
271.000834
 20
295.049945
 10
271.000835
 20
295.029694
 10
271.000836
 20
295.009442
 10
271.000837
 20
294.989191
 10
271.000837
 20
294.968939
 10
271.000838
 20
294.948688
 10
271.000839
 20
294.928436
 10
271.00084
 20
294.908185
 10
271.000841
 20
294.887934
 10
271.000842
 20
294.867682
 10
271.000843
 20
294.847431
 10
271.000844
 20
294.827179
 10
271.000845
 20
294.806928
 10
271.000846
 20
294.786676
 10
271.000847
 20
294.766425
 10
271.000848
 20
294.746174
 10
271.000849
 20
294.725922
 10
271.00085
 20
294.705671
 10
271.000851
 20
294.685419
 10
271.000851
 20
294.665168
 10
271.000852
 20
294.644916
 10
271.000853
 20
294.624665
 10
271.000854
 20
294.604414
 10
271.000855
 20
294.584162
 10
271.000856
 20
294.563911
 10
271.000857
 20
294.543659
 10
271.000858
 20
294.523408
 10
271.000859
 20
294.503156
 10
271.00086
 20
294.482905
 10
271.000861
 20
294.462654
 10
271.000862
 20
294.442402
 10
271.000862
 20
294.422151
 10
271.000863
 20
294.401899
 10
271.000864
 20
294.381648
 10
271.000865
 20
294.361397
 10
271.000866
 20
294.341145
 10
271.000867
 20
294.320894
 10
271.000868
 20
294.300642
 10
271.000869
 20
294.280391
 10
271.00087
 20
294.260139
 10
271.000871
 20
294.239888
 10
271.000872
 20
294.219637
 10
271.000872
 20
294.199385
 10
271.000873
 20
294.179134
 10
271.000874
 20
294.158882
 10
271.000875
 20
294.138631
 10
271.000876
 20
294.118379
 10
271.000877
 20
294.098128
 10
271.000878
 20
294.077877
 10
271.000879
 20
294.057625
 10
271.00088
 20
294.037374
 10
271.000881
 20
294.017122
 10
271.000881
 20
293.996871
 10
271.000882
 20
293.976619
 10
271.000883
 20
293.956368
 10
271.000884
 20
293.936117
 10
271.000885
 20
293.915865
 10
271.000886
 20
293.895614
 10
271.000887
 20
293.875362
 10
271.000888
 20
293.855111
 10
271.000888
 20
293.83486
 10
271.000889
 20
293.814608
 10
271.00089
 20
293.794357
 10
271.000891
 20
293.774105
 10
271.000892
 20
293.753854
 10
271.000893
 20
293.733602
 10
271.000894
 20
293.713351
 10
271.000895
 20
293.6931
 10
271.000895
 20
293.672848
 10
271.000896
 20
293.652597
 10
271.000897
 20
293.632345
 10
271.000898
 20
293.612094
 10
271.000899
 20
293.591842
 10
271.0009
 20
293.571591
 10
271.000901
 20
293.55134
 10
271.000902
 20
293.531088
 10
271.000902
 20
293.510837
 10
271.000903
 20
293.490585
 10
271.000904
 20
293.470334
 10
271.000905
 20
293.450082
 10
271.000906
 20
293.429831
 10
271.000907
 20
293.40958
 10
271.000908
 20
293.389328
 10
271.000908
 20
293.369077
 10
271.000909
 20
293.348825
 10
271.00091
 20
293.328574
 10
271.000911
 20
293.308322
 10
271.000912
 20
293.288071
 10
271.000913
 20
293.26782
 10
271.000914
 20
293.247568
 10
271.000914
 20
293.227317
 10
271.000915
 20
293.207065
 10
271.000916
 20
293.186814
 10
271.000917
 20
293.166563
 10
271.000918
 20
293.146311
 10
271.000919
 20
293.12606
 10
271.000919
 20
293.105808
 10
271.000920000002
 20
293.0855569999976
 42
0.001678000000000006
 10
233.5011830000021
 20
291.1682839999976
 10
226.201145
 20
290.78483
 10
218.901111
 20
290.401377
 10
211.601004
 20
290.017923
 10
204.301001
 20
289.63447
 10
197.000977
 20
289.251017
 10
189.700952
 20
288.867564
 10
182.400949
 20
288.48411
 10
175.100775
 20
288.100657
 10
167.800775
 20
287.717204
 10
160.500764
 20
287.33375
 10
153.200757
 20
286.950297
 10
145.900745
 20
286.566844
 10
138.600743
 20
286.18339
 10
131.300741
 20
285.799938
 10
124.00041
 20
285.416484
 10
116.700374
 20
285.03303
 10
109.40037
 20
284.649577
 10
102.100366
 20
284.266123
 10
94.800363
 20
283.88267
 10
87.500298
 20
283.499216
 10
80.200298
 20
283.115763
 10
72.900295
 20
282.732309
 10
65.60029400000001
 20
282.348856
 10
58.30029
 20
281.965403
 10
51.00026
 20
281.581949
 10
44.600265
 20
281.245771
 10
38.200262
 20
280.909593
 10
31.800257
 20
280.573414
 10
25.400252
 20
280.237236
 10
19.000239
 20
279.901058
 10
12.60021899999992
 20
279.564879
 42
-0.003853000000000198
 10
0.0002179999992861781
 20
278.955556
 42
-0.003853000000000198
  0
ENDBLK
  5
EA
330
E8
100
AcDbEntity
  8
0
100
AcDbBlockEnd
  0
BLOCK
  5
EC
330
EB
100
AcDbEntity
  8
0
100
AcDbBlockBegin
  2
*R32
 70
    0
 10
135.50033
 20
254.295984
  3
*R32
  1

  0
LWPOLYLINE
  5
157
100
AcDbEntity
  8
0
  6
CONTINUOUS
 62
  256
370
   -1
100
AcDbPolyline
 90
  488
 70
    0
 43
0
 10
0.00057
 20
239.636413
 10
0.000568
 20
239.696781
 10
0.000565
 20
239.75715
 10
0.000563
 20
239.817518
 10
0.000561
 20
239.877887
 10
0.000559
 20
239.938255
 10
0.000556
 20
239.998624
 10
0.000554
 20
240.058992
 10
0.000552
 20
240.119361
 10
0.000549
 20
240.179729
 10
0.000547
 20
240.240098
 10
0.000545
 20
240.300467
 10
0.0005419999999999999
 20
240.360835
 10
0.00054
 20
240.421204
 10
0.000538
 20
240.481572
 10
0.000536
 20
240.541941
 10
0.0005330000000000001
 20
240.602309
 10
0.000531
 20
240.662678
 10
0.000529
 20
240.723046
 10
0.000526
 20
240.783415
 10
0.0005240000000000001
 20
240.843783
 10
0.000522
 20
240.904152
 10
0.00052
 20
240.96452
 10
0.000517
 20
241.024889
 10
0.000515
 20
241.085258
 10
0.000513
 20
241.145626
 10
0.00051
 20
241.205995
 10
0.000508
 20
241.266363
 10
0.000506
 20
241.326732
 10
0.000504
 20
241.3871
 10
0.000501
 20
241.447469
 10
0.000499
 20
241.507837
 10
0.000497
 20
241.568206
 10
0.000494
 20
241.628574
 10
0.000492
 20
241.688943
 10
0.00049
 20
241.749311
 10
0.000488
 20
241.80968
 10
0.000485
 20
241.870049
 10
0.000483
 20
241.930417
 10
0.000481
 20
241.990786
 10
0.000478
 20
242.051154
 10
0.000476
 20
242.111523
 10
0.000474
 20
242.171891
 10
0.000472
 20
242.23226
 10
0.000469
 20
242.292628
 10
0.000467
 20
242.352997
 10
0.000465
 20
242.413365
 10
0.000462
 20
242.473734
 10
0.00046
 20
242.534102
 10
0.000458
 20
242.594471
 10
0.000456
 20
242.65484
 10
0.000453
 20
242.715208
 10
0.000451
 20
242.775577
 10
0.000449
 20
242.835945
 10
0.000446
 20
242.896314
 10
0.000444
 20
242.956682
 10
0.000442
 20
243.017051
 10
0.000439
 20
243.077419
 10
0.000437
 20
243.137788
 10
0.000435
 20
243.198156
 10
0.000433
 20
243.258525
 10
0.00043
 20
243.318893
 10
0.000428
 20
243.379262
 10
0.000426
 20
243.439631
 10
0.000423
 20
243.499999
 10
0.000421
 20
243.560368
 10
0.000419
 20
243.620736
 10
0.000417
 20
243.681105
 10
0.000414
 20
243.741473
 10
0.000412
 20
243.801842
 10
0.00041
 20
243.86221
 10
0.000407
 20
243.922579
 10
0.000405
 20
243.982947
 10
0.000403
 20
244.043316
 10
0.000401
 20
244.103684
 10
0.000398
 20
244.164053
 10
0.000396
 20
244.224422
 10
0.000394
 20
244.28479
 10
0.000391
 20
244.345159
 10
0.000389
 20
244.405527
 10
0.000387
 20
244.465896
 10
0.000385
 20
244.526264
 10
0.000382
 20
244.586633
 10
0.00038
 20
244.647001
 10
0.000378
 20
244.70737
 10
0.000375
 20
244.767738
 10
0.000373
 20
244.828107
 10
0.000371
 20
244.888475
 10
0.000369
 20
244.948844
 10
0.000366
 20
245.009213
 10
0.000364
 20
245.069581
 10
0.000362
 20
245.12995
 10
0.000359
 20
245.190318
 10
0.000357
 20
245.250687
 10
0.000355
 20
245.311055
 10
0.000353
 20
245.371424
 10
0.00035
 20
245.431792
 10
0.000348
 20
245.492161
 10
0.000346
 20
245.552529
 10
0.000343
 20
245.612898
 10
0.000341
 20
245.673266
 10
0.000339
 20
245.733635
 10
0.000336
 20
245.794004
 10
0.000334
 20
245.854372
 10
0.000332
 20
245.914741
 10
0.00033
 20
245.975109
 10
0.000327
 20
246.035478
 10
0.000325
 20
246.095846
 10
0.000323
 20
246.156215
 10
0.00032
 20
246.216583
 10
0.000318
 20
246.276952
 10
0.000316
 20
246.33732
 10
0.000314
 20
246.397689
 10
0.000311
 20
246.458057
 10
0.000309
 20
246.518426
 10
0.000307
 20
246.578795
 10
0.000304
 20
246.639163
 10
0.000302
 20
246.699532
 10
0.0003
 20
246.7599
 10
0.000298
 20
246.820269
 10
0.000295
 20
246.880637
 10
0.000293
 20
246.941006
 10
0.000291
 20
247.001374
 10
0.000288
 20
247.061743
 10
0.000286
 20
247.122111
 10
0.000284
 20
247.18248
 10
0.000282
 20
247.242848
 10
0.000279
 20
247.303217
 10
0.000277
 20
247.363586
 10
0.000275
 20
247.423954
 10
0.000272
 20
247.484323
 10
0.00027
 20
247.544691
 10
0.000268
 20
247.60506
 10
0.000266
 20
247.665428
 10
0.000263
 20
247.725797
 10
0.000261
 20
247.786165
 10
0.000259
 20
247.846534
 10
0.000256
 20
247.906902
 10
0.000254
 20
247.967271
 10
0.000252
 20
248.027639
 10
0.00025
 20
248.088008
 10
0.000247
 20
248.148377
 10
0.000245
 20
248.208745
 10
0.000243
 20
248.269114
 10
0.00024
 20
248.329482
 10
0.000238
 20
248.389851
 10
0.000236
 20
248.450219
 10
0.000233
 20
248.510588
 10
0.000231
 20
248.570956
 10
0.000229
 20
248.631325
 10
0.000227
 20
248.691693
 10
0.000224
 20
248.752062
 10
0.000222
 20
248.81243
 10
0.00022
 20
248.872799
 10
0.000217
 20
248.933168
 10
0.000215
 20
248.993536
 10
0.000213
 20
249.053905
 10
0.000211
 20
249.114273
 10
0.000208
 20
249.174642
 10
0.000206
 20
249.23501
 10
0.000204
 20
249.295379
 10
0.000201
 20
249.355747
 10
0.000199
 20
249.416116
 10
0.000197
 20
249.476484
 10
0.000195
 20
249.536853
 10
0.000192
 20
249.597221
 10
0.00019
 20
249.65759
 10
0.000188
 20
249.717959
 10
0.000185
 20
249.778327
 10
0.000183
 20
249.838696
 10
0.000181
 20
249.899064
 10
0.000179
 20
249.959433
 10
0.000176
 20
250.019801
 10
0.000174
 20
250.08017
 10
0.000172
 20
250.140538
 10
0.000169
 20
250.200907
 10
0.000167
 20
250.261275
 10
0.000165
 20
250.321644
 10
0.000163
 20
250.382012
 10
0.00016
 20
250.442381
 10
0.000158
 20
250.50275
 10
0.000156
 20
250.563118
 10
0.000153
 20
250.623487
 10
0.000151
 20
250.683855
 10
0.000149
 20
250.744224
 10
0.000147
 20
250.804592
 10
0.000144
 20
250.864961
 10
0.000142
 20
250.925329
 10
0.00014
 20
250.985698
 10
0.000137
 20
251.046066
 10
0.000135
 20
251.106435
 10
0.000133
 20
251.166803
 10
0.00013
 20
251.227172
 10
0.000128
 20
251.287541
 10
0.000126
 20
251.347909
 10
0.000124
 20
251.408278
 10
0.000121
 20
251.468646
 10
0.000119
 20
251.529015
 10
0.000117
 20
251.589383
 10
0.000114
 20
251.649752
 10
0.000112
 20
251.71012
 10
0.00011
 20
251.770489
 10
0.000108
 20
251.830857
 10
0.000105
 20
251.891226
 10
0.000103
 20
251.951594
 10
0.000101
 20
252.011963
 10
9.8e-05
 20
252.072332
 10
9.6e-05
 20
252.1327
 10
9.399999999999999e-05
 20
252.193069
 10
9.2e-05
 20
252.253437
 10
8.899999999999999e-05
 20
252.313806
 10
8.7e-05
 20
252.374174
 10
8.500000000000001e-05
 20
252.434543
 10
8.2e-05
 20
252.494911
 10
8.000000000000001e-05
 20
252.55528
 10
7.8e-05
 20
252.615648
 10
7.6e-05
 20
252.676017
 10
7.3e-05
 20
252.736385
 10
7.1e-05
 20
252.796754
 10
6.9e-05
 20
252.857122
 10
6.600000000000001e-05
 20
252.917491
 10
6.4e-05
 20
252.97786
 10
6.2e-05
 20
253.038228
 10
6e-05
 20
253.098597
 10
5.7e-05
 20
253.158965
 10
5.5e-05
 20
253.219334
 10
5.3e-05
 20
253.279702
 10
5e-05
 20
253.340071
 10
4.8e-05
 20
253.400439
 10
4.6e-05
 20
253.460808
 10
4.3e-05
 20
253.521176
 10
4.1e-05
 20
253.581545
 10
3.9e-05
 20
253.641913
 10
3.7e-05
 20
253.702282
 10
3.4e-05
 20
253.762651
 10
3.2e-05
 20
253.823019
 10
3e-05
 20
253.883388
 10
2.7e-05
 20
253.943756
 10
2.5e-05
 20
254.004125
 10
2.3e-05
 20
254.064493
 10
2.1e-05
 20
254.124862
 10
1.8e-05
 20
254.18523
 10
1.6e-05
 20
254.245599
 10
1.4e-05
 20
254.305967
 10
1.1e-05
 20
254.366336
 10
9e-06
 20
254.426704
 10
7e-06
 20
254.487073
 10
5e-06
 20
254.547442
 10
2e-06
 20
254.60781
 10
-1.06581410364015e-14
 20
254.668179
 42
-0.05474299999999999
 10
14.19776099999997
 20
255.5357930000004
 42
-0.01661200000000002
 10
52.82290199999985
 20
257.564218
 42
-0.02011500000000009
 10
87.50003499999991
 20
259.7113239999999
 10
94.80004099999999
 20
260.094685
 10
102.100046
 20
260.478043
 10
109.400052
 20
260.861394
 10
116.700058
 20
261.244742
 10
124.000067
 20
261.628046
 10
131.300116
 20
262.010908
 10
138.600129
 20
262.394148
 10
145.90014
 20
262.777426
 10
153.200152
 20
263.160692
 10
160.500164
 20
263.543952
 10
167.800177
 20
263.927203
 10
175.100182
 20
264.310581
 10
182.400202
 20
264.693743
 10
189.700219
 20
265.076945
 10
197.000238
 20
265.460126
 10
204.30026
 20
265.843287
 10
211.600273
 20
266.226533
 10
218.900298
 20
266.609661
 10
226.200326
 20
266.992766
 10
233.500356
 20
267.375847
 10
240.8003989999998
 20
267.7588429999992
 42
-0.001163000000000059
 10
251.7584639999993
 20
268.3253679999998
 42
-0.04966200000000004
 10
271.000597
 20
268.609044
 10
271.000598
 20
268.548505
 10
271.000599
 20
268.487966
 10
271.0006
 20
268.427426
 10
271.000601
 20
268.366887
 10
271.000601
 20
268.306348
 10
271.000602
 20
268.245809
 10
271.000603
 20
268.18527
 10
271.000604
 20
268.124731
 10
271.000604
 20
268.064192
 10
271.000605
 20
268.003653
 10
271.000606
 20
267.943114
 10
271.000606
 20
267.882575
 10
271.000607
 20
267.822036
 10
271.000608
 20
267.761497
 10
271.000608
 20
267.700958
 10
271.000609
 20
267.640419
 10
271.00061
 20
267.57988
 10
271.00061
 20
267.519341
 10
271.000611
 20
267.458802
 10
271.000612
 20
267.398263
 10
271.000612
 20
267.337724
 10
271.000613
 20
267.277185
 10
271.000614
 20
267.216645
 10
271.000614
 20
267.156106
 10
271.000615
 20
267.095567
 10
271.000615
 20
267.035028
 10
271.000616
 20
266.974489
 10
271.000617
 20
266.91395
 10
271.000617
 20
266.853411
 10
271.000618
 20
266.792872
 10
271.000618
 20
266.732333
 10
271.000619
 20
266.671794
 10
271.000619
 20
266.611255
 10
271.00062
 20
266.550716
 10
271.00062
 20
266.490177
 10
271.000621
 20
266.429638
 10
271.000621
 20
266.369099
 10
271.000622
 20
266.30856
 10
271.000622
 20
266.248021
 10
271.000623
 20
266.187482
 10
271.000623
 20
266.126943
 10
271.000624
 20
266.066403
 10
271.000624
 20
266.005864
 10
271.000625
 20
265.945325
 10
271.000625
 20
265.884786
 10
271.000626
 20
265.824247
 10
271.000626
 20
265.763708
 10
271.000626
 20
265.703169
 10
271.000627
 20
265.64263
 10
271.000627
 20
265.582091
 10
271.000628
 20
265.521552
 10
271.000628
 20
265.461013
 10
271.000628
 20
265.400474
 10
271.000629
 20
265.339935
 10
271.000629
 20
265.279396
 10
271.000629
 20
265.218857
 10
271.00063
 20
265.158318
 10
271.00063
 20
265.097779
 10
271.000631
 20
265.03724
 10
271.000631
 20
264.976701
 10
271.000631
 20
264.916161
 10
271.000632
 20
264.855622
 10
271.000632
 20
264.795083
 10
271.000632
 20
264.734544
 10
271.000633
 20
264.674005
 10
271.000633
 20
264.613466
 10
271.000633
 20
264.552927
 10
271.000633
 20
264.492388
 10
271.000634
 20
264.431849
 10
271.000634
 20
264.37131
 10
271.000634
 20
264.310771
 10
271.000635
 20
264.250232
 10
271.000635
 20
264.189693
 10
271.000635
 20
264.129154
 10
271.000635
 20
264.068615
 10
271.000636
 20
264.008076
 10
271.000636
 20
263.947537
 10
271.000636
 20
263.886998
 10
271.000636
 20
263.826459
 10
271.000636
 20
263.76592
 10
271.000637
 20
263.70538
 10
271.000637
 20
263.644841
 10
271.000637
 20
263.584302
 10
271.000637
 20
263.523763
 10
271.000638
 20
263.463224
 10
271.000638
 20
263.402685
 10
271.000638
 20
263.342146
 10
271.000638
 20
263.281607
 10
271.000638
 20
263.221068
 10
271.000638
 20
263.160529
 10
271.000639
 20
263.09999
 10
271.000639
 20
263.039451
 10
271.000639
 20
262.978912
 10
271.000639
 20
262.918373
 10
271.000639
 20
262.857834
 10
271.000639
 20
262.797295
 10
271.00064
 20
262.736756
 10
271.00064
 20
262.676217
 10
271.00064
 20
262.615678
 10
271.00064
 20
262.555138
 10
271.00064
 20
262.494599
 10
271.00064
 20
262.43406
 10
271.00064
 20
262.373521
 10
271.00064
 20
262.312982
 10
271.000641
 20
262.252443
 10
271.000641
 20
262.191904
 10
271.000641
 20
262.131365
 10
271.000641
 20
262.070826
 10
271.000641
 20
262.010287
 10
271.000641
 20
261.949748
 10
271.000641
 20
261.889209
 10
271.000641
 20
261.82867
 10
271.000641
 20
261.768131
 10
271.000641
 20
261.707592
 10
271.000642
 20
261.647053
 10
271.000643
 20
260.133576
 10
271.000643
 20
260.073037
 10
271.000645
 20
257.409319
 10
271.000645
 20
257.34878
 10
271.000645
 20
257.288241
 10
271.000645
 20
257.227702
 10
271.000645
 20
257.167163
 10
271.000645
 20
257.106624
 10
271.000645
 20
257.046085
 10
271.000646
 20
256.985546
 10
271.000646
 20
256.925007
 10
271.000646
 20
256.864468
 10
271.000646
 20
256.803929
 10
271.000646
 20
256.743389
 10
271.000646
 20
256.68285
 10
271.000646
 20
256.622311
 10
271.000646
 20
256.561772
 10
271.000647
 20
256.501233
 10
271.000647
 20
256.440694
 10
271.000647
 20
256.380155
 10
271.000647
 20
256.319616
 10
271.000647
 20
256.259077
 10
271.000647
 20
256.198538
 10
271.000647
 20
256.137999
 10
271.000648
 20
256.07746
 10
271.000648
 20
256.016921
 10
271.000648
 20
255.956382
 10
271.000648
 20
255.895843
 10
271.000648
 20
255.835304
 10
271.000649
 20
255.774765
 10
271.000649
 20
255.714226
 10
271.000649
 20
255.653687
 10
271.000649
 20
255.593148
 10
271.000649
 20
255.532608
 10
271.00065
 20
255.472069
 10
271.00065
 20
255.41153
 10
271.00065
 20
255.350991
 10
271.00065
 20
255.290452
 10
271.000651
 20
255.229913
 10
271.000651
 20
255.169374
 10
271.000651
 20
255.108835
 10
271.000651
 20
255.048296
 10
271.000652
 20
254.987757
 10
271.000652
 20
254.927218
 10
271.000652
 20
254.866679
 10
271.000652
 20
254.80614
 10
271.000653
 20
254.745601
 10
271.000653
 20
254.685062
 10
271.000653
 20
254.624523
 10
271.000654
 20
254.563984
 10
271.000654
 20
254.503445
 10
271.000654
 20
254.442906
 10
271.000655
 20
254.382366
 10
271.000655
 20
254.321827
 10
271.000655
 20
254.261288
 10
271.000656
 20
254.200749
 10
271.000656
 20
254.14021
 10
271.000657
 20
254.079671
 10
271.000657
 20
254.019132
 10
271.000657
 20
253.958593
 10
271.000658
 20
253.898054
 10
271.000658
 20
253.837515
 10
271.000659
 20
253.776976
 10
271.0006590000004
 20
253.716437000001
 42
0.001673000000000051
 10
233.5007520000004
 20
251.8059470000007
 10
226.200734
 20
251.423849
 10
218.90072
 20
251.041752
 10
211.6007
 20
250.659654
 10
204.3007
 20
250.277556
 10
197.000691
 20
249.895459
 10
189.700683
 20
249.513361
 10
182.40068
 20
249.131264
 10
175.100661
 20
248.749167
 10
167.800661
 20
248.367069
 10
160.500658
 20
247.984972
 10
153.200655
 20
247.602875
 10
145.900653
 20
247.220777
 10
138.600652
 20
246.83868
 10
131.300646
 20
246.456583
 10
124.000629
 20
246.074486
 10
116.700623
 20
245.692389
 10
109.400622
 20
245.310291
 10
102.100622
 20
244.928194
 10
94.80062100000001
 20
244.546097
 10
87.500621
 20
244.164
 10
80.200621
 20
243.781903
 10
72.90062
 20
243.399806
 10
65.60062000000001
 20
243.017709
 10
58.300619
 20
242.635612
 10
51.000618
 20
242.253515
 10
44.600618
 20
241.918526
 10
38.200618
 20
241.583537
 10
31.800618
 20
241.248548
 10
25.400618
 20
240.913558
 10
19.000617
 20
240.578569
 10
12.60057099999935
 20
240.2435800000003
 42
-0.003838999999999846
 10
0.0005699999998398653
 20
239.6364130000003
 42
-0.003838999999999846
  0
ENDBLK
  5
ED
330
EB
100
AcDbEntity
  8
0
100
AcDbBlockEnd
  0
BLOCK
  5
EF
330
EE
100
AcDbEntity
  8
0
100
AcDbBlockBegin
  2
*R33
 70
    0
 10
200.960143
 20
199.551413
  3
*R33
  1

  0
LWPOLYLINE
  5
158
100
AcDbEntity
  8
0
  6
CONTINUOUS
 62
  256
370
   -1
100
AcDbPolyline
 90
   26
 70
    0
 43
0
 10
-5.205558206711203e-14
 20
229.6364130000001
 42
-0.01637200000000006
 10
32.1925940000004
 20
228.5763289999995
 42
-0.01115899999999998
 10
95.64666100000024
 20
223.2981519999993
 42
-0.01457100000000002
 10
146.0111879999998
 20
216.4163150000002
 42
-0.01728800000000007
 10
197.0740940000001
 20
206.0197649999998
 42
-0.01893400000000004
 10
226.2
 20
197.6395600000001
 10
233.5
 20
195.108981
 10
240.8
 20
192.405229
 10
248.1
 20
189.506749
 10
255.399999999999
 20
186.4012110000002
 42
0.004131999999999839
 10
270.9999999999984
 20
179.2664130000006
 10
271
 20
169.466413
 10
270.5562589999992
 20
169.4664130000001
 42
-0.004132000000000061
 10
255.399999999999
 20
176.4012110000002
 10
248.1
 20
179.506749
 10
240.8
 20
182.405229
 10
233.5
 20
185.108981
 10
226.2
 20
187.63956
 10
218.9
 20
189.980742
 42
0.02109700000000006
 10
184.509036
 20
198.9373590000001
 42
0.02644599999999991
 10
100.1314010000004
 20
212.8130800000001
 42
0.01249999999999999
 10
27.54710400000076
 20
218.8649780000004
 42
0.01228300000000012
 10
2.000000000000103
 20
219.6232400000001
 10
2
 20
219.836413
 10
0
 20
219.836413
 10
0
 20
229.636413
  0
ENDBLK
  5
F0
330
EE
100
AcDbEntity
  8
0
100
AcDbBlockEnd
  0
BLOCK
  5
F2
330
F1
100
AcDbEntity
  8
0
100
AcDbBlockBegin
  2
*R34
 70
    0
 10
42.775
 20
144.459544
  3
*R34
  1

  0
LWPOLYLINE
  5
159
100
AcDbEntity
  8
0
  6
CONTINUOUS
 62
  256
370
   -1
100
AcDbPolyline
 90
   15
 70
    0
 43
0
 10
85.5499999999999
 20
129.452675
 42
0.02548
 10
84.11558299999987
 20
142.691461
 42
0.05036900000000005
 10
82.58875399999999
 20
148.677711
 42
0.09065599999999999
 10
79.840209
 20
153.272309
 42
0.127798
 10
72.675738
 20
157.889699
 42
0.06292100000000002
 10
65.28842699999998
 20
159.281093
 42
0.01878300000000006
 10
56.05728999999999
 20
159.441319
 42
0.02147799999999995
 10
52.98303000000001
 20
159.38684
 42
0.05552299999999999
 10
39.73349499999999
 20
157.452675
 42
0.02988500000000002
 10
31.41556399999998
 20
154.660728
 42
0.04172800000000005
 10
19.71847399999997
 20
148.877455
 42
0.07602500000000008
 10
5.187986999999971
 20
136.656661
 42
0.03922199999999998
 10
0.958280000000002
 20
131.142155
 42
0.02326100000000001
 10
0
 20
129.452675
 10
85.55
 20
129.452675
  0
ENDBLK
  5
F3
330
F1
100
AcDbEntity
  8
0
100
AcDbBlockEnd
  0
BLOCK
  5
F5
330
F4
100
AcDbEntity
  8
0
100
AcDbBlockBegin
  2
*R35
 70
    0
 10
144.5
 20
112.013425
  3
*R35
  1

  0
LWPOLYLINE
  5
15A
100
AcDbEntity
  8
0
  6
CONTINUOUS
 62
  256
370
   -1
100
AcDbPolyline
 90
   21
 70
    0
 43
0
 10
275
 20
119.452675
 10
62.000001
 20
119.452675
 10
62.000001
 20
114.513425
 10
58.000001
 20
114.513425
 10
58.000001
 20
119.452675
 10
23.600001
 20
119.452675
 10
23.600001
 20
114.513425
 10
19.600001
 20
114.513425
 10
19.600001
 20
119.452675
 10
14
 20
119.452675
 10
14
 20
114.513425
 10
10
 20
114.513425
 10
10
 20
119.452675
 10
0
 20
119.452675
 10
0
 20
104.574176
 10
289
 20
104.574176
 10
289
 20
119.452675
 10
279
 20
119.452675
 10
279
 20
114.513425
 10
275
 20
114.513425
 10
275
 20
119.452675
  0
ENDBLK
  5
F6
330
F4
100
AcDbEntity
  8
0
100
AcDbBlockEnd
  0
BLOCK
  5
F8
330
F7
100
AcDbEntity
  8
0
100
AcDbBlockBegin
  2
*R36
 70
    0
 10
144.5
 20
87.134927
  3
*R36
  1

  0
LWPOLYLINE
  5
15B
100
AcDbEntity
  8
0
  6
CONTINUOUS
 62
  256
370
   -1
100
AcDbPolyline
 90
   21
 70
    0
 43
0
 10
275
 20
94.57417599999999
 10
62.000001
 20
94.57417599999999
 10
62.000001
 20
89.634927
 10
58.000001
 20
89.634927
 10
58.000001
 20
94.57417599999999
 10
23.600001
 20
94.57417599999999
 10
23.600001
 20
89.634927
 10
19.600001
 20
89.634927
 10
19.600001
 20
94.57417599999999
 10
14
 20
94.57417599999999
 10
14
 20
89.634927
 10
10
 20
89.634927
 10
10
 20
94.57417599999999
 10
0
 20
94.57417599999999
 10
0
 20
79.695678
 10
289
 20
79.695678
 10
289
 20
94.57417599999999
 10
279
 20
94.57417599999999
 10
279
 20
89.634927
 10
275
 20
89.634927
 10
275
 20
94.57417599999999
  0
ENDBLK
  5
F9
330
F7
100
AcDbEntity
  8
0
100
AcDbBlockEnd
  0
BLOCK
  5
FB
330
FA
100
AcDbEntity
  8
0
100
AcDbBlockBegin
  2
*R37
 70
    0
 10
105
 20
64.725774
  3
*R37
  1

  0
LWPOLYLINE
  5
15C
100
AcDbEntity
  8
0
  6
CONTINUOUS
 62
  256
370
   -1
100
AcDbPolyline
 90
   31
 70
    0
 43
0
 10
29.99096
 20
69.695678
 10
30.096857
 20
69.09981999999999
 42
0.1262670000000007
 10
30.84300799999997
 20
68.16454999999999
 42
0.08717900000000017
 10
33.58841299999995
 20
66.89421700000001
 42
0.03972600000000005
 10
38.94313499999985
 20
65.79435000000005
 42
0.0206519999999999
 10
46.20633599999957
 20
65.11730200000008
 42
0.01411400000000001
 10
58.96889899999922
 20
64.76237200000003
 42
0.00581300000000001
 10
71.73721499999809
 20
64.87001400000008
 42
0.003613000000000006
 10
93.01103099999273
 20
65.44440300000042
 42
0.002275000000000119
 10
125.8222769999959
 20
66.68227900000056
 10
154.978457
 20
67.90133299999999
 10
173.557206
 20
68.635577
 10
179.875139
 20
68.635577
 10
185.000056
 20
68.635577
 10
185.000056
 20
69.63436799999999
 10
192
 20
69.63436799999999
 10
210
 20
69.63436799999999
 10
210
 20
59.755869
 10
198
 20
59.755869
 10
198
 20
64.69511799999999
 10
192
 20
64.69511799999999
 10
192
 20
59.755869
 10
18
 20
59.755869
 10
18
 20
64.69511799999999
 10
12
 20
64.69511799999999
 10
12
 20
59.755869
 10
0
 20
59.755869
 10
0
 20
69.63436799999999
 10
25.002098
 20
69.63436799999999
 10
25.002098
 20
69.695678
 10
29.99096
 20
69.695678
  0
ENDBLK
  5
FC
330
FA
100
AcDbEntity
  8
0
100
AcDbBlockEnd
  0
BLOCK
  5
FE
330
FD
100
AcDbEntity
  8
0
100
AcDbBlockBegin
  2
*R38
 70
    0
 10
105
 20
44.786099
  3
*R38
  1

  0
LWPOLYLINE
  5
15D
100
AcDbEntity
  8
0
  6
CONTINUOUS
 62
  256
370
   -1
100
AcDbPolyline
 90
   31
 70
    0
 43
0
 10
30.165665
 20
49.755869
 10
30.271098
 20
49.162623
 42
0.1262669999999994
 10
31.013979
 20
48.23145300000003
 42
0.08717899999999995
 10
33.747349
 20
46.966688
 42
0.03972599999999983
 10
39.07859799999988
 20
45.87164200000009
 42
0.0206519999999999
 10
46.30996099999957
 20
45.19756199999998
 42
0.01411400000000001
 10
59.01657999999918
 20
44.84418799999958
 42
0.005812999999999788
 10
71.72892699999699
 20
44.95135800000048
 42
0.003613000000000006
 10
92.90948999999218
 20
45.52322999999933
 42
0.002310000000000122
 10
126.1817569999959
 20
46.78118099999801
 10
154.605284
 20
47.96838
 10
173.050829
 20
48.695243
 10
179.392833
 20
48.695243
 10
184.392889
 20
48.695243
 10
184.392889
 20
49.694828
 10
192
 20
49.694828
 10
210
 20
49.694828
 10
210
 20
39.816329
 10
198
 20
39.816329
 10
198
 20
44.755578
 10
192
 20
44.755578
 10
192
 20
39.816329
 10
18
 20
39.816329
 10
18
 20
44.755578
 10
12
 20
44.755578
 10
12
 20
39.816329
 10
0
 20
39.816329
 10
0
 20
49.694828
 10
25.165665
 20
49.694828
 10
25.165665
 20
49.755869
 10
30.165665
 20
49.755869
  0
ENDBLK
  5
FF
330
FD
100
AcDbEntity
  8
0
100
AcDbBlockEnd
  0
BLOCK
  5
101
330
100
100
AcDbEntity
  8
0
100
AcDbBlockBegin
  2
*R39
 70
    0
 10
105
 20
24.847414
  3
*R39
  1

  0
LWPOLYLINE
  5
15E
100
AcDbEntity
  8
0
  6
CONTINUOUS
 62
  256
370
   -1
100
AcDbPolyline
 90
   31
 70
    0
 43
0
 10
32.333602
 20
29.816329
 10
32.43608300000001
 20
29.23969200000001
 42
0.126267
 10
33.15816599999998
 20
28.33459100000002
 42
0.07546900000000065
 10
35.25603899999996
 20
27.288844
 42
0.04243600000000006
 10
39.25242999999988
 20
26.31004200000002
 42
0.02794999999999981
 10
48.02591199999956
 20
25.38564000000002
 42
0.01411400000000001
 10
60.37678699999891
 20
25.04215899999986
 42
0.00587900000000006
 10
73.32156399999707
 20
25.15726599999971
 42
0.003638000000000042
 10
95.67324799999462
 20
25.78046499999937
 42
0.002337999999999794
 10
129.1889519999937
 20
27.0754869999987
 10
153.877064
 20
28.096721
 10
170.93281
 20
28.757445
 10
177.3829
 20
28.757445
 10
182.382954
 20
28.757445
 10
182.382954
 20
29.756996
 10
192
 20
29.756996
 10
210
 20
29.756996
 10
210
 20
19.878498
 10
198
 20
19.878498
 10
198
 20
24.817747
 10
192
 20
24.817747
 10
192
 20
19.878498
 10
18
 20
19.878498
 10
18
 20
24.817747
 10
12
 20
24.817747
 10
12
 20
19.878498
 10
0
 20
19.878498
 10
0
 20
29.756996
 10
27.333602
 20
29.756996
 10
27.333602
 20
29.816329
 10
32.333602
 20
29.816329
  0
ENDBLK
  5
102
330
100
100
AcDbEntity
  8
0
100
AcDbBlockEnd
  0
BLOCK
  5
104
330
103
100
AcDbEntity
  8
0
100
AcDbBlockBegin
  2
*R40
 70
    0
 10
105
 20
4.939249
  3
*R40
  1

  0
LWPOLYLINE
  5
15F
100
AcDbEntity
  8
0
  6
CONTINUOUS
 62
  256
370
   -1
100
AcDbPolyline
 90
   29
 70
    0
 43
0
 10
81.44811300000001
 20
9.357671
 10
81.62331999999999
 20
9.357670999999995
 42
0.02865300000000059
 10
81.69082599999999
 20
9.273190999999994
 42
0.1142490000000001
 10
82.867283
 20
8.5259
 42
0.05520199999999993
 10
85.58644299999997
 20
7.817389000000006
 42
0.02937800000000003
 10
90.83255099999977
 20
7.264643000000063
 42
0.01723099999999998
 10
101.0325919999991
 20
7.06264699999997
 42
0.005924000000000041
 10
114.3998649999964
 20
7.342690000000175
 42
0.003075999999999883
 10
139.3640409999953
 20
8.274911000000657
 42
-0.003772999999999983
 10
156.4759889999998
 20
8.864124000000629
 10
168.181641
 20
8.864124
 10
170.920032
 20
8.864124
 10
170.920032
 20
9.878498
 10
192
 20
9.878498
 10
210
 20
9.878498
 10
210
 20
0
 10
198
 20
0
 10
198
 20
4.939249
 10
192
 20
4.939249
 10
192
 20
0
 10
18
 20
0
 10
18
 20
4.939249
 10
12
 20
4.939249
 10
12
 20
0
 10
0
 20
0
 10
0
 20
9.878498
 10
75.370722
 20
9.878498
 10
75.370722
 20
9.357671
 10
81.44811300000001
 20
9.357671
  0
ENDBLK
  5
105
330
103
100
AcDbEntity
  8
0
100
AcDbBlockEnd
  0
ENDSEC
  0
SECTION
  2
ENTITIES
  0
INSERT
  5
160
100
AcDbEntity
  8
triplex 2mm
  6
CONTINUOUS
 62
  256
370
   -1
100
AcDbBlockReference
  2
*R
 10
73.65668833091206
 20
16.22220849758014
 30
0
 41
1
 42
1
 43
0
 50
0
 70
    1
 71
    1
 44
0
 45
0
  0
INSERT
  5
161
100
AcDbEntity
  8
triplex 2mm
  6
CONTINUOUS
 62
  256
370
   -1
100
AcDbBlockReference
  2
*R1
 10
19.76712033091201
 20
16.23083149758025
 30
0
 41
1
 42
1
 43
0
 50
0
 70
    1
 71
    1
 44
0
 45
0
  0
INSERT
  5
162
100
AcDbEntity
  8
triplex 2mm
  6
CONTINUOUS
 62
  256
370
   -1
100
AcDbBlockReference
  2
*R2
 10
69.76712033091201
 20
16.23083149758025
 30
0
 41
1
 42
1
 43
0
 50
0
 70
    1
 71
    1
 44
0
 45
0
  0
INSERT
  5
163
100
AcDbEntity
  8
triplex 2mm
  6
CONTINUOUS
 62
  256
370
   -1
100
AcDbBlockReference
  2
*R6
 10
39.23287538771753
 20
3.409870137345933
 30
0
 41
1
 42
1
 43
0
 50
0
 70
    1
 71
    1
 44
0
 45
0
  0
TEXT
  5
164
100
AcDbEntity
  8
triplex 2mm
  6
CONTINUOUS
 62
    5
370
   -1
100
AcDbText
 10
39.98194704770708
 20
13.49337893522025
 30
0
 40
5.333333
  1
R-A-1a
 50
0
 41
1
 51
0
  7
Standard
 71
    0
210
0
220
0
230
1
100
AcDbText
  0
TEXT
  5
165
100
AcDbEntity
  8
triplex 2mm
  6
ByLayer
 62
    5
370
   -1
100
AcDbText
 10
15.45523076872462
 20
1.818262443379353
 30
0
 40
3
  1
R-A-4a
 50
0
 41
1
 51
0
  7
standard
 71
    0
210
0
220
0
230
1
100
AcDbText
  0
ENDSEC
  0
SECTION
  2
OBJECTS
  0
DICTIONARY
  5
C
330
0
100
AcDbDictionary
281
    1
  3
ACAD_GROUP
350
D
  0
DICTIONARY
  5
D
330
C
100
AcDbDictionary
281
    1
  0
PLOTSETTINGS
  5
166
100
AcDbPlotSettings
  6
1x1
 40
0
 41
0
 42
0
 43
0
  0
ENDSEC
  0
EOF
