999
dxfrw 0.6.3
  0
SECTION
  2
HEADER
  9
$ACADVER
  1
AC1021
  9
$DWGCODEPAGE
  3
ANSI_1252
  9
$INSBASE
 10
0
 20
0
 30
0
  9
$EXTMIN
 10
-6156874.787346299
 20
10261397.87011135
 30
0
  9
$EXTMAX
 10
-6156834.144026973
 20
10261409.43469559
 30
0
  9
$LIMMIN
 10
0
 20
0
  9
$LIMMAX
 10
420
 20
297
  9
$ORTHOMODE
 70
    0
  9
$REGENMODE
 70
    1
  9
$FILLMODE
 70
    1
  9
$QTEXTMODE
 70
    0
  9
$MIRRTEXT
 70
    0
  9
$LTSCALE
 40
1
  9
$ATTMODE
 70
    0
  9
$TEXTSIZE
 40
2.5
  9
$TRACEWID
 40
15.68
  9
$TEXTSTYLE
  7
STANDARD
  9
$CLAYER
  8
0
  9
$CELTYPE
  6
BYLAYER
  9
$CECOLOR
 62
  256
  9
$CELTSCALE
 40
1
  9
$DISPSILH
 70
    0
  9
$DIMSCALE
 40
2.5
  9
$DIMASZ
 40
0.1
  9
$DIMEXO
 40
0.025
  9
$DIMDLI
 40
3.75
  9
$DIMRND
 40
0
  9
$DIMDLE
 40
0
  9
$DIMEXE
 40
0.05
  9
$DIMTP
 40
0
  9
$DIMTM
 40
0
  9
$DIMTXT
 40
0.1
  9
$DIMCEN
 40
2.5
  9
$DIMTSZ
 40
0
  9
$DIMTOL
 70
    0
  9
$DIMLIM
 70
    0
  9
$DIMTIH
 70
    0
  9
$DIMTOH
 70
    0
  9
$DIMSE1
 70
    0
  9
$DIMSE2
 70
    0
  9
$DIMTAD
 70
    1
  9
$DIMZIN
 70
    8
  9
$DIMBLK
  1

  9
$DIMASO
 70
    1
  9
$DIMSHO
 70
    1
  9
$DIMPOST
  1

  9
$DIMAPOST
  1

  9
$DIMALT
 70
    0
  9
$DIMALTD
 70
    3
  9
$DIMALTF
 40
0.03937
  9
$DIMLFAC
 40
1
  9
$DIMTOFL
 70
    1
  9
$DIMTVP
 40
0
  9
$DIMTIX
 70
    0
  9
$DIMSOXD
 70
    0
  9
$DIMSAH
 70
    0
  9
$DIMBLK1
  1

  9
$DIMBLK2
  1

  9
$DIMSTYLE
  2
STANDARD
  9
$DIMCLRD
 70
    0
  9
$DIMCLRE
 70
    0
  9
$DIMCLRT
 70
    0
  9
$DIMTFAC
 40
1
  9
$DIMGAP
 40
0.025
  9
$DIMJUST
 70
    0
  9
$DIMSD1
 70
    0
  9
$DIMSD2
 70
    0
  9
$DIMTOLJ
 70
    0
  9
$DIMTZIN
 70
    8
  9
$DIMALTZ
 70
    0
  9
$DIMALTTZ
 70
    0
  9
$DIMUPT
 70
    0
  9
$DIMDEC
 70
    3
  9
$DIMTDEC
 70
    2
  9
$DIMALTU
 70
    2
  9
$DIMALTTD
 70
    3
  9
$DIMTXSTY
  7
standard
  9
$DIMAUNIT
 70
    0
  9
$DIMADEC
 70
    0
  9
$DIMALTRND
 40
0
  9
$DIMAZIN
 70
    0
  9
$DIMDSEP
 70
   44
  9
$DIMATFIT
 70
    3
  9
$DIMFRAC
 70
    0
  9
$DIMLDRBLK
  1
STANDARD
  9
$DIMLUNIT
 70
    2
  9
$DIMLWD
 70
   -2
  9
$DIMLWE
 70
   -2
  9
$DIMTMOVE
 70
    0
  9
$DIMFXL
 40
1
  9
$DIMFXLON
 70
    0
  9
$DIMJOGANG
 40
0.7854
  9
$DIMTFILL
 70
    0
  9
$DIMTFILLCLR
 70
    0
  9
$DIMARCSYM
 70
    0
  9
$DIMLTYPE
  6

  9
$DIMLTEX1
  6

  9
$DIMLTEX2
  6

  9
$LUNITS
 70
    2
  9
$LUPREC
 70
    4
  9
$SKETCHINC
 40
1
  9
$FILLETRAD
 40
0
  9
$AUNITS
 70
    0
  9
$AUPREC
 70
    2
  9
$MENU
  1
.
  9
$ELEVATION
 40
0
  9
$PELEVATION
 40
0
  9
$THICKNESS
 40
0
  9
$LIMCHECK
 70
    0
  9
$CHAMFERA
 40
0
  9
$CHAMFERB
 40
0
  9
$CHAMFERC
 40
0
  9
$CHAMFERD
 40
0
  9
$SKPOLY
 70
    0
  9
$USRTIMER
 70
    1
  9
$ANGBASE
 50
0
  9
$ANGDIR
 70
    0
  9
$PDMODE
 70
   96
  9
$PDSIZE
 40
-2
  9
$PLINEWID
 40
0
  9
$SPLFRAME
 70
    0
  9
$SPLINETYPE
 70
    2
  9
$SPLINESEGS
 70
    8
  9
$HANDSEED
  5
20000
  9
$SURFTAB1
 70
    6
  9
$SURFTAB2
 70
    6
  9
$SURFTYPE
 70
    6
  9
$SURFU
 70
    6
  9
$SURFV
 70
    6
  9
$UCSBASE
  2

  9
$UCSNAME
  2

  9
$UCSORG
 10
0
 20
0
 30
0
  9
$UCSXDIR
 10
1
 20
0
 30
0
  9
$UCSYDIR
 10
0
 20
1
 30
0
  9
$UCSORTHOREF
  2

  9
$UCSORTHOVIEW
 70
    0
  9
$UCSORGTOP
 10
0
 20
0
 30
0
  9
$UCSORGBOTTOM
 10
0
 20
0
 30
0
  9
$UCSORGLEFT
 10
0
 20
0
 30
0
  9
$UCSORGRIGHT
 10
0
 20
0
 30
0
  9
$UCSORGFRONT
 10
0
 20
0
 30
0
  9
$UCSORGBACK
 10
0
 20
0
 30
0
  9
$PUCSBASE
  2

  9
$PUCSNAME
  2

  9
$PUCSORG
 10
0
 20
0
 30
0
  9
$PUCSXDIR
 10
1
 20
0
 30
0
  9
$PUCSYDIR
 10
0
 20
1
 30
0
  9
$PUCSORTHOREF
  2

  9
$PUCSORTHOVIEW
 70
    0
  9
$PUCSORGTOP
 10
0
 20
0
 30
0
  9
$PUCSORGBOTTOM
 10
0
 20
0
 30
0
  9
$PUCSORGLEFT
 10
0
 20
0
 30
0
  9
$PUCSORGRIGHT
 10
0
 20
0
 30
0
  9
$PUCSORGFRONT
 10
0
 20
0
 30
0
  9
$PUCSORGBACK
 10
0
 20
0
 30
0
  9
$USERI1
 70
    0
  9
$USERI2
 70
    0
  9
$USERI3
 70
    0
  9
$USERI4
 70
    0
  9
$USERI5
 70
    0
  9
$USERR1
 40
0
  9
$USERR2
 40
0
  9
$USERR3
 40
0
  9
$USERR4
 40
0
  9
$USERR5
 40
0
  9
$WORLDVIEW
 70
    1
  9
$SHADEDGE
 70
    3
  9
$SHADEDIF
 70
   70
  9
$TILEMODE
 70
    1
  9
$MAXACTVP
 70
   64
  9
$PINSBASE
 10
6156875.259164885
 20
-10261397.02328676
 30
0
  9
$PLIMCHECK
 70
    0
  9
$PEXTMIN
 10
0
 20
0
 30
0
  9
$PEXTMAX
 10
0
 20
0
 30
0
  9
$GRIDMODE
 70
    1
  9
$SNAPSTYLE
 70
    0
  9
$GRIDUNIT
 10
0
 20
0
  9
$PLIMMIN
 10
0
 20
0
  9
$PLIMMAX
 10
11
 20
8.5
  9
$UNITMODE
 70
    0
  9
$VISRETAIN
 70
    1
  9
$PLINEGEN
 70
    0
  9
$PSLTSCALE
 70
    1
  9
$TREEDEPTH
 70
 3020
  9
$CMLSTYLE
  2
Standard
  9
$CMLJUST
 70
    0
  9
$CMLSCALE
 40
20
  9
$PROXYGRAPHICS
 70
    1
  9
$MEASUREMENT
 70
    0
  9
$CELWEIGHT
370
   -1
  9
$ENDCAPS
280
    0
  9
$JOINSTYLE
280
    0
  9
$LWDISPLAY
290
    0
  9
$INSUNITS
 70
    1
  9
$HYPERLINKBASE
  1

  9
$STYLESHEET
  1

  9
$XEDIT
290
    1
  9
$CEPSNTYPE
380
    0
  9
$PSTYLEMODE
290
    1
  9
$EXTNAMES
290
    1
  9
$PSVPSCALE
 40
1
  9
$OLESTARTUP
290
    0
  9
$SORTENTS
280
  127
  9
$INDEXCTL
280
    0
  9
$HIDETEXT
280
    1
  9
$XCLIPFRAME
290
    0
  9
$HALOGAP
280
    0
  9
$OBSCOLOR
 70
  257
  9
$OBSLTYPE
280
    0
  9
$INTERSECTIONDISPLAY
280
    0
  9
$INTERSECTIONCOLOR
 70
  257
  9
$DIMASSOC
280
    1
  9
$PROJECTNAME
  1

  9
$CAMERADISPLAY
290
    0
  9
$LENSLENGTH
 40
50
  9
$CAMERAHEIGHT
 40
0
  9
$STEPSPERSEC
 40
2
  9
$STEPSIZE
 40
50
  9
$3DDWFPREC
 40
2
  9
$PSOLWIDTH
 40
5
  9
$PSOLHEIGHT
 40
80
  9
$LOFTANG1
 40
1.570796326794897
  9
$LOFTANG2
 40
1.570796326794897
  9
$LOFTMAG1
 40
0
  9
$LOFTMAG2
 40
0
  9
$LOFTPARAM
 70
    7
  9
$LOFTNORMALS
280
    1
  9
$LATITUDE
 40
1
  9
$LONGITUDE
 40
1
  9
$NORTHDIRECTION
 40
0
  9
$TIMEZONE
 70
-8000
  9
$LIGHTGLYPHDISPLAY
280
    1
  9
$TILEMODELIGHTSYNCH
280
    1
  9
$SOLIDHIST
280
    1
  9
$SHOWHIST
280
    1
  9
$DWFFRAME
280
    2
  9
$DGNFRAME
280
    0
  9
$REALWORLDSCALE
290
    1
  9
$INTERFERECOLOR
 62
    1
  9
$CSHADOW
280
    0
  9
$SHADOWPLANELOCATION
 40
0
  0
ENDSEC
  0
SECTION
  2
CLASSES
  0
ENDSEC
  0
SECTION
  2
TABLES
  0
TABLE
  2
VPORT
  5
8
330
0
100
AcDbSymbolTable
 70
    1
  0
VPORT
  5
31
330
2
100
AcDbSymbolTableRecord
100
AcDbViewportTableRecord
  2
*ACTIVE
 70
    0
 10
0
 20
0
 11
1
 21
1
 12
-3078416.894308551
 22
5130707.838283047
 13
0
 23
0
 14
10
 24
10
 15
10
 25
10
 16
0
 26
0
 36
1
 17
0
 27
0
 37
0
 40
24.16468139442344
 41
1.706683168316832
 42
50
 43
0
 44
0
 50
0
 51
0
 71
    0
 72
  100
 73
    1
 74
    3
 75
    0
 76
    1
 77
    0
 78
    0
281
    0
 65
    1
110
0
120
0
130
0
111
1
121
0
131
0
112
0
122
1
132
0
 79
    0
146
0
348
10020
 60
    7
 61
    5
292
1
282
    1
141
0
142
0
 63
  250
421
3358443
  0
ENDTAB
  0
TABLE
  2
LTYPE
  5
5
330
0
100
AcDbSymbolTable
 70
    4
  0
LTYPE
  5
14
330
5
100
AcDbSymbolTableRecord
100
AcDbLinetypeTableRecord
  2
ByBlock
 70
    0
  3

 72
   65
 73
    0
 40
0
  0
LTYPE
  5
15
330
5
100
AcDbSymbolTableRecord
100
AcDbLinetypeTableRecord
  2
ByLayer
 70
    0
  3

 72
   65
 73
    0
 40
0
  0
LTYPE
  5
16
330
5
100
AcDbSymbolTableRecord
100
AcDbLinetypeTableRecord
  2
Continuous
 70
    0
  3
Solid line
 72
   65
 73
    0
 40
0
  0
LTYPE
  5
32
330
5
100
AcDbSymbolTableRecord
100
AcDbLinetypeTableRecord
  2
DOT
 70
    0
  3
Dot . . . . . . . . . . . . . . . . . . . . . .
 72
   65
 73
    2
 40
6.35
 49
0
 74
    0
 49
-6.35
 74
    0
  0
LTYPE
  5
33
330
5
100
AcDbSymbolTableRecord
100
AcDbLinetypeTableRecord
  2
DOTTINY
 70
    0
  3
Dot (.15x) .....................................
 72
   65
 73
    2
 40
0.9525
 49
0
 74
    0
 49
-0.9525
 74
    0
  0
LTYPE
  5
34
330
5
100
AcDbSymbolTableRecord
100
AcDbLinetypeTableRecord
  2
DOT2
 70
    0
  3
Dot (.5x) .....................................
 72
   65
 73
    2
 40
3.175
 49
0
 74
    0
 49
-3.175
 74
    0
  0
LTYPE
  5
35
330
5
100
AcDbSymbolTableRecord
100
AcDbLinetypeTableRecord
  2
DOTX2
 70
    0
  3
Dot (2x) .  .  .  .  .  .  .  .  .  .  .  .  .
 72
   65
 73
    2
 40
12.7
 49
0
 74
    0
 49
-12.7
 74
    0
  0
LTYPE
  5
36
330
5
100
AcDbSymbolTableRecord
100
AcDbLinetypeTableRecord
  2
DASHED
 70
    0
  3
Dashed _ _ _ _ _ _ _ _ _ _ _ _ _ _ _ _ _
 72
   65
 73
    2
 40
19.05
 49
12.7
 74
    0
 49
-6.35
 74
    0
  0
LTYPE
  5
37
330
5
100
AcDbSymbolTableRecord
100
AcDbLinetypeTableRecord
  2
DASHEDTINY
 70
    0
  3
Dashed (.15x) _ _ _ _ _ _ _ _ _ _ _ _ _ _ _ _ _
 72
   65
 73
    2
 40
2.8575
 49
1.905
 74
    0
 49
-0.9525
 74
    0
  0
LTYPE
  5
38
330
5
100
AcDbSymbolTableRecord
100
AcDbLinetypeTableRecord
  2
DASHED2
 70
    0
  3
Dashed (.5x) _ _ _ _ _ _ _ _ _ _ _ _ _ _ _ _ _
 72
   65
 73
    2
 40
9.524999999999999
 49
6.35
 74
    0
 49
-3.175
 74
    0
  0
LTYPE
  5
39
330
5
100
AcDbSymbolTableRecord
100
AcDbLinetypeTableRecord
  2
DASHEDX2
 70
    0
  3
Dashed (2x) ____  ____  ____  ____  ____  ___
 72
   65
 73
    2
 40
38.09999999999999
 49
25.4
 74
    0
 49
-12.7
 74
    0
  0
LTYPE
  5
3A
330
5
100
AcDbSymbolTableRecord
100
AcDbLinetypeTableRecord
  2
DASHDOT
 70
    0
  3
Dash dot __ . __ . __ . __ . __ . __ . __ . __
 72
   65
 73
    4
 40
25.4
 49
12.7
 74
    0
 49
-6.35
 74
    0
 49
0
 74
    0
 49
-6.35
 74
    0
  0
LTYPE
  5
3B
330
5
100
AcDbSymbolTableRecord
100
AcDbLinetypeTableRecord
  2
DASHDOTTINY
 70
    0
  3
Dash dot (.15x) _._._._._._._._._._._._._._._.
 72
   65
 73
    4
 40
3.81
 49
1.905
 74
    0
 49
-0.9525
 74
    0
 49
0
 74
    0
 49
-0.9525
 74
    0
  0
LTYPE
  5
3C
330
5
100
AcDbSymbolTableRecord
100
AcDbLinetypeTableRecord
  2
DASHDOT2
 70
    0
  3
Dash dot (.5x) _._._._._._._._._._._._._._._.
 72
   65
 73
    4
 40
12.7
 49
6.35
 74
    0
 49
-3.175
 74
    0
 49
0
 74
    0
 49
-3.175
 74
    0
  0
LTYPE
  5
3D
330
5
100
AcDbSymbolTableRecord
100
AcDbLinetypeTableRecord
  2
DASHDOTX2
 70
    0
  3
Dash dot (2x) ____  .  ____  .  ____  .  ___
 72
   65
 73
    4
 40
50.8
 49
25.4
 74
    0
 49
-12.7
 74
    0
 49
0
 74
    0
 49
-12.7
 74
    0
  0
LTYPE
  5
3E
330
5
100
AcDbSymbolTableRecord
100
AcDbLinetypeTableRecord
  2
DIVIDE
 70
    0
  3
Divide ____ . . ____ . . ____ . . ____ . . ____
 72
   65
 73
    6
 40
31.75
 49
12.7
 74
    0
 49
-6.35
 74
    0
 49
0
 74
    0
 49
-6.35
 74
    0
 49
0
 74
    0
 49
-6.35
 74
    0
  0
LTYPE
  5
3F
330
5
100
AcDbSymbolTableRecord
100
AcDbLinetypeTableRecord
  2
DIVIDETINY
 70
    0
  3
Divide (.15x) __..__..__..__..__..__..__..__.._
 72
   65
 73
    6
 40
4.7625
 49
1.905
 74
    0
 49
-0.9525
 74
    0
 49
0
 74
    0
 49
-0.9525
 74
    0
 49
0
 74
    0
 49
-0.9525
 74
    0
  0
LTYPE
  5
40
330
5
100
AcDbSymbolTableRecord
100
AcDbLinetypeTableRecord
  2
DIVIDE2
 70
    0
  3
Divide (.5x) __..__..__..__..__..__..__..__.._
 72
   65
 73
    6
 40
15.875
 49
6.35
 74
    0
 49
-3.175
 74
    0
 49
0
 74
    0
 49
-3.175
 74
    0
 49
0
 74
    0
 49
-3.175
 74
    0
  0
LTYPE
  5
41
330
5
100
AcDbSymbolTableRecord
100
AcDbLinetypeTableRecord
  2
DIVIDEX2
 70
    0
  3
Divide (2x) ________  .  .  ________  .  .  _
 72
   65
 73
    6
 40
63.5
 49
25.4
 74
    0
 49
-12.7
 74
    0
 49
0
 74
    0
 49
-12.7
 74
    0
 49
0
 74
    0
 49
-12.7
 74
    0
  0
LTYPE
  5
42
330
5
100
AcDbSymbolTableRecord
100
AcDbLinetypeTableRecord
  2
BORDER
 70
    0
  3
Border __ __ . __ __ . __ __ . __ __ . __ __ .
 72
   65
 73
    6
 40
44.45
 49
12.7
 74
    0
 49
-6.35
 74
    0
 49
12.7
 74
    0
 49
-6.35
 74
    0
 49
0
 74
    0
 49
-6.35
 74
    0
  0
LTYPE
  5
43
330
5
100
AcDbSymbolTableRecord
100
AcDbLinetypeTableRecord
  2
BORDERTINY
 70
    0
  3
Border (.15x) __.__.__.__.__.__.__.__.__.__.__.
 72
   65
 73
    6
 40
6.6675
 49
1.905
 74
    0
 49
-0.9525
 74
    0
 49
1.905
 74
    0
 49
-0.9525
 74
    0
 49
0
 74
    0
 49
-0.9525
 74
    0
  0
LTYPE
  5
44
330
5
100
AcDbSymbolTableRecord
100
AcDbLinetypeTableRecord
  2
BORDER2
 70
    0
  3
Border (.5x) __.__.__.__.__.__.__.__.__.__.__.
 72
   65
 73
    6
 40
22.225
 49
6.35
 74
    0
 49
-3.175
 74
    0
 49
6.35
 74
    0
 49
-3.175
 74
    0
 49
0
 74
    0
 49
-3.175
 74
    0
  0
LTYPE
  5
45
330
5
100
AcDbSymbolTableRecord
100
AcDbLinetypeTableRecord
  2
BORDERX2
 70
    0
  3
Border (2x) ____  ____  .  ____  ____  .  ___
 72
   65
 73
    6
 40
88.89999999999999
 49
25.4
 74
    0
 49
-12.7
 74
    0
 49
25.4
 74
    0
 49
-12.7
 74
    0
 49
0
 74
    0
 49
-12.7
 74
    0
  0
LTYPE
  5
46
330
5
100
AcDbSymbolTableRecord
100
AcDbLinetypeTableRecord
  2
CENTER
 70
    0
  3
Center ____ _ ____ _ ____ _ ____ _ ____ _ ____
 72
   65
 73
    4
 40
50.8
 49
31.75
 74
    0
 49
-6.35
 74
    0
 49
6.35
 74
    0
 49
-6.35
 74
    0
  0
LTYPE
  5
47
330
5
100
AcDbSymbolTableRecord
100
AcDbLinetypeTableRecord
  2
CENTERTINY
 70
    0
  3
Center (.15x) ___ _ ___ _ ___ _ ___ _ ___ _ ___
 72
   65
 73
    4
 40
7.619999999999999
 49
4.7625
 74
    0
 49
-0.9525
 74
    0
 49
0.9525
 74
    0
 49
-0.9525
 74
    0
  0
LTYPE
  5
48
330
5
100
AcDbSymbolTableRecord
100
AcDbLinetypeTableRecord
  2
CENTER2
 70
    0
  3
Center (.5x) ___ _ ___ _ ___ _ ___ _ ___ _ ___
 72
   65
 73
    4
 40
28.575
 49
19.05
 74
    0
 49
-3.175
 74
    0
 49
3.175
 74
    0
 49
-3.175
 74
    0
  0
LTYPE
  5
49
330
5
100
AcDbSymbolTableRecord
100
AcDbLinetypeTableRecord
  2
CENTERX2
 70
    0
  3
Center (2x) ________  __  ________  __  _____
 72
   65
 73
    4
 40
101.6
 49
63.5
 74
    0
 49
-12.7
 74
    0
 49
12.7
 74
    0
 49
-12.7
 74
    0
  0
ENDTAB
  0
TABLE
  2
LAYER
  5
2
330
0
100
AcDbSymbolTable
 70
    1
  0
LAYER
  5
10
330
2
100
AcDbSymbolTableRecord
100
AcDbLayerTableRecord
  2
0
 70
    0
 62
    7
  6
CONTINUOUS
370
   25
390
F
  0
ENDTAB
  0
TABLE
  2
STYLE
  5
3
330
0
100
AcDbSymbolTable
 70
    3
  0
STYLE
  5
4A
330
2
100
AcDbSymbolTableRecord
100
AcDbTextStyleTableRecord
  2
romand
 70
    0
 40
0
 41
1
 50
0
 71
    0
 42
1
  3
romand
  4

  0
STYLE
  5
4B
330
2
100
AcDbSymbolTableRecord
100
AcDbTextStyleTableRecord
  2
standard
 70
    0
 40
0
 41
1
 50
0
 71
    0
 42
1
  3
standard
  4

  0
ENDTAB
  0
TABLE
  2
VIEW
  5
6
330
0
100
AcDbSymbolTable
 70
    0
  0
ENDTAB
  0
TABLE
  2
UCS
  5
7
330
0
100
AcDbSymbolTable
 70
    0
  0
ENDTAB
  0
TABLE
  2
APPID
  5
9
330
0
100
AcDbSymbolTable
 70
    1
  0
APPID
  5
12
330
9
100
AcDbSymbolTableRecord
100
AcDbRegAppTableRecord
  2
ACAD
 70
    0
  0
APPID
  5
4C
330
9
100
AcDbSymbolTableRecord
100
AcDbRegAppTableRecord
  2
LibreCad
 70
    0
  0
ENDTAB
  0
TABLE
  2
DIMSTYLE
  5
A
330
0
100
AcDbSymbolTable
 70
    1
100
AcDbDimStyleTable
 71
    1
  0
DIMSTYLE
105
4D
330
A
100
AcDbSymbolTableRecord
100
AcDbDimStyleTableRecord
  2
Standard
 70
    0
 40
2.5
 41
0.1
 42
0.025
 43
0.38
 44
0.05
 45
0
 46
0
 47
0
 48
0
 49
1
140
0.1
141
0.09
142
0
143
25.4
144
1
145
0
146
1
147
0.025
148
0
 71
    0
 72
    0
 73
    0
 74
    1
 75
    0
 76
    0
 77
    0
 78
    8
 79
    0
170
    0
171
    2
172
    0
173
    0
174
    0
175
    0
176
    0
177
    0
178
    0
179
    0
271
    3
272
    4
273
    2
274
    2
275
    0
276
    0
277
    2
278
   44
279
    0
280
    0
281
    0
282
    0
283
    1
284
    0
285
    0
286
    0
288
    0
289
    3
340
4B
  0
ENDTAB
  0
TABLE
  2
BLOCK_RECORD
  5
1
330
0
100
AcDbSymbolTable
 70
    2
  0
BLOCK_RECORD
  5
1F
330
1
100
AcDbSymbolTableRecord
100
AcDbBlockTableRecord
  2
*Model_Space
 70
    0
280
    1
281
    0
  0
BLOCK_RECORD
  5
1E
330
1
100
AcDbSymbolTableRecord
100
AcDbBlockTableRecord
  2
*Paper_Space
 70
    0
280
    1
281
    0
  0
ENDTAB
  0
ENDSEC
  0
SECTION
  2
BLOCKS
  0
BLOCK
  5
20
330
1F
100
AcDbEntity
  8
0
100
AcDbBlockBegin
  2
*Model_Space
 70
    0
 10
0
 20
0
 30
0
  3
*Model_Space
  1

  0
ENDBLK
  5
21
330
1F
100
AcDbEntity
  8
0
100
AcDbBlockEnd
  0
BLOCK
  5
1C
330
1B
100
AcDbEntity
  8
0
100
AcDbBlockBegin
  2
*Paper_Space
 70
    0
 10
0
 20
0
 30
0
  3
*Paper_Space
  1

  0
ENDBLK
  5
1D
330
1F
100
AcDbEntity
  8
0
100
AcDbBlockEnd
  0
ENDSEC
  0
SECTION
  2
ENTITIES
  0
LINE
  5
4E
100
AcDbEntity
  8
0
  6
ByLayer
 62
    3
370
   -1
100
AcDbLine
 10
-6156858.118970473
 20
10261409.40233469
 11
-6156858.118970473
 21
10261397.87011135
  0
CIRCLE
  5
4F
100
AcDbEntity
  8
0
  6
ByLayer
 62
    3
370
   -1
100
AcDbCircle
 10
-6156852.963032978
 20
10261409.11676986
 40
0.0720000000000027
  0
CIRCLE
  5
50
100
AcDbEntity
  8
0
  6
ByLayer
 62
    3
370
   -1
100
AcDbCircle
 10
-6156850.981782983
 20
10261408.21287419
 40
0.0720000000000081
  0
CIRCLE
  5
51
100
AcDbEntity
  8
0
  6
ByLayer
 62
    3
370
   -1
100
AcDbCircle
 10
-6156850.981782983
 20
10261403.31186777
 40
0.0720000000000081
  0
CIRCLE
  5
52
100
AcDbEntity
  8
0
  6
ByLayer
 62
    3
370
   -1
100
AcDbCircle
 10
-6156850.981782983
 20
10261398.41086135
 40
0.0719999999999983
  0
LINE
  5
53
100
AcDbEntity
  8
0
  6
ByLayer
 62
    3
370
   -1
100
AcDbLine
 10
-6156850.807095483
 20
10261397.87011135
 11
-6156850.807095483
 21
10261409.40251101
  0
LINE
  5
54
100
AcDbEntity
  8
0
  6
ByLayer
 62
    3
370
   -1
100
AcDbLine
 10
-6156850.807095483
 20
10261397.87011135
 11
-6156858.118970473
 21
10261397.87011135
  0
ARC
  5
55
100
AcDbEntity
  8
0
  6
ByLayer
 62
    3
370
   -1
100
AcDbCircle
 10
-6156854.463032978
 20
10261201.774484
 40
207.6602115900888
100
AcDbArc
 50
88.99123375929997
 51
91.00876624070003
  0
CIRCLE
  5
56
100
AcDbEntity
  8
0
  6
ByLayer
 62
    3
370
   -1
100
AcDbCircle
 10
-6156855.963032978
 20
10261409.11676986
 40
0.0720000000000027
  0
CIRCLE
  5
57
100
AcDbEntity
  8
0
  6
ByLayer
 62
    3
370
   -1
100
AcDbCircle
 10
-6156857.944282973
 20
10261408.21287419
 40
0.0720000000000081
  0
CIRCLE
  5
58
100
AcDbEntity
  8
0
  6
ByLayer
 62
    3
370
   -1
100
AcDbCircle
 10
-6156857.944282973
 20
10261403.31186777
 40
0.0720000000000081
  0
CIRCLE
  5
59
100
AcDbEntity
  8
0
  6
ByLayer
 62
    3
370
   -1
100
AcDbCircle
 10
-6156857.944282973
 20
10261398.41086135
 40
0.0719999999999983
  0
CIRCLE
  5
5A
100
AcDbEntity
  8
0
  6
ByLayer
 62
    3
370
   -1
100
AcDbCircle
 10
-6156854.463032978
 20
10261398.06711135
 40
0.07199999999999381
  0
CIRCLE
  5
5B
100
AcDbEntity
  8
0
  6
CONTINUOUS
 62
    5
370
    0
100
AcDbCircle
 10
-6156855.76140786
 20
10261398.85240348
 40
0.1349999999999999
  0
CIRCLE
  5
5C
100
AcDbEntity
  8
0
  6
CONTINUOUS
 62
  256
370
    0
100
AcDbCircle
 10
-6156854.463032978
 20
10261398.85240348
 40
0.1362500000000002
  0
CIRCLE
  5
5D
100
AcDbEntity
  8
0
  6
CONTINUOUS
 62
  256
370
    0
100
AcDbCircle
 10
-6156853.313032977
 20
10261398.85240348
 40
0.1362500000000002
  0
LINE
  5
5E
100
AcDbEntity
  8
0
  6
ByLayer
 62
  256
370
   -1
100
AcDbLine
 10
-6156857.213260951
 20
10261398.61511684
 11
-6156857.213260951
 21
10261398.65590614
  0
LINE
  5
5F
100
AcDbEntity
  8
0
  6
ByLayer
 62
  256
370
   -1
100
AcDbLine
 10
-6156857.213260951
 20
10261398.65590614
 11
-6156857.148260951
 21
10261398.65590614
  0
LINE
  5
60
100
AcDbEntity
  8
0
  6
ByLayer
 62
  256
370
   -1
100
AcDbLine
 10
-6156857.148260951
 20
10261398.65590614
 11
-6156857.148260951
 21
10261398.61511684
  0
ARC
  5
61
100
AcDbEntity
  8
0
  6
ByLayer
 62
  256
370
   -1
100
AcDbCircle
 10
-6156857.180760952
 20
10261398.85290614
 40
0.24
100
AcDbArc
 50
277.7827143855482
 51
262.2172856138461
  0
LINE
  5
62
100
AcDbEntity
  8
0
  6
CONTINUOUS
 62
    7
370
   25
100
AcDbLine
 10
-6156857.473033042
 20
10261407.42164449
 11
-6156857.473033042
 21
10261405.65164449
  0
ARC
  5
63
100
AcDbEntity
  8
0
  6
CONTINUOUS
 62
    7
370
   25
100
AcDbCircle
 10
-6156857.393033042
 20
10261405.65164449
 40
0.080000000000001
100
AcDbArc
 50
180
 51
270
  0
LINE
  5
64
100
AcDbEntity
  8
0
  6
CONTINUOUS
 62
    7
370
   25
100
AcDbLine
 10
-6156857.393033042
 20
10261405.57164449
 11
-6156851.533033042
 21
10261405.57164449
  0
ARC
  5
65
100
AcDbEntity
  8
0
  6
CONTINUOUS
 62
    7
370
   25
100
AcDbCircle
 10
-6156851.533033042
 20
10261405.65164449
 40
0.080000000000001
100
AcDbArc
 50
270
 51
0
  0
LINE
  5
66
100
AcDbEntity
  8
0
  6
CONTINUOUS
 62
    7
370
   25
100
AcDbLine
 10
-6156851.453033042
 20
10261405.65164449
 11
-6156851.453033042
 21
10261407.42164449
  0
ARC
  5
67
100
AcDbEntity
  8
0
  6
CONTINUOUS
 62
    7
370
   25
100
AcDbCircle
 10
-6156851.533033042
 20
10261407.42164449
 40
0.0800000000000001
100
AcDbArc
 50
0
 51
90
  0
LINE
  5
68
100
AcDbEntity
  8
0
  6
CONTINUOUS
 62
    7
370
   25
100
AcDbLine
 10
-6156851.533033042
 20
10261407.50164449
 11
-6156857.393033042
 21
10261407.50164449
  0
ARC
  5
69
100
AcDbEntity
  8
0
  6
CONTINUOUS
 62
    7
370
   25
100
AcDbCircle
 10
-6156857.393033042
 20
10261407.42164449
 40
0.0800000000000001
100
AcDbArc
 50
90
 51
180
  0
CIRCLE
  5
6A
100
AcDbEntity
  8
0
  6
ByLayer
 62
  256
370
   -1
100
AcDbCircle
 10
-6156853.285463129
 20
10261408.00135678
 40
0.25
  0
ARC
  5
6B
100
AcDbEntity
  8
0
  6
ByLayer
 62
  256
370
   -1
100
AcDbCircle
 10
-6156857.546157978
 20
10261405.27476949
 40
0.046875
100
AcDbArc
 50
90
 51
180
  0
LINE
  5
6C
100
AcDbEntity
  8
0
  6
ByLayer
 62
  256
370
   -1
100
AcDbLine
 10
-6156857.593032978
 20
10261405.27476949
 11
-6156857.593032978
 21
10261400.67051949
  0
ARC
  5
6D
100
AcDbEntity
  8
0
  6
ByLayer
 62
  256
370
   -1
100
AcDbCircle
 10
-6156857.546157978
 20
10261400.67051949
 40
0.046875
100
AcDbArc
 50
180
 51
270
  0
LINE
  5
6E
100
AcDbEntity
  8
0
  6
ByLayer
 62
  256
370
   -1
100
AcDbLine
 10
-6156857.546157978
 20
10261400.62364449
 11
-6156851.379907978
 21
10261400.62364449
  0
ARC
  5
6F
100
AcDbEntity
  8
0
  6
ByLayer
 62
  256
370
   -1
100
AcDbCircle
 10
-6156851.379907978
 20
10261400.67051949
 40
0.046875
100
AcDbArc
 50
270
 51
0
  0
LINE
  5
70
100
AcDbEntity
  8
0
  6
ByLayer
 62
  256
370
   -1
100
AcDbLine
 10
-6156851.333032978
 20
10261405.27476949
 11
-6156851.333032978
 21
10261400.67051949
  0
LINE
  5
71
100
AcDbEntity
  8
0
  6
ByLayer
 62
  256
370
   -1
100
AcDbLine
 10
-6156851.379907978
 20
10261405.32164449
 11
-6156857.546157978
 21
10261405.32164449
  0
ARC
  5
72
100
AcDbEntity
  8
0
  6
ByLayer
 62
  256
370
   -1
100
AcDbCircle
 10
-6156851.379907978
 20
10261405.27476949
 40
0.046875
100
AcDbArc
 50
0
 51
90
  0
CIRCLE
  5
73
100
AcDbEntity
  8
0
  6
ByLayer
 62
    3
370
   -1
100
AcDbCircle
 10
-6156841.854655287
 20
10261408.49954388
 40
0.0720000000000116
  0
CIRCLE
  5
74
100
AcDbEntity
  8
0
  6
ByLayer
 62
    3
370
   -1
100
AcDbCircle
 10
-6156834.865921603
 20
10261404.66163378
 40
0.0720000000000027
  0
CIRCLE
  5
75
100
AcDbEntity
  8
0
  6
ByLayer
 62
    3
370
   -1
100
AcDbCircle
 10
-6156834.731394647
 20
10261398.45097812
 40
0.0719999999999943
  0
CIRCLE
  5
76
100
AcDbEntity
  8
0
  6
ByLayer
 62
    3
370
   -1
100
AcDbCircle
 10
-6156842.142530066
 20
10261398.06711135
 40
0.0720000000000032
  0
CIRCLE
  5
77
100
AcDbEntity
  8
0
  6
ByLayer
 62
    3
370
   -1
100
AcDbCircle
 10
-6156850.017530066
 20
10261398.06711135
 40
0.0719999999999943
  0
CIRCLE
  5
78
100
AcDbEntity
  8
0
  6
ByLayer
 62
    3
370
   -1
100
AcDbCircle
 10
-6156850.361280066
 20
10261405.41364265
 40
0.0720000000000027
  0
CIRCLE
  5
79
100
AcDbEntity
  8
0
  6
ByLayer
 62
    3
370
   -1
100
AcDbCircle
 10
-6156845.924242938
 20
10261408.95690076
 40
0.0720000000000116
  0
LINE
  5
7A
100
AcDbEntity
  8
0
  6
ByLayer
 62
    3
370
   -1
100
AcDbLine
 10
-6156836.326905061
 20
10261398.21386135
 11
-6156836.326905061
 21
10261397.99511135
  0
ARC
  5
7B
100
AcDbEntity
  8
0
  6
ByLayer
 62
    3
370
   -1
100
AcDbCircle
 10
-6156836.701905061
 20
10261398.21386135
 40
0.3749999999999964
100
AcDbArc
 50
0
 51
180
  0
LINE
  5
7C
100
AcDbEntity
  8
0
  6
ByLayer
 62
    3
370
   -1
100
AcDbLine
 10
-6156837.076905061
 20
10261397.99511135
 11
-6156837.076905061
 21
10261398.21386135
  0
ARC
  5
7D
100
AcDbEntity
  8
0
  6
ByLayer
 62
    3
370
   -1
100
AcDbCircle
 10
-6156837.201905061
 20
10261397.99511135
 40
0.1250000000000102
100
AcDbArc
 50
270
 51
0
  0
LINE
  5
7E
100
AcDbEntity
  8
0
  6
ByLayer
 62
    3
370
   -1
100
AcDbLine
 10
-6156850.535967566
 20
10261397.87011135
 11
-6156837.201905061
 21
10261397.87011135
  0
LINE
  5
7F
100
AcDbEntity
  8
0
  6
ByLayer
 62
    3
370
   -1
100
AcDbLine
 10
-6156850.535967566
 20
10261409.40233469
 11
-6156850.535967566
 21
10261397.87011135
  0
ARC
  5
80
100
AcDbEntity
  8
0
  6
ByLayer
 62
    3
370
   -1
100
AcDbCircle
 10
-6156854.201905061
 20
10261201.774484
 40
207.6602115900689
100
AcDbArc
 50
87.65445253089997
 51
88.98847421839997
  0
ARC
  5
81
100
AcDbEntity
  8
0
  6
ByLayer
 62
    3
370
   -1
100
AcDbCircle
 10
-6156846.780330538
 20
10261382.96345352
 40
26.31931040404391
100
AcDbArc
 50
71.00109887079995
 51
87.6544525307001
  0
ARC
  5
82
100
AcDbEntity
  8
0
  6
ByLayer
 62
    3
370
   -1
100
AcDbCircle
 10
-6156840.887147752
 20
10261400.07956546
 40
8.217075979878755
100
AcDbArc
 50
38.66219347900002
 51
71.00109887090002
  0
LINE
  5
83
100
AcDbEntity
  8
0
  6
ByLayer
 62
    3
370
   -1
100
AcDbLine
 10
-6156834.241471795
 20
10261403.84917497
 11
-6156834.470903113
 21
10261405.21299924
  0
LINE
  5
84
100
AcDbEntity
  8
0
  6
ByLayer
 62
    3
370
   -1
100
AcDbLine
 10
-6156834.144056288
 20
10261399.35182963
 11
-6156834.241471795
 21
10261403.84917497
  0
ARC
  5
85
100
AcDbEntity
  8
0
  6
ByLayer
 62
    3
370
   -1
100
AcDbCircle
 10
-6156834.269026973
 20
10261399.34912268
 40
0.1250000000109804
100
AcDbArc
 50
295.4683101234
 51
1.240870887000015
  0
ARC
  5
86
100
AcDbEntity
  8
0
  6
ByLayer
 62
    3
370
   -1
100
AcDbCircle
 10
-6156834.107772542
 20
10261399.01056396
 40
0.250000000013614
100
AcDbArc
 50
115.4683101142
 51
181.2408708709
  0
LINE
  5
87
100
AcDbEntity
  8
0
  6
ByLayer
 62
    3
370
   -1
100
AcDbLine
 10
-6156834.335894435
 20
10261397.99781829
 11
-6156834.357713914
 21
10261399.00515006
  0
ARC
  5
88
100
AcDbEntity
  8
0
  6
ByLayer
 62
    3
370
   -1
100
AcDbCircle
 10
-6156834.460865119
 20
10261397.99511135
 40
0.1249999999611393
100
AcDbArc
 50
270
 51
1.240870888000032
  0
LINE
  5
89
100
AcDbEntity
  8
0
  6
ByLayer
 62
    3
370
   -1
100
AcDbLine
 10
-6156836.201905061
 20
10261397.87011135
 11
-6156834.460865119
 21
10261397.87011135
  0
ARC
  5
8A
100
AcDbEntity
  8
0
  6
ByLayer
 62
    3
370
   -1
100
AcDbCircle
 10
-6156836.201905061
 20
10261397.99511135
 40
0.1250000000000102
100
AcDbArc
 50
180
 51
270
  0
CIRCLE
  5
8B
100
AcDbEntity
  8
0
  6
ByLayer
 62
    3
370
   -1
100
AcDbCircle
 10
-6156850.017600067
 20
10261409.07997137
 40
0.0720000000000116
  0
CIRCLE
  5
8C
100
AcDbEntity
  8
0
  6
ByLayer
 62
    3
370
   -1
100
AcDbCircle
 10
-6156850.361280066
 20
10261401.740377
 40
0.0720000000000036
  0
CIRCLE
  5
8D
100
AcDbEntity
  8
0
  6
ByLayer
 62
    3
370
   -1
100
AcDbCircle
 10
-6156846.080030066
 20
10261398.06711135
 40
0.0720000000000027
  0
CIRCLE
  5
8E
100
AcDbEntity
  8
0
  6
ByLayer
 62
    3
370
   -1
100
AcDbCircle
 10
-6156838.433131398
 20
10261398.06711135
 40
0.0720000000000027
  0
CIRCLE
  5
8F
100
AcDbEntity
  8
0
  6
ByLayer
 62
    3
370
   -1
100
AcDbCircle
 10
-6156834.798658124
 20
10261401.55630595
 40
0.07199999999999381
  0
CIRCLE
  5
90
100
AcDbEntity
  8
0
  6
ByLayer
 62
    3
370
   -1
100
AcDbCircle
 10
-6156837.909323583
 20
10261407.40178402
 40
0.0720000000000027
  0
LWPOLYLINE
  5
91
100
AcDbEntity
  8
0
  6
CONTINUOUS
 62
    7
370
    0
100
AcDbPolyline
 90
    8
 70
    1
 43
0
 10
-6156849.570015297
 20
10261400.03370268
 10
-6156839.833794825
 20
10261400.03370268
 42
0.414213562373095
 10
-6156839.544424746
 20
10261400.32307277
 10
-6156839.544424746
 20
10261407.03173419
 42
0.4142135614304335
 10
-6156839.833794825
 20
10261407.32110426
 10
-6156849.570015297
 20
10261407.32110426
 42
0.4142135614304335
 10
-6156849.859385376
 20
10261407.03173419
 10
-6156849.859385374
 20
10261400.32307277
 42
0.4142135604877717
  0
CIRCLE
  5
92
100
AcDbEntity
  8
0
  6
CONTINUOUS
 62
    5
370
    0
100
AcDbCircle
 10
-6156849.894818447
 20
10261399.99826961
 40
0.07500000000000109
  0
CIRCLE
  5
93
100
AcDbEntity
  8
0
  6
CONTINUOUS
 62
    5
370
    0
100
AcDbCircle
 10
-6156849.894818447
 20
10261407.35653733
 40
0.0749999999999993
  0
CIRCLE
  5
94
100
AcDbEntity
  8
0
  6
CONTINUOUS
 62
    5
370
    0
100
AcDbCircle
 10
-6156839.508991676
 20
10261407.35653733
 40
0.0749999999999993
  0
CIRCLE
  5
95
100
AcDbEntity
  8
0
  6
CONTINUOUS
 62
    5
370
    0
100
AcDbCircle
 10
-6156839.508991676
 20
10261399.99826961
 40
0.07500000000000109
  0
ARC
  5
96
100
AcDbEntity
  8
0
  6
ByLayer
 62
  256
370
   -1
100
AcDbCircle
 10
-6156838.80215963
 20
10261405.15288556
 40
0.225
100
AcDbArc
 50
97.40539018231561
 51
82.59460981768257
  0
LINE
  5
97
100
AcDbEntity
  8
0
  6
ByLayer
 62
  256
370
   -1
100
AcDbLine
 10
-6156838.77315963
 20
10261405.37600886
 11
-6156838.77315963
 21
10261405.34288557
  0
LINE
  5
98
100
AcDbEntity
  8
0
  6
ByLayer
 62
  256
370
   -1
100
AcDbLine
 10
-6156838.77315963
 20
10261405.34288557
 11
-6156838.83115963
 21
10261405.34288557
  0
LINE
  5
99
100
AcDbEntity
  8
0
  6
ByLayer
 62
  256
370
   -1
100
AcDbLine
 10
-6156838.83115963
 20
10261405.34288557
 11
-6156838.83115963
 21
10261405.37600886
  0
ARC
  5
9A
100
AcDbEntity
  8
0
  6
ByLayer
 62
  256
370
   -1
100
AcDbCircle
 10
-6156838.152159629
 20
10261405.15288556
 40
0.225
100
AcDbArc
 50
97.40539018231561
 51
82.59460981768257
  0
LINE
  5
9B
100
AcDbEntity
  8
0
  6
ByLayer
 62
  256
370
   -1
100
AcDbLine
 10
-6156838.123159629
 20
10261405.37600886
 11
-6156838.123159629
 21
10261405.34288557
  0
LINE
  5
9C
100
AcDbEntity
  8
0
  6
ByLayer
 62
  256
370
   -1
100
AcDbLine
 10
-6156838.123159629
 20
10261405.34288557
 11
-6156838.181159629
 21
10261405.34288557
  0
LINE
  5
9D
100
AcDbEntity
  8
0
  6
ByLayer
 62
  256
370
   -1
100
AcDbLine
 10
-6156838.181159629
 20
10261405.34288557
 11
-6156838.181159629
 21
10261405.37600886
  0
ARC
  5
9E
100
AcDbEntity
  8
0
  6
ByLayer
 62
  256
370
   -1
100
AcDbCircle
 10
-6156837.502159631
 20
10261405.15288556
 40
0.225
100
AcDbArc
 50
97.40539018231561
 51
82.59460981768257
  0
LINE
  5
9F
100
AcDbEntity
  8
0
  6
ByLayer
 62
  256
370
   -1
100
AcDbLine
 10
-6156837.47315963
 20
10261405.37600886
 11
-6156837.47315963
 21
10261405.34288557
  0
LINE
  5
A0
100
AcDbEntity
  8
0
  6
ByLayer
 62
  256
370
   -1
100
AcDbLine
 10
-6156837.47315963
 20
10261405.34288557
 11
-6156837.53115963
 21
10261405.34288557
  0
LINE
  5
A1
100
AcDbEntity
  8
0
  6
ByLayer
 62
  256
370
   -1
100
AcDbLine
 10
-6156837.53115963
 20
10261405.34288557
 11
-6156837.53115963
 21
10261405.37600886
  0
ARC
  5
A2
100
AcDbEntity
  8
0
  6
ByLayer
 62
  256
370
   -1
100
AcDbCircle
 10
-6156836.85215963
 20
10261405.15288556
 40
0.225
100
AcDbArc
 50
97.40539018231561
 51
82.59460981768257
  0
LINE
  5
A3
100
AcDbEntity
  8
0
  6
ByLayer
 62
  256
370
   -1
100
AcDbLine
 10
-6156836.823159629
 20
10261405.37600886
 11
-6156836.823159629
 21
10261405.34288557
  0
LINE
  5
A4
100
AcDbEntity
  8
0
  6
ByLayer
 62
  256
370
   -1
100
AcDbLine
 10
-6156836.823159629
 20
10261405.34288557
 11
-6156836.88115963
 21
10261405.34288557
  0
LINE
  5
A5
100
AcDbEntity
  8
0
  6
ByLayer
 62
  256
370
   -1
100
AcDbLine
 10
-6156836.88115963
 20
10261405.34288557
 11
-6156836.88115963
 21
10261405.37600886
  0
ARC
  5
A6
100
AcDbEntity
  8
0
  6
ByLayer
 62
  256
370
   -1
100
AcDbCircle
 10
-6156836.20215963
 20
10261405.15288556
 40
0.225
100
AcDbArc
 50
97.40539018231561
 51
82.59460981768257
  0
LINE
  5
A7
100
AcDbEntity
  8
0
  6
ByLayer
 62
  256
370
   -1
100
AcDbLine
 10
-6156836.17315963
 20
10261405.37600886
 11
-6156836.17315963
 21
10261405.34288557
  0
LINE
  5
A8
100
AcDbEntity
  8
0
  6
ByLayer
 62
  256
370
   -1
100
AcDbLine
 10
-6156836.17315963
 20
10261405.34288557
 11
-6156836.231159629
 21
10261405.34288557
  0
LINE
  5
A9
100
AcDbEntity
  8
0
  6
ByLayer
 62
  256
370
   -1
100
AcDbLine
 10
-6156836.231159629
 20
10261405.34288557
 11
-6156836.231159629
 21
10261405.37600886
  0
ARC
  5
AA
100
AcDbEntity
  8
0
  6
ByLayer
 62
  256
370
   -1
100
AcDbCircle
 10
-6156838.80215963
 20
10261403.96538556
 40
0.225
100
AcDbArc
 50
97.40539018231561
 51
82.59460981768257
  0
LINE
  5
AB
100
AcDbEntity
  8
0
  6
ByLayer
 62
  256
370
   -1
100
AcDbLine
 10
-6156838.77315963
 20
10261404.18850886
 11
-6156838.77315963
 21
10261404.15538557
  0
LINE
  5
AC
100
AcDbEntity
  8
0
  6
ByLayer
 62
  256
370
   -1
100
AcDbLine
 10
-6156838.77315963
 20
10261404.15538557
 11
-6156838.83115963
 21
10261404.15538557
  0
LINE
  5
AD
100
AcDbEntity
  8
0
  6
ByLayer
 62
  256
370
   -1
100
AcDbLine
 10
-6156838.83115963
 20
10261404.15538557
 11
-6156838.83115963
 21
10261404.18850886
  0
ARC
  5
AE
100
AcDbEntity
  8
0
  6
ByLayer
 62
  256
370
   -1
100
AcDbCircle
 10
-6156838.152159629
 20
10261403.96538556
 40
0.225
100
AcDbArc
 50
97.40539018231561
 51
82.59460981768257
  0
LINE
  5
AF
100
AcDbEntity
  8
0
  6
ByLayer
 62
  256
370
   -1
100
AcDbLine
 10
-6156838.123159629
 20
10261404.18850886
 11
-6156838.123159629
 21
10261404.15538557
  0
LINE
  5
B0
100
AcDbEntity
  8
0
  6
ByLayer
 62
  256
370
   -1
100
AcDbLine
 10
-6156838.123159629
 20
10261404.15538557
 11
-6156838.181159629
 21
10261404.15538557
  0
LINE
  5
B1
100
AcDbEntity
  8
0
  6
ByLayer
 62
  256
370
   -1
100
AcDbLine
 10
-6156838.181159629
 20
10261404.15538557
 11
-6156838.181159629
 21
10261404.18850886
  0
ARC
  5
B2
100
AcDbEntity
  8
0
  6
ByLayer
 62
  256
370
   -1
100
AcDbCircle
 10
-6156837.502159631
 20
10261403.96538556
 40
0.225
100
AcDbArc
 50
97.40539018231561
 51
82.59460981768257
  0
LINE
  5
B3
100
AcDbEntity
  8
0
  6
ByLayer
 62
  256
370
   -1
100
AcDbLine
 10
-6156837.47315963
 20
10261404.18850886
 11
-6156837.47315963
 21
10261404.15538557
  0
LINE
  5
B4
100
AcDbEntity
  8
0
  6
ByLayer
 62
  256
370
   -1
100
AcDbLine
 10
-6156837.47315963
 20
10261404.15538557
 11
-6156837.53115963
 21
10261404.15538557
  0
LINE
  5
B5
100
AcDbEntity
  8
0
  6
ByLayer
 62
  256
370
   -1
100
AcDbLine
 10
-6156837.53115963
 20
10261404.15538557
 11
-6156837.53115963
 21
10261404.18850886
  0
ARC
  5
B6
100
AcDbEntity
  8
0
  6
ByLayer
 62
  256
370
   -1
100
AcDbCircle
 10
-6156836.85215963
 20
10261403.96538556
 40
0.225
100
AcDbArc
 50
97.40539018231561
 51
82.59460981768257
  0
LINE
  5
B7
100
AcDbEntity
  8
0
  6
ByLayer
 62
  256
370
   -1
100
AcDbLine
 10
-6156836.823159629
 20
10261404.18850886
 11
-6156836.823159629
 21
10261404.15538557
  0
LINE
  5
B8
100
AcDbEntity
  8
0
  6
ByLayer
 62
  256
370
   -1
100
AcDbLine
 10
-6156836.823159629
 20
10261404.15538557
 11
-6156836.88115963
 21
10261404.15538557
  0
LINE
  5
B9
100
AcDbEntity
  8
0
  6
ByLayer
 62
  256
370
   -1
100
AcDbLine
 10
-6156836.88115963
 20
10261404.15538557
 11
-6156836.88115963
 21
10261404.18850886
  0
ARC
  5
BA
100
AcDbEntity
  8
0
  6
ByLayer
 62
  256
370
   -1
100
AcDbCircle
 10
-6156836.20215963
 20
10261403.96538556
 40
0.225
100
AcDbArc
 50
97.40539018231561
 51
82.59460981768257
  0
LINE
  5
BB
100
AcDbEntity
  8
0
  6
ByLayer
 62
  256
370
   -1
100
AcDbLine
 10
-6156836.17315963
 20
10261404.18850886
 11
-6156836.17315963
 21
10261404.15538557
  0
LINE
  5
BC
100
AcDbEntity
  8
0
  6
ByLayer
 62
  256
370
   -1
100
AcDbLine
 10
-6156836.17315963
 20
10261404.15538557
 11
-6156836.231159629
 21
10261404.15538557
  0
LINE
  5
BD
100
AcDbEntity
  8
0
  6
ByLayer
 62
  256
370
   -1
100
AcDbLine
 10
-6156836.231159629
 20
10261404.15538557
 11
-6156836.231159629
 21
10261404.18850886
  0
ARC
  5
BE
100
AcDbEntity
  8
0
  6
ByLayer
 62
  256
370
   -1
100
AcDbCircle
 10
-6156835.55215963
 20
10261403.96538556
 40
0.225
100
AcDbArc
 50
97.40539018231561
 51
82.59460981768257
  0
LINE
  5
BF
100
AcDbEntity
  8
0
  6
ByLayer
 62
  256
370
   -1
100
AcDbLine
 10
-6156835.52315963
 20
10261404.18850886
 11
-6156835.52315963
 21
10261404.15538557
  0
LINE
  5
C0
100
AcDbEntity
  8
0
  6
ByLayer
 62
  256
370
   -1
100
AcDbLine
 10
-6156835.52315963
 20
10261404.15538557
 11
-6156835.58115963
 21
10261404.15538557
  0
LINE
  5
C1
100
AcDbEntity
  8
0
  6
ByLayer
 62
  256
370
   -1
100
AcDbLine
 10
-6156835.58115963
 20
10261404.15538557
 11
-6156835.58115963
 21
10261404.18850886
  0
ARC
  5
C2
100
AcDbEntity
  8
0
  6
ByLayer
 62
  256
370
   -1
100
AcDbCircle
 10
-6156838.80165963
 20
10261402.77788556
 40
0.225
100
AcDbArc
 50
97.40539018231561
 51
82.59460981768257
  0
LINE
  5
C3
100
AcDbEntity
  8
0
  6
ByLayer
 62
  256
370
   -1
100
AcDbLine
 10
-6156838.77265963
 20
10261403.00100886
 11
-6156838.77265963
 21
10261402.96788557
  0
LINE
  5
C4
100
AcDbEntity
  8
0
  6
ByLayer
 62
  256
370
   -1
100
AcDbLine
 10
-6156838.77265963
 20
10261402.96788557
 11
-6156838.83065963
 21
10261402.96788557
  0
LINE
  5
C5
100
AcDbEntity
  8
0
  6
ByLayer
 62
  256
370
   -1
100
AcDbLine
 10
-6156838.83065963
 20
10261402.96788557
 11
-6156838.83065963
 21
10261403.00100886
  0
ARC
  5
C6
100
AcDbEntity
  8
0
  6
ByLayer
 62
  256
370
   -1
100
AcDbCircle
 10
-6156838.151659629
 20
10261402.77788556
 40
0.225
100
AcDbArc
 50
97.40539018231561
 51
82.59460981768257
  0
LINE
  5
C7
100
AcDbEntity
  8
0
  6
ByLayer
 62
  256
370
   -1
100
AcDbLine
 10
-6156838.12265963
 20
10261403.00100886
 11
-6156838.12265963
 21
10261402.96788557
  0
LINE
  5
C8
100
AcDbEntity
  8
0
  6
ByLayer
 62
  256
370
   -1
100
AcDbLine
 10
-6156838.12265963
 20
10261402.96788557
 11
-6156838.180659628
 21
10261402.96788557
  0
LINE
  5
C9
100
AcDbEntity
  8
0
  6
ByLayer
 62
  256
370
   -1
100
AcDbLine
 10
-6156838.180659628
 20
10261402.96788557
 11
-6156838.180659628
 21
10261403.00100886
  0
ARC
  5
CA
100
AcDbEntity
  8
0
  6
ByLayer
 62
  256
370
   -1
100
AcDbCircle
 10
-6156837.50165963
 20
10261402.77788556
 40
0.225
100
AcDbArc
 50
97.40539018231561
 51
82.59460981768257
  0
LINE
  5
CB
100
AcDbEntity
  8
0
  6
ByLayer
 62
  256
370
   -1
100
AcDbLine
 10
-6156837.47265963
 20
10261403.00100886
 11
-6156837.47265963
 21
10261402.96788557
  0
LINE
  5
CC
100
AcDbEntity
  8
0
  6
ByLayer
 62
  256
370
   -1
100
AcDbLine
 10
-6156837.47265963
 20
10261402.96788557
 11
-6156837.53065963
 21
10261402.96788557
  0
LINE
  5
CD
100
AcDbEntity
  8
0
  6
ByLayer
 62
  256
370
   -1
100
AcDbLine
 10
-6156837.53065963
 20
10261402.96788557
 11
-6156837.53065963
 21
10261403.00100886
  0
ARC
  5
CE
100
AcDbEntity
  8
0
  6
ByLayer
 62
  256
370
   -1
100
AcDbCircle
 10
-6156836.851659629
 20
10261402.77788556
 40
0.225
100
AcDbArc
 50
97.40539018231561
 51
82.59460981768257
  0
LINE
  5
CF
100
AcDbEntity
  8
0
  6
ByLayer
 62
  256
370
   -1
100
AcDbLine
 10
-6156836.822659629
 20
10261403.00100886
 11
-6156836.822659629
 21
10261402.96788557
  0
LINE
  5
D0
100
AcDbEntity
  8
0
  6
ByLayer
 62
  256
370
   -1
100
AcDbLine
 10
-6156836.822659629
 20
10261402.96788557
 11
-6156836.88065963
 21
10261402.96788557
  0
LINE
  5
D1
100
AcDbEntity
  8
0
  6
ByLayer
 62
  256
370
   -1
100
AcDbLine
 10
-6156836.88065963
 20
10261402.96788557
 11
-6156836.88065963
 21
10261403.00100886
  0
ARC
  5
D2
100
AcDbEntity
  8
0
  6
ByLayer
 62
  256
370
   -1
100
AcDbCircle
 10
-6156836.20165963
 20
10261402.77788556
 40
0.225
100
AcDbArc
 50
97.40539018231561
 51
82.59460981768257
  0
LINE
  5
D3
100
AcDbEntity
  8
0
  6
ByLayer
 62
  256
370
   -1
100
AcDbLine
 10
-6156836.17265963
 20
10261403.00100886
 11
-6156836.17265963
 21
10261402.96788557
  0
LINE
  5
D4
100
AcDbEntity
  8
0
  6
ByLayer
 62
  256
370
   -1
100
AcDbLine
 10
-6156836.17265963
 20
10261402.96788557
 11
-6156836.23065963
 21
10261402.96788557
  0
LINE
  5
D5
100
AcDbEntity
  8
0
  6
ByLayer
 62
  256
370
   -1
100
AcDbLine
 10
-6156836.23065963
 20
10261402.96788557
 11
-6156836.23065963
 21
10261403.00100886
  0
ARC
  5
D6
100
AcDbEntity
  8
0
  6
ByLayer
 62
  256
370
   -1
100
AcDbCircle
 10
-6156835.55165963
 20
10261402.77788556
 40
0.225
100
AcDbArc
 50
97.40539018231561
 51
82.59460981768257
  0
LINE
  5
D7
100
AcDbEntity
  8
0
  6
ByLayer
 62
  256
370
   -1
100
AcDbLine
 10
-6156835.52265963
 20
10261403.00100886
 11
-6156835.52265963
 21
10261402.96788557
  0
LINE
  5
D8
100
AcDbEntity
  8
0
  6
ByLayer
 62
  256
370
   -1
100
AcDbLine
 10
-6156835.52265963
 20
10261402.96788557
 11
-6156835.58065963
 21
10261402.96788557
  0
LINE
  5
D9
100
AcDbEntity
  8
0
  6
ByLayer
 62
  256
370
   -1
100
AcDbLine
 10
-6156835.58065963
 20
10261402.96788557
 11
-6156835.58065963
 21
10261403.00100886
  0
ARC
  5
DA
100
AcDbEntity
  8
0
  6
ByLayer
 62
  256
370
   -1
100
AcDbCircle
 10
-6156838.80215963
 20
10261401.59038556
 40
0.225
100
AcDbArc
 50
97.40539018231561
 51
82.59460981768257
  0
LINE
  5
DB
100
AcDbEntity
  8
0
  6
ByLayer
 62
  256
370
   -1
100
AcDbLine
 10
-6156838.77315963
 20
10261401.81350886
 11
-6156838.77315963
 21
10261401.78038557
  0
LINE
  5
DC
100
AcDbEntity
  8
0
  6
ByLayer
 62
  256
370
   -1
100
AcDbLine
 10
-6156838.77315963
 20
10261401.78038557
 11
-6156838.83115963
 21
10261401.78038557
  0
LINE
  5
DD
100
AcDbEntity
  8
0
  6
ByLayer
 62
  256
370
   -1
100
AcDbLine
 10
-6156838.83115963
 20
10261401.78038557
 11
-6156838.83115963
 21
10261401.81350886
  0
ARC
  5
DE
100
AcDbEntity
  8
0
  6
ByLayer
 62
  256
370
   -1
100
AcDbCircle
 10
-6156838.152159629
 20
10261401.59038556
 40
0.225
100
AcDbArc
 50
97.40539018231561
 51
82.59460981768257
  0
LINE
  5
DF
100
AcDbEntity
  8
0
  6
ByLayer
 62
  256
370
   -1
100
AcDbLine
 10
-6156838.123159629
 20
10261401.81350886
 11
-6156838.123159629
 21
10261401.78038557
  0
LINE
  5
E0
100
AcDbEntity
  8
0
  6
ByLayer
 62
  256
370
   -1
100
AcDbLine
 10
-6156838.123159629
 20
10261401.78038557
 11
-6156838.181159629
 21
10261401.78038557
  0
LINE
  5
E1
100
AcDbEntity
  8
0
  6
ByLayer
 62
  256
370
   -1
100
AcDbLine
 10
-6156838.181159629
 20
10261401.78038557
 11
-6156838.181159629
 21
10261401.81350886
  0
ARC
  5
E2
100
AcDbEntity
  8
0
  6
ByLayer
 62
  256
370
   -1
100
AcDbCircle
 10
-6156837.502159631
 20
10261401.59038556
 40
0.225
100
AcDbArc
 50
97.40539018231561
 51
82.59460981768257
  0
LINE
  5
E3
100
AcDbEntity
  8
0
  6
ByLayer
 62
  256
370
   -1
100
AcDbLine
 10
-6156837.47315963
 20
10261401.81350886
 11
-6156837.47315963
 21
10261401.78038557
  0
LINE
  5
E4
100
AcDbEntity
  8
0
  6
ByLayer
 62
  256
370
   -1
100
AcDbLine
 10
-6156837.47315963
 20
10261401.78038557
 11
-6156837.53115963
 21
10261401.78038557
  0
LINE
  5
E5
100
AcDbEntity
  8
0
  6
ByLayer
 62
  256
370
   -1
100
AcDbLine
 10
-6156837.53115963
 20
10261401.78038557
 11
-6156837.53115963
 21
10261401.81350886
  0
ARC
  5
E6
100
AcDbEntity
  8
0
  6
ByLayer
 62
  256
370
   -1
100
AcDbCircle
 10
-6156836.85215963
 20
10261401.59038556
 40
0.225
100
AcDbArc
 50
97.40539018231561
 51
82.59460981768257
  0
LINE
  5
E7
100
AcDbEntity
  8
0
  6
ByLayer
 62
  256
370
   -1
100
AcDbLine
 10
-6156836.823159629
 20
10261401.81350886
 11
-6156836.823159629
 21
10261401.78038557
  0
LINE
  5
E8
100
AcDbEntity
  8
0
  6
ByLayer
 62
  256
370
   -1
100
AcDbLine
 10
-6156836.823159629
 20
10261401.78038557
 11
-6156836.88115963
 21
10261401.78038557
  0
LINE
  5
E9
100
AcDbEntity
  8
0
  6
ByLayer
 62
  256
370
   -1
100
AcDbLine
 10
-6156836.88115963
 20
10261401.78038557
 11
-6156836.88115963
 21
10261401.81350886
  0
ARC
  5
EA
100
AcDbEntity
  8
0
  6
ByLayer
 62
  256
370
   -1
100
AcDbCircle
 10
-6156836.20215963
 20
10261401.59038556
 40
0.225
100
AcDbArc
 50
97.40539018231561
 51
82.59460981768257
  0
LINE
  5
EB
100
AcDbEntity
  8
0
  6
ByLayer
 62
  256
370
   -1
100
AcDbLine
 10
-6156836.17315963
 20
10261401.81350886
 11
-6156836.17315963
 21
10261401.78038557
  0
LINE
  5
EC
100
AcDbEntity
  8
0
  6
ByLayer
 62
  256
370
   -1
100
AcDbLine
 10
-6156836.17315963
 20
10261401.78038557
 11
-6156836.231159629
 21
10261401.78038557
  0
LINE
  5
ED
100
AcDbEntity
  8
0
  6
ByLayer
 62
  256
370
   -1
100
AcDbLine
 10
-6156836.231159629
 20
10261401.78038557
 11
-6156836.231159629
 21
10261401.81350886
  0
ARC
  5
EE
100
AcDbEntity
  8
0
  6
ByLayer
 62
  256
370
   -1
100
AcDbCircle
 10
-6156835.55215963
 20
10261401.59038556
 40
0.225
100
AcDbArc
 50
97.40539018231561
 51
82.59460981768257
  0
LINE
  5
EF
100
AcDbEntity
  8
0
  6
ByLayer
 62
  256
370
   -1
100
AcDbLine
 10
-6156835.52315963
 20
10261401.81350886
 11
-6156835.52315963
 21
10261401.78038557
  0
LINE
  5
F0
100
AcDbEntity
  8
0
  6
ByLayer
 62
  256
370
   -1
100
AcDbLine
 10
-6156835.52315963
 20
10261401.78038557
 11
-6156835.58115963
 21
10261401.78038557
  0
LINE
  5
F1
100
AcDbEntity
  8
0
  6
ByLayer
 62
  256
370
   -1
100
AcDbLine
 10
-6156835.58115963
 20
10261401.78038557
 11
-6156835.58115963
 21
10261401.81350886
  0
ARC
  5
F2
100
AcDbEntity
  8
0
  6
ByLayer
 62
  256
370
   -1
100
AcDbCircle
 10
-6156838.80165963
 20
10261400.40288556
 40
0.225
100
AcDbArc
 50
97.40539018231561
 51
82.59460981768257
  0
LINE
  5
F3
100
AcDbEntity
  8
0
  6
ByLayer
 62
  256
370
   -1
100
AcDbLine
 10
-6156838.77265963
 20
10261400.62600886
 11
-6156838.77265963
 21
10261400.59288557
  0
LINE
  5
F4
100
AcDbEntity
  8
0
  6
ByLayer
 62
  256
370
   -1
100
AcDbLine
 10
-6156838.77265963
 20
10261400.59288557
 11
-6156838.83065963
 21
10261400.59288557
  0
LINE
  5
F5
100
AcDbEntity
  8
0
  6
ByLayer
 62
  256
370
   -1
100
AcDbLine
 10
-6156838.83065963
 20
10261400.59288557
 11
-6156838.83065963
 21
10261400.62600886
  0
ARC
  5
F6
100
AcDbEntity
  8
0
  6
ByLayer
 62
  256
370
   -1
100
AcDbCircle
 10
-6156838.151659629
 20
10261400.40288556
 40
0.225
100
AcDbArc
 50
97.40539018231561
 51
82.59460981768257
  0
LINE
  5
F7
100
AcDbEntity
  8
0
  6
ByLayer
 62
  256
370
   -1
100
AcDbLine
 10
-6156838.12265963
 20
10261400.62600886
 11
-6156838.12265963
 21
10261400.59288557
  0
LINE
  5
F8
100
AcDbEntity
  8
0
  6
ByLayer
 62
  256
370
   -1
100
AcDbLine
 10
-6156838.12265963
 20
10261400.59288557
 11
-6156838.180659628
 21
10261400.59288557
  0
LINE
  5
F9
100
AcDbEntity
  8
0
  6
ByLayer
 62
  256
370
   -1
100
AcDbLine
 10
-6156838.180659628
 20
10261400.59288557
 11
-6156838.180659628
 21
10261400.62600886
  0
ARC
  5
FA
100
AcDbEntity
  8
0
  6
ByLayer
 62
  256
370
   -1
100
AcDbCircle
 10
-6156837.50165963
 20
10261400.40288556
 40
0.225
100
AcDbArc
 50
97.40539018231561
 51
82.59460981768257
  0
LINE
  5
FB
100
AcDbEntity
  8
0
  6
ByLayer
 62
  256
370
   -1
100
AcDbLine
 10
-6156837.47265963
 20
10261400.62600886
 11
-6156837.47265963
 21
10261400.59288557
  0
LINE
  5
FC
100
AcDbEntity
  8
0
  6
ByLayer
 62
  256
370
   -1
100
AcDbLine
 10
-6156837.47265963
 20
10261400.59288557
 11
-6156837.53065963
 21
10261400.59288557
  0
LINE
  5
FD
100
AcDbEntity
  8
0
  6
ByLayer
 62
  256
370
   -1
100
AcDbLine
 10
-6156837.53065963
 20
10261400.59288557
 11
-6156837.53065963
 21
10261400.62600886
  0
ARC
  5
FE
100
AcDbEntity
  8
0
  6
ByLayer
 62
  256
370
   -1
100
AcDbCircle
 10
-6156836.851659629
 20
10261400.40288556
 40
0.225
100
AcDbArc
 50
97.40539018231561
 51
82.59460981768257
  0
LINE
  5
FF
100
AcDbEntity
  8
0
  6
ByLayer
 62
  256
370
   -1
100
AcDbLine
 10
-6156836.822659629
 20
10261400.62600886
 11
-6156836.822659629
 21
10261400.59288557
  0
LINE
  5
100
100
AcDbEntity
  8
0
  6
ByLayer
 62
  256
370
   -1
100
AcDbLine
 10
-6156836.822659629
 20
10261400.59288557
 11
-6156836.88065963
 21
10261400.59288557
  0
LINE
  5
101
100
AcDbEntity
  8
0
  6
ByLayer
 62
  256
370
   -1
100
AcDbLine
 10
-6156836.88065963
 20
10261400.59288557
 11
-6156836.88065963
 21
10261400.62600886
  0
ARC
  5
102
100
AcDbEntity
  8
0
  6
ByLayer
 62
  256
370
   -1
100
AcDbCircle
 10
-6156836.20165963
 20
10261400.40288556
 40
0.225
100
AcDbArc
 50
97.40539018231561
 51
82.59460981768257
  0
LINE
  5
103
100
AcDbEntity
  8
0
  6
ByLayer
 62
  256
370
   -1
100
AcDbLine
 10
-6156836.17265963
 20
10261400.62600886
 11
-6156836.17265963
 21
10261400.59288557
  0
LINE
  5
104
100
AcDbEntity
  8
0
  6
ByLayer
 62
  256
370
   -1
100
AcDbLine
 10
-6156836.17265963
 20
10261400.59288557
 11
-6156836.23065963
 21
10261400.59288557
  0
LINE
  5
105
100
AcDbEntity
  8
0
  6
ByLayer
 62
  256
370
   -1
100
AcDbLine
 10
-6156836.23065963
 20
10261400.59288557
 11
-6156836.23065963
 21
10261400.62600886
  0
ARC
  5
106
100
AcDbEntity
  8
0
  6
ByLayer
 62
  256
370
   -1
100
AcDbCircle
 10
-6156835.55165963
 20
10261400.40288556
 40
0.225
100
AcDbArc
 50
97.40539018231561
 51
82.59460981768257
  0
LINE
  5
107
100
AcDbEntity
  8
0
  6
ByLayer
 62
  256
370
   -1
100
AcDbLine
 10
-6156835.52265963
 20
10261400.62600886
 11
-6156835.52265963
 21
10261400.59288557
  0
LINE
  5
108
100
AcDbEntity
  8
0
  6
ByLayer
 62
  256
370
   -1
100
AcDbLine
 10
-6156835.52265963
 20
10261400.59288557
 11
-6156835.58065963
 21
10261400.59288557
  0
LINE
  5
109
100
AcDbEntity
  8
0
  6
ByLayer
 62
  256
370
   -1
100
AcDbLine
 10
-6156835.58065963
 20
10261400.59288557
 11
-6156835.58065963
 21
10261400.62600886
  0
ARC
  5
10A
100
AcDbEntity
  8
0
  6
ByLayer
 62
  256
370
   -1
100
AcDbCircle
 10
-6156838.80215963
 20
10261406.34038556
 40
0.225
100
AcDbArc
 50
97.40539018231561
 51
82.59460981768257
  0
LINE
  5
10B
100
AcDbEntity
  8
0
  6
ByLayer
 62
  256
370
   -1
100
AcDbLine
 10
-6156838.77315963
 20
10261406.56350886
 11
-6156838.77315963
 21
10261406.53038557
  0
LINE
  5
10C
100
AcDbEntity
  8
0
  6
ByLayer
 62
  256
370
   -1
100
AcDbLine
 10
-6156838.77315963
 20
10261406.53038557
 11
-6156838.83115963
 21
10261406.53038557
  0
LINE
  5
10D
100
AcDbEntity
  8
0
  6
ByLayer
 62
  256
370
   -1
100
AcDbLine
 10
-6156838.83115963
 20
10261406.53038557
 11
-6156838.83115963
 21
10261406.56350886
  0
ARC
  5
10E
100
AcDbEntity
  8
0
  6
ByLayer
 62
  256
370
   -1
100
AcDbCircle
 10
-6156838.152159629
 20
10261406.34038556
 40
0.225
100
AcDbArc
 50
97.40539018231561
 51
82.59460981768257
  0
LINE
  5
10F
100
AcDbEntity
  8
0
  6
ByLayer
 62
  256
370
   -1
100
AcDbLine
 10
-6156838.123159629
 20
10261406.56350886
 11
-6156838.123159629
 21
10261406.53038557
  0
LINE
  5
110
100
AcDbEntity
  8
0
  6
ByLayer
 62
  256
370
   -1
100
AcDbLine
 10
-6156838.123159629
 20
10261406.53038557
 11
-6156838.181159629
 21
10261406.53038557
  0
LINE
  5
111
100
AcDbEntity
  8
0
  6
ByLayer
 62
  256
370
   -1
100
AcDbLine
 10
-6156838.181159629
 20
10261406.53038557
 11
-6156838.181159629
 21
10261406.56350886
  0
ARC
  5
112
100
AcDbEntity
  8
0
  6
ByLayer
 62
  256
370
   -1
100
AcDbCircle
 10
-6156837.502159631
 20
10261406.34038556
 40
0.225
100
AcDbArc
 50
97.40539018231561
 51
82.59460981768257
  0
LINE
  5
113
100
AcDbEntity
  8
0
  6
ByLayer
 62
  256
370
   -1
100
AcDbLine
 10
-6156837.47315963
 20
10261406.56350886
 11
-6156837.47315963
 21
10261406.53038557
  0
LINE
  5
114
100
AcDbEntity
  8
0
  6
ByLayer
 62
  256
370
   -1
100
AcDbLine
 10
-6156837.47315963
 20
10261406.53038557
 11
-6156837.53115963
 21
10261406.53038557
  0
LINE
  5
115
100
AcDbEntity
  8
0
  6
ByLayer
 62
  256
370
   -1
100
AcDbLine
 10
-6156837.53115963
 20
10261406.53038557
 11
-6156837.53115963
 21
10261406.56350886
  0
ARC
  5
116
100
AcDbEntity
  8
0
  6
ByLayer
 62
  256
370
   -1
100
AcDbCircle
 10
-6156844.468971991
 20
10261400.28663576
 40
0
100
AcDbArc
 50
0
 51
0
  0
LWPOLYLINE
  5
117
100
AcDbEntity
  8
0
  6
ByLayer
 62
  256
370
   -1
100
AcDbPolyline
 90
    8
 70
    1
 43
0
 10
-6156849.570015296
 20
10261400.05370731
 10
-6156839.833794825
 20
10261400.05370731
 42
0.4141991888680164
 10
-6156839.564424746
 20
10261400.32306417
 10
-6156839.564424746
 20
10261407.03173881
 42
0.414213562373095
 10
-6156839.833794825
 20
10261407.30110889
 10
-6156849.570015296
 20
10261407.30110889
 42
0.414213562373095
 10
-6156849.839385375
 20
10261407.03173881
 10
-6156849.839385375
 20
10261400.32307214
 42
0.4142078459659003
  0
CIRCLE
  5
118
100
AcDbEntity
  8
0
  6
CONTINUOUS
 62
    5
370
    0
100
AcDbCircle
 10
-6156839.799695089
 20
10261407.06583854
 40
0.0749999999999993
  0
CIRCLE
  5
119
100
AcDbEntity
  8
0
  6
CONTINUOUS
 62
    5
370
    0
100
AcDbCircle
 10
-6156839.799695089
 20
10261400.28897765
 40
0.07500000000000109
  0
CIRCLE
  5
11A
100
AcDbEntity
  8
0
  6
CONTINUOUS
 62
    5
370
    0
100
AcDbCircle
 10
-6156849.604115033
 20
10261400.28897765
 40
0.07500000000000109
  0
CIRCLE
  5
11B
100
AcDbEntity
  8
0
  6
CONTINUOUS
 62
    5
370
    0
100
AcDbCircle
 10
-6156849.604115033
 20
10261407.06583854
 40
0.0749999999999993
  0
CIRCLE
  5
11C
100
AcDbEntity
  8
0
  6
ByLayer
 62
    3
370
   -1
100
AcDbCircle
 10
-6156867.076717985
 20
10261408.49954388
 40
0.0720000000000116
  0
CIRCLE
  5
11D
100
AcDbEntity
  8
0
  6
ByLayer
 62
    3
370
   -1
100
AcDbCircle
 10
-6156874.06545167
 20
10261404.66163378
 40
0.0720000000000027
  0
CIRCLE
  5
11E
100
AcDbEntity
  8
0
  6
ByLayer
 62
    3
370
   -1
100
AcDbCircle
 10
-6156874.199978624
 20
10261398.45097812
 40
0.0719999999999943
  0
CIRCLE
  5
11F
100
AcDbEntity
  8
0
  6
ByLayer
 62
    3
370
   -1
100
AcDbCircle
 10
-6156866.788843206
 20
10261398.06711135
 40
0.0720000000000032
  0
CIRCLE
  5
120
100
AcDbEntity
  8
0
  6
ByLayer
 62
    3
370
   -1
100
AcDbCircle
 10
-6156858.913843206
 20
10261398.06711135
 40
0.0719999999999943
  0
CIRCLE
  5
121
100
AcDbEntity
  8
0
  6
ByLayer
 62
    3
370
   -1
100
AcDbCircle
 10
-6156858.570093206
 20
10261405.41364265
 40
0.0720000000000027
  0
CIRCLE
  5
122
100
AcDbEntity
  8
0
  6
ByLayer
 62
    3
370
   -1
100
AcDbCircle
 10
-6156863.007130334
 20
10261408.95690076
 40
0.0720000000000116
  0
LINE
  5
123
100
AcDbEntity
  8
0
  6
ByLayer
 62
    3
370
   -1
100
AcDbLine
 10
-6156872.604468212
 20
10261398.21386135
 11
-6156872.604468212
 21
10261397.99511135
  0
ARC
  5
124
100
AcDbEntity
  8
0
  6
ByLayer
 62
    3
370
   -1
100
AcDbCircle
 10
-6156872.229468212
 20
10261398.21386135
 40
0.3749999999999964
100
AcDbArc
 50
0
 51
180
  0
LINE
  5
125
100
AcDbEntity
  8
0
  6
ByLayer
 62
    3
370
   -1
100
AcDbLine
 10
-6156871.854468212
 20
10261397.99511135
 11
-6156871.854468212
 21
10261398.21386135
  0
ARC
  5
126
100
AcDbEntity
  8
0
  6
ByLayer
 62
    3
370
   -1
100
AcDbCircle
 10
-6156871.729468212
 20
10261397.99511135
 40
0.1250000000000102
100
AcDbArc
 50
180
 51
270
  0
LINE
  5
127
100
AcDbEntity
  8
0
  6
ByLayer
 62
    3
370
   -1
100
AcDbLine
 10
-6156858.395405706
 20
10261397.87011135
 11
-6156871.729468212
 21
10261397.87011135
  0
ARC
  5
128
100
AcDbEntity
  8
0
  6
ByLayer
 62
    3
370
   -1
100
AcDbCircle
 10
-6156854.729468212
 20
10261201.774484
 40
207.6602115900689
100
AcDbArc
 50
91.01152578160001
 51
92.34554746910003
  0
ARC
  5
129
100
AcDbEntity
  8
0
  6
ByLayer
 62
    3
370
   -1
100
AcDbCircle
 10
-6156862.151042734
 20
10261382.96345352
 40
26.31931040404391
100
AcDbArc
 50
92.34554746929989
 51
108.9989011292
  0
ARC
  5
12A
100
AcDbEntity
  8
0
  6
ByLayer
 62
    3
370
   -1
100
AcDbCircle
 10
-6156868.04422552
 20
10261400.07956546
 40
8.217075979878755
100
AcDbArc
 50
108.9989011290999
 51
141.3378065209999
  0
LINE
  5
12B
100
AcDbEntity
  8
0
  6
ByLayer
 62
    3
370
   -1
100
AcDbLine
 10
-6156874.689901477
 20
10261403.84917497
 11
-6156874.460470159
 21
10261405.21299924
  0
LINE
  5
12C
100
AcDbEntity
  8
0
  6
ByLayer
 62
    3
370
   -1
100
AcDbLine
 10
-6156874.787316984
 20
10261399.35182963
 11
-6156874.689901477
 21
10261403.84917497
  0
ARC
  5
12D
100
AcDbEntity
  8
0
  6
ByLayer
 62
    3
370
   -1
100
AcDbCircle
 10
-6156874.662346299
 20
10261399.34912268
 40
0.1250000000109804
100
AcDbArc
 50
178.759129113
 51
244.5316898766
  0
ARC
  5
12E
100
AcDbEntity
  8
0
  6
ByLayer
 62
    3
370
   -1
100
AcDbCircle
 10
-6156874.82360073
 20
10261399.01056396
 40
0.250000000013614
100
AcDbArc
 50
358.7591291291
 51
64.53168988579993
  0
LINE
  5
12F
100
AcDbEntity
  8
0
  6
ByLayer
 62
    3
370
   -1
100
AcDbLine
 10
-6156874.595478837
 20
10261397.99781829
 11
-6156874.573659358
 21
10261399.00515006
  0
ARC
  5
130
100
AcDbEntity
  8
0
  6
ByLayer
 62
    3
370
   -1
100
AcDbCircle
 10
-6156874.470508152
 20
10261397.99511135
 40
0.1249999999611393
100
AcDbArc
 50
178.7591291119999
 51
270
  0
LINE
  5
131
100
AcDbEntity
  8
0
  6
ByLayer
 62
    3
370
   -1
100
AcDbLine
 10
-6156872.729468212
 20
10261397.87011135
 11
-6156874.470508152
 21
10261397.87011135
  0
ARC
  5
132
100
AcDbEntity
  8
0
  6
ByLayer
 62
    3
370
   -1
100
AcDbCircle
 10
-6156872.729468212
 20
10261397.99511135
 40
0.1250000000000102
100
AcDbArc
 50
270
 51
0
  0
CIRCLE
  5
133
100
AcDbEntity
  8
0
  6
ByLayer
 62
    3
370
   -1
100
AcDbCircle
 10
-6156858.913773205
 20
10261409.07997137
 40
0.0720000000000116
  0
CIRCLE
  5
134
100
AcDbEntity
  8
0
  6
ByLayer
 62
    3
370
   -1
100
AcDbCircle
 10
-6156858.570093206
 20
10261401.740377
 40
0.0720000000000036
  0
CIRCLE
  5
135
100
AcDbEntity
  8
0
  6
ByLayer
 62
    3
370
   -1
100
AcDbCircle
 10
-6156862.851343206
 20
10261398.06711135
 40
0.0720000000000027
  0
CIRCLE
  5
136
100
AcDbEntity
  8
0
  6
ByLayer
 62
    3
370
   -1
100
AcDbCircle
 10
-6156870.498241873
 20
10261398.06711135
 40
0.0720000000000027
  0
CIRCLE
  5
137
100
AcDbEntity
  8
0
  6
ByLayer
 62
    3
370
   -1
100
AcDbCircle
 10
-6156874.132715148
 20
10261401.55630595
 40
0.07199999999999381
  0
CIRCLE
  5
138
100
AcDbEntity
  8
0
  6
ByLayer
 62
    3
370
   -1
100
AcDbCircle
 10
-6156871.022049689
 20
10261407.40178402
 40
0.0720000000000027
  0
LINE
  5
139
100
AcDbEntity
  8
0
  6
ByLayer
 62
    3
370
   -1
100
AcDbLine
 10
-6156858.395405706
 20
10261397.87011135
 11
-6156858.395405706
 21
10261409.40251101
  0
LWPOLYLINE
  5
13A
100
AcDbEntity
  8
0
  6
CONTINUOUS
 62
    7
370
    0
100
AcDbPolyline
 90
    8
 70
    1
 43
0
 10
-6156869.097578447
 20
10261400.03370268
 10
-6156859.361357975
 20
10261400.03370268
 42
0.414213562373095
 10
-6156859.071987896
 20
10261400.32307277
 10
-6156859.071987896
 20
10261407.03173419
 42
0.4142135614304335
 10
-6156859.361357975
 20
10261407.32110426
 10
-6156869.097578447
 20
10261407.32110426
 42
0.4142135614304335
 10
-6156869.386948526
 20
10261407.03173419
 10
-6156869.386948526
 20
10261400.32307277
 42
0.414213562373095
  0
CIRCLE
  5
13B
100
AcDbEntity
  8
0
  6
CONTINUOUS
 62
    5
370
    9
100
AcDbCircle
 10
-6156871.70051458
 20
10261403.6397602
 40
1.57
  0
CIRCLE
  5
13C
100
AcDbEntity
  8
0
  6
CONTINUOUS
 62
    5
370
    9
100
AcDbCircle
 10
-6156872.937649256
 20
10261402.4027602
 40
0.07500000000000109
  0
CIRCLE
  5
13D
100
AcDbEntity
  8
0
  6
CONTINUOUS
 62
    5
370
    9
100
AcDbCircle
 10
-6156872.937649256
 20
10261404.87676021
 40
0.07500000000000109
  0
CIRCLE
  5
13E
100
AcDbEntity
  8
0
  6
CONTINUOUS
 62
    5
370
    9
100
AcDbCircle
 10
-6156870.463379905
 20
10261404.87676021
 40
0.07500000000000109
  0
LINE
  5
13F
100
AcDbEntity
  8
0
  6
ByLayer
 62
  256
370
   -1
100
AcDbLine
 10
-6156869.18830857
 20
10261398.61461417
 11
-6156869.18830857
 21
10261398.65540347
  0
LINE
  5
140
100
AcDbEntity
  8
0
  6
ByLayer
 62
  256
370
   -1
100
AcDbLine
 10
-6156869.18830857
 20
10261398.65540347
 11
-6156869.123308569
 21
10261398.65540347
  0
LINE
  5
141
100
AcDbEntity
  8
0
  6
ByLayer
 62
  256
370
   -1
100
AcDbLine
 10
-6156869.123308569
 20
10261398.65540347
 11
-6156869.123308569
 21
10261398.61461417
  0
ARC
  5
142
100
AcDbEntity
  8
0
  6
ByLayer
 62
  256
370
   -1
100
AcDbCircle
 10
-6156869.15580857
 20
10261398.85240347
 40
0.24
100
AcDbArc
 50
277.7827143855482
 51
262.2172856138461
  0
LINE
  5
143
100
AcDbEntity
  8
0
  6
ByLayer
 62
  256
370
   -1
100
AcDbLine
 10
-6156868.288308569
 20
10261398.61465281
 11
-6156868.288308569
 21
10261398.65544211
  0
LINE
  5
144
100
AcDbEntity
  8
0
  6
ByLayer
 62
  256
370
   -1
100
AcDbLine
 10
-6156868.288308569
 20
10261398.65544211
 11
-6156868.22330857
 21
10261398.65544211
  0
LINE
  5
145
100
AcDbEntity
  8
0
  6
ByLayer
 62
  256
370
   -1
100
AcDbLine
 10
-6156868.22330857
 20
10261398.65544211
 11
-6156868.22330857
 21
10261398.61465281
  0
ARC
  5
146
100
AcDbEntity
  8
0
  6
ByLayer
 62
  256
370
   -1
100
AcDbCircle
 10
-6156868.255808569
 20
10261398.85244211
 40
0.24
100
AcDbArc
 50
277.7827143855482
 51
262.2172856138461
  0
LINE
  5
147
100
AcDbEntity
  8
0
  6
ByLayer
 62
  256
370
   -1
100
AcDbLine
 10
-6156866.93830857
 20
10261398.61471077
 11
-6156866.93830857
 21
10261398.65550006
  0
LINE
  5
148
100
AcDbEntity
  8
0
  6
ByLayer
 62
  256
370
   -1
100
AcDbLine
 10
-6156866.93830857
 20
10261398.65550006
 11
-6156866.873308569
 21
10261398.65550006
  0
LINE
  5
149
100
AcDbEntity
  8
0
  6
ByLayer
 62
  256
370
   -1
100
AcDbLine
 10
-6156866.873308569
 20
10261398.65550006
 11
-6156866.873308569
 21
10261398.61471077
  0
ARC
  5
14A
100
AcDbEntity
  8
0
  6
ByLayer
 62
  256
370
   -1
100
AcDbCircle
 10
-6156866.90580857
 20
10261398.85250006
 40
0.24
100
AcDbArc
 50
277.7827143855482
 51
262.2172856138461
  0
LINE
  5
14B
100
AcDbEntity
  8
0
  6
ByLayer
 62
  256
370
   -1
100
AcDbLine
 10
-6156866.038308569
 20
10261398.6147494
 11
-6156866.038308569
 21
10261398.6555387
  0
LINE
  5
14C
100
AcDbEntity
  8
0
  6
ByLayer
 62
  256
370
   -1
100
AcDbLine
 10
-6156866.038308569
 20
10261398.6555387
 11
-6156865.97330857
 21
10261398.6555387
  0
LINE
  5
14D
100
AcDbEntity
  8
0
  6
ByLayer
 62
  256
370
   -1
100
AcDbLine
 10
-6156865.97330857
 20
10261398.6555387
 11
-6156865.97330857
 21
10261398.6147494
  0
ARC
  5
14E
100
AcDbEntity
  8
0
  6
ByLayer
 62
  256
370
   -1
100
AcDbCircle
 10
-6156866.005808569
 20
10261398.8525387
 40
0.24
100
AcDbArc
 50
277.7827143855482
 51
262.2172856138461
  0
LINE
  5
14F
100
AcDbEntity
  8
0
  6
ByLayer
 62
  256
370
   -1
100
AcDbLine
 10
-6156865.13830857
 20
10261398.61478804
 11
-6156865.13830857
 21
10261398.65557734
  0
LINE
  5
150
100
AcDbEntity
  8
0
  6
ByLayer
 62
  256
370
   -1
100
AcDbLine
 10
-6156865.13830857
 20
10261398.65557734
 11
-6156865.073308569
 21
10261398.65557734
  0
LINE
  5
151
100
AcDbEntity
  8
0
  6
ByLayer
 62
  256
370
   -1
100
AcDbLine
 10
-6156865.073308569
 20
10261398.65557734
 11
-6156865.073308569
 21
10261398.61478804
  0
ARC
  5
152
100
AcDbEntity
  8
0
  6
ByLayer
 62
  256
370
   -1
100
AcDbCircle
 10
-6156865.105808569
 20
10261398.85257734
 40
0.24
100
AcDbArc
 50
277.7827143855482
 51
262.2172856138461
  0
LINE
  5
153
100
AcDbEntity
  8
0
  6
ByLayer
 62
  256
370
   -1
100
AcDbLine
 10
-6156864.23830857
 20
10261398.61482668
 11
-6156864.23830857
 21
10261398.65561599
  0
LINE
  5
154
100
AcDbEntity
  8
0
  6
ByLayer
 62
  256
370
   -1
100
AcDbLine
 10
-6156864.23830857
 20
10261398.65561599
 11
-6156864.173308569
 21
10261398.65561599
  0
LINE
  5
155
100
AcDbEntity
  8
0
  6
ByLayer
 62
  256
370
   -1
100
AcDbLine
 10
-6156864.173308569
 20
10261398.65561599
 11
-6156864.173308569
 21
10261398.61482668
  0
ARC
  5
156
100
AcDbEntity
  8
0
  6
ByLayer
 62
  256
370
   -1
100
AcDbCircle
 10
-6156864.20580857
 20
10261398.85261598
 40
0.24
100
AcDbArc
 50
277.7827143855482
 51
262.2172856138461
  0
LINE
  5
157
100
AcDbEntity
  8
0
  6
ByLayer
 62
  256
370
   -1
100
AcDbLine
 10
-6156862.88830857
 20
10261398.61488464
 11
-6156862.88830857
 21
10261398.65567393
  0
LINE
  5
158
100
AcDbEntity
  8
0
  6
ByLayer
 62
  256
370
   -1
100
AcDbLine
 10
-6156862.88830857
 20
10261398.65567393
 11
-6156862.823308569
 21
10261398.65567393
  0
LINE
  5
159
100
AcDbEntity
  8
0
  6
ByLayer
 62
  256
370
   -1
100
AcDbLine
 10
-6156862.823308569
 20
10261398.65567393
 11
-6156862.823308569
 21
10261398.61488464
  0
ARC
  5
15A
100
AcDbEntity
  8
0
  6
ByLayer
 62
  256
370
   -1
100
AcDbCircle
 10
-6156862.855808569
 20
10261398.85267393
 40
0.24
100
AcDbArc
 50
277.7827143855482
 51
262.2172856138461
  0
LINE
  5
15B
100
AcDbEntity
  8
0
  6
ByLayer
 62
  256
370
   -1
100
AcDbLine
 10
-6156861.98830857
 20
10261398.61492327
 11
-6156861.98830857
 21
10261398.65571257
  0
LINE
  5
15C
100
AcDbEntity
  8
0
  6
ByLayer
 62
  256
370
   -1
100
AcDbLine
 10
-6156861.98830857
 20
10261398.65571257
 11
-6156861.923308569
 21
10261398.65571257
  0
LINE
  5
15D
100
AcDbEntity
  8
0
  6
ByLayer
 62
  256
370
   -1
100
AcDbLine
 10
-6156861.923308569
 20
10261398.65571257
 11
-6156861.923308569
 21
10261398.61492327
  0
ARC
  5
15E
100
AcDbEntity
  8
0
  6
ByLayer
 62
  256
370
   -1
100
AcDbCircle
 10
-6156861.95580857
 20
10261398.85271258
 40
0.24
100
AcDbArc
 50
277.7827143855482
 51
262.2172856138461
  0
LINE
  5
15F
100
AcDbEntity
  8
0
  6
ByLayer
 62
  256
370
   -1
100
AcDbLine
 10
-6156861.088308569
 20
10261398.61496191
 11
-6156861.088308569
 21
10261398.65575122
  0
LINE
  5
160
100
AcDbEntity
  8
0
  6
ByLayer
 62
  256
370
   -1
100
AcDbLine
 10
-6156861.088308569
 20
10261398.65575122
 11
-6156861.02330857
 21
10261398.65575122
  0
LINE
  5
161
100
AcDbEntity
  8
0
  6
ByLayer
 62
  256
370
   -1
100
AcDbLine
 10
-6156861.02330857
 20
10261398.65575122
 11
-6156861.02330857
 21
10261398.61496191
  0
ARC
  5
162
100
AcDbEntity
  8
0
  6
ByLayer
 62
  256
370
   -1
100
AcDbCircle
 10
-6156861.055808569
 20
10261398.85275121
 40
0.24
100
AcDbArc
 50
277.7827143855482
 51
262.2172856138461
  0
LINE
  5
163
100
AcDbEntity
  8
0
  6
ByLayer
 62
  256
370
   -1
100
AcDbLine
 10
-6156860.18830857
 20
10261398.61500056
 11
-6156860.18830857
 21
10261398.65578985
  0
LINE
  5
164
100
AcDbEntity
  8
0
  6
ByLayer
 62
  256
370
   -1
100
AcDbLine
 10
-6156860.18830857
 20
10261398.65578985
 11
-6156860.123308569
 21
10261398.65578985
  0
LINE
  5
165
100
AcDbEntity
  8
0
  6
ByLayer
 62
  256
370
   -1
100
AcDbLine
 10
-6156860.123308569
 20
10261398.65578985
 11
-6156860.123308569
 21
10261398.61500056
  0
ARC
  5
166
100
AcDbEntity
  8
0
  6
ByLayer
 62
  256
370
   -1
100
AcDbCircle
 10
-6156860.15580857
 20
10261398.85278985
 40
0.24
100
AcDbArc
 50
277.7827143855482
 51
262.2172856138461
  0
LINE
  5
167
100
AcDbEntity
  8
0
  6
ByLayer
 62
  256
370
   -1
100
AcDbLine
 10
-6156859.288308569
 20
10261398.61503919
 11
-6156859.288308569
 21
10261398.65582849
  0
LINE
  5
168
100
AcDbEntity
  8
0
  6
ByLayer
 62
  256
370
   -1
100
AcDbLine
 10
-6156859.288308569
 20
10261398.65582849
 11
-6156859.22330857
 21
10261398.65582849
  0
LINE
  5
169
100
AcDbEntity
  8
0
  6
ByLayer
 62
  256
370
   -1
100
AcDbLine
 10
-6156859.22330857
 20
10261398.65582849
 11
-6156859.22330857
 21
10261398.61503919
  0
ARC
  5
16A
100
AcDbEntity
  8
0
  6
ByLayer
 62
  256
370
   -1
100
AcDbCircle
 10
-6156859.255808569
 20
10261398.8528285
 40
0.24
100
AcDbArc
 50
277.7827143855482
 51
262.2172856138461
  0
LINE
  5
16B
100
AcDbEntity
  8
0
  6
ByLayer
 62
  256
370
   -1
100
AcDbLine
 10
-6156871.871148331
 20
10261405.73902231
 11
-6156871.871148331
 21
10261406.42402232
  0
LINE
  5
16C
100
AcDbEntity
  8
0
  6
ByLayer
 62
  256
370
   -1
100
AcDbLine
 10
-6156871.871148331
 20
10261406.42402232
 11
-6156870.361148331
 21
10261406.42402232
  0
LINE
  5
16D
100
AcDbEntity
  8
0
  6
ByLayer
 62
  256
370
   -1
100
AcDbLine
 10
-6156871.871148331
 20
10261405.73902231
 11
-6156870.361148331
 21
10261405.73902231
  0
LINE
  5
16E
100
AcDbEntity
  8
0
  6
ByLayer
 62
  256
370
   -1
100
AcDbLine
 10
-6156870.361148331
 20
10261405.73902231
 11
-6156870.361148331
 21
10261406.42402232
  0
CIRCLE
  5
16F
100
AcDbEntity
  8
0
  6
ByLayer
 62
  256
370
   -1
100
AcDbCircle
 10
-6156870.241148331
 20
10261406.33152231
 40
0.06
  0
CIRCLE
  5
170
100
AcDbEntity
  8
0
  6
ByLayer
 62
  256
370
   -1
100
AcDbCircle
 10
-6156870.241148331
 20
10261405.83152231
 40
0.06
  0
CIRCLE
  5
171
100
AcDbEntity
  8
0
  6
ByLayer
 62
  256
370
   -1
100
AcDbCircle
 10
-6156871.991148331
 20
10261406.33152231
 40
0.06
  0
CIRCLE
  5
172
100
AcDbEntity
  8
0
  6
ByLayer
 62
  256
370
   -1
100
AcDbCircle
 10
-6156871.991148331
 20
10261405.83152231
 40
0.06
  0
CIRCLE
  5
173
100
AcDbEntity
  8
0
  6
CONTINUOUS
 62
    5
370
    0
100
AcDbCircle
 10
-6156869.422381597
 20
10261399.99826961
 40
0.07500000000000109
  0
CIRCLE
  5
174
100
AcDbEntity
  8
0
  6
CONTINUOUS
 62
    5
370
    0
100
AcDbCircle
 10
-6156869.422381597
 20
10261407.35653733
 40
0.0749999999999993
  0
CIRCLE
  5
175
100
AcDbEntity
  8
0
  6
CONTINUOUS
 62
    5
370
    0
100
AcDbCircle
 10
-6156859.036554825
 20
10261407.35653733
 40
0.0749999999999993
  0
CIRCLE
  5
176
100
AcDbEntity
  8
0
  6
CONTINUOUS
 62
    5
370
    0
100
AcDbCircle
 10
-6156859.036554825
 20
10261399.99826961
 40
0.07500000000000109
  0
LINE
  5
177
100
AcDbEntity
  8
0
  6
ByLayer
 62
  256
370
   -1
100
AcDbLine
 10
-6156870.433961411
 20
10261401.08129358
 11
-6156870.433961411
 21
10261401.04050428
  0
LINE
  5
178
100
AcDbEntity
  8
0
  6
ByLayer
 62
  256
370
   -1
100
AcDbLine
 10
-6156870.433961411
 20
10261401.04050428
 11
-6156870.368961412
 21
10261401.04050428
  0
LINE
  5
179
100
AcDbEntity
  8
0
  6
ByLayer
 62
  256
370
   -1
100
AcDbLine
 10
-6156870.368961412
 20
10261401.04050428
 11
-6156870.368961412
 21
10261401.08129358
  0
ARC
  5
17A
100
AcDbEntity
  8
0
  6
ByLayer
 62
  256
370
   -1
100
AcDbCircle
 10
-6156870.401461411
 20
10261400.84350428
 40
0.24
100
AcDbArc
 50
97.78271438615396
 51
82.21728561445177
  0
LINE
  5
17B
100
AcDbEntity
  8
0
  6
ByLayer
 62
  256
370
   -1
100
AcDbLine
 10
-6156870.433961411
 20
10261399.24793563
 11
-6156870.433961411
 21
10261399.28872493
  0
LINE
  5
17C
100
AcDbEntity
  8
0
  6
ByLayer
 62
  256
370
   -1
100
AcDbLine
 10
-6156870.433961411
 20
10261399.28872493
 11
-6156870.368961412
 21
10261399.28872493
  0
LINE
  5
17D
100
AcDbEntity
  8
0
  6
ByLayer
 62
  256
370
   -1
100
AcDbLine
 10
-6156870.368961412
 20
10261399.28872493
 11
-6156870.368961412
 21
10261399.24793563
  0
ARC
  5
17E
100
AcDbEntity
  8
0
  6
ByLayer
 62
  256
370
   -1
100
AcDbCircle
 10
-6156870.401461411
 20
10261399.48572494
 40
0.24
100
AcDbArc
 50
277.7827143855482
 51
262.2172856138461
  0
LINE
  5
17F
100
AcDbEntity
  8
0
  6
ByLayer
 62
  256
370
   -1
100
AcDbLine
 10
-6156873.447103952
 20
10261400.69653489
 11
-6156873.447103952
 21
10261400.99047367
  0
ARC
  5
180
100
AcDbEntity
  8
0
  6
ByLayer
 62
  256
370
   -1
100
AcDbCircle
 10
-6156873.102103952
 20
10261400.84350428
 40
0.375
100
AcDbArc
 50
23.07391806658032
 51
156.9260819351116
  0
LINE
  5
181
100
AcDbEntity
  8
0
  6
ByLayer
 62
  256
370
   -1
100
AcDbLine
 10
-6156872.757103953
 20
10261400.69653489
 11
-6156872.757103953
 21
10261400.99047367
  0
ARC
  5
182
100
AcDbEntity
  8
0
  6
ByLayer
 62
  256
370
   -1
100
AcDbCircle
 10
-6156873.102103952
 20
10261400.84350428
 40
0.375
100
AcDbArc
 50
203.0739180648891
 51
336.9260819403799
  0
LINE
  5
183
100
AcDbEntity
  8
0
  6
ByLayer
 62
  256
370
   -1
100
AcDbLine
 10
-6156871.606824007
 20
10261401.08129358
 11
-6156871.606824007
 21
10261401.04050428
  0
LINE
  5
184
100
AcDbEntity
  8
0
  6
ByLayer
 62
  256
370
   -1
100
AcDbLine
 10
-6156871.606824007
 20
10261401.04050428
 11
-6156871.541824006
 21
10261401.04050428
  0
LINE
  5
185
100
AcDbEntity
  8
0
  6
ByLayer
 62
  256
370
   -1
100
AcDbLine
 10
-6156871.541824006
 20
10261401.04050428
 11
-6156871.541824006
 21
10261401.08129358
  0
ARC
  5
186
100
AcDbEntity
  8
0
  6
ByLayer
 62
  256
370
   -1
100
AcDbCircle
 10
-6156871.574324006
 20
10261400.84350428
 40
0.24
100
AcDbArc
 50
97.78271438615396
 51
82.21728561445177
  0
LINE
  5
187
100
AcDbEntity
  8
0
  6
ByLayer
 62
  256
370
   -1
100
AcDbLine
 10
-6156871.606824007
 20
10261399.24793563
 11
-6156871.606824007
 21
10261399.28872493
  0
LINE
  5
188
100
AcDbEntity
  8
0
  6
ByLayer
 62
  256
370
   -1
100
AcDbLine
 10
-6156871.606824007
 20
10261399.28872493
 11
-6156871.541824006
 21
10261399.28872493
  0
LINE
  5
189
100
AcDbEntity
  8
0
  6
ByLayer
 62
  256
370
   -1
100
AcDbLine
 10
-6156871.541824006
 20
10261399.28872493
 11
-6156871.541824006
 21
10261399.24793563
  0
ARC
  5
18A
100
AcDbEntity
  8
0
  6
ByLayer
 62
  256
370
   -1
100
AcDbCircle
 10
-6156871.574324006
 20
10261399.48572494
 40
0.24
100
AcDbArc
 50
277.7827143855482
 51
262.2172856138461
  0
MTEXT
  5
18B
100
AcDbEntity
  8
0
  6
ByLayer
 62
  256
370
   -1
100
AcDbMText
 10
-6156838.80215963
 20
10261406.89089856
 30
0
 40
0.111
 41
0.3206666666666667
 71
    5
 72
    1
  1
IGN\PLEFT
  7
standard
210
0
220
0
230
1
 50
0
 73
    2
 44
1
  0
MTEXT
  5
18C
100
AcDbEntity
  8
0
  6
ByLayer
 62
  256
370
   -1
100
AcDbMText
 10
-6156838.152159629
 20
10261406.89089856
 30
0
 40
0.111
 41
0.3206666666666667
 71
    5
 72
    1
  1
RT\PLEFT
  7
standard
210
0
220
0
230
1
 50
0
 73
    2
 44
1
  0
MTEXT
  5
18D
100
AcDbEntity
  8
0
  6
ByLayer
 62
  256
370
   -1
100
AcDbMText
 10
-6156837.502159631
 20
10261406.89089856
 30
0
 40
0.111
 41
0.259
 71
    5
 72
    1
  1
\PALT
  7
standard
210
0
220
0
230
1
 50
0
 73
    2
 44
1
  0
MTEXT
  5
18E
100
AcDbEntity
  8
0
  6
ByLayer
 62
  256
370
   -1
100
AcDbMText
 10
-6156838.80215963
 20
10261405.70339856
 30
0
 40
0.111
 41
0.4686666431344281
 71
    5
 72
    1
  1
\PSTART
  7
standard
210
0
220
0
230
1
 50
0
 73
    2
 44
1
  0
MTEXT
  5
18F
100
AcDbEntity
  8
0
  6
ByLayer
 62
  256
370
   -1
100
AcDbMText
 10
-6156838.152159629
 20
10261405.70339856
 30
0
 40
0.111
 41
0.3083333333333333
 71
    5
 72
    1
  1
\PTRIM
  7
standard
210
0
220
0
230
1
 50
0
 73
    2
 44
1
  0
MTEXT
  5
190
100
AcDbEntity
  8
0
  6
ByLayer
 62
  256
370
   -1
100
AcDbMText
 10
-6156837.502159631
 20
10261405.70339856
 30
0
 40
0.111
 41
0.4439999764677615
 71
    5
 72
    1
  1
\PFLAPS
  7
standard
210
0
220
0
230
1
 50
0
 73
    2
 44
1
  0
MTEXT
  5
191
100
AcDbEntity
  8
0
  6
ByLayer
 62
  256
370
   -1
100
AcDbMText
 10
-6156836.85215963
 20
10261405.70339856
 30
0
 40
0.111
 41
0.37
 71
    5
 72
    1
  1
FUEL\PPUMP
  7
standard
210
0
220
0
230
1
 50
0
 73
    2
 44
1
  0
MTEXT
  5
192
100
AcDbEntity
  8
0
  6
ByLayer
 62
  256
370
   -1
100
AcDbMText
 10
-6156838.80215963
 20
10261404.51589856
 30
0
 40
0.111
 41
0.2836666666666666
 71
    5
 72
    1
  1
\PNAV
  7
standard
210
0
220
0
230
1
 50
0
 73
    2
 44
1
  0
MTEXT
  5
193
100
AcDbEntity
  8
0
  6
ByLayer
 62
  256
370
   -1
100
AcDbMText
 10
-6156838.152159629
 20
10261404.51589856
 30
0
 40
0.111
 41
0.5426666431344281
 71
    5
 72
    1
  1
\PSTROBE
  7
standard
210
0
220
0
230
1
 50
0
 73
    2
 44
1
  0
MTEXT
  5
194
100
AcDbEntity
  8
0
  6
ByLayer
 62
  256
370
   -1
100
AcDbMText
 10
-6156837.502159629
 20
10261404.51589856
 30
0
 40
0.111
 41
0.2466666666666736
 71
    5
 72
    1
  1
LT\PLDG
  7
standard
210
0
220
0
230
1
 50
0
 73
    2
 44
1
  0
MTEXT
  5
195
100
AcDbEntity
  8
0
  6
ByLayer
 62
  256
370
   -1
100
AcDbMText
 10
-6156836.852159629
 20
10261404.51589856
 30
0
 40
0.111
 41
0.2466666666666736
 71
    5
 72
    1
  1
RT\PLDG
  7
standard
210
0
220
0
230
1
 50
0
 73
    2
 44
1
  0
MTEXT
  5
196
100
AcDbEntity
  8
0
  6
ByLayer
 62
  256
370
   -1
100
AcDbMText
 10
-6156836.202159628
 20
10261404.51589856
 30
0
 40
0.111
 41
0.3206666666666667
 71
    5
 72
    1
  1
\PTAXI
  7
standard
210
0
220
0
230
1
 50
0
 73
    2
 44
1
  0
MTEXT
  5
197
100
AcDbEntity
  8
0
  6
ByLayer
 62
  256
370
   -1
100
AcDbMText
 10
-6156835.552159628
 20
10261404.51589856
 30
0
 40
0.111
 41
0.6043333098011017
 71
    5
 72
    1
  1
\PDIMMERS
  7
standard
210
0
220
0
230
1
 50
0
 73
    2
 44
1
  0
MTEXT
  5
198
100
AcDbEntity
  8
0
  6
ByLayer
 62
  256
370
   -1
100
AcDbMText
 10
-6156838.80165963
 20
10261403.32839856
 30
0
 40
0.111
 41
0.2466666666666735
 71
    5
 72
    1
  1
\PPFD
  7
standard
210
0
220
0
230
1
 50
0
 73
    2
 44
1
  0
MTEXT
  5
199
100
AcDbEntity
  8
0
  6
ByLayer
 62
  256
370
   -1
100
AcDbMText
 10
-6156838.151659629
 20
10261403.32839856
 30
0
 40
0.111
 41
0.2590000000000069
 71
    5
 72
    1
  1
\PMFD
  7
standard
210
0
220
0
230
1
 50
0
 73
    2
 44
1
  0
MTEXT
  5
19A
100
AcDbEntity
  8
0
  6
ByLayer
 62
  256
370
   -1
100
AcDbMText
 10
-6156838.80165963
 20
10261400.95339856
 30
0
 40
0.111
 41
0.3823333333333333
 71
    5
 72
    1
  1
AUTO\PPILOT
  7
standard
210
0
220
0
230
1
 50
0
 73
    2
 44
1
  0
MTEXT
  5
19B
100
AcDbEntity
  8
0
  6
ByLayer
 62
  256
370
   -1
100
AcDbMText
 10
-6156836.851659629
 20
10261400.95339856
 30
0
 40
0.111
 41
0.2836666666666666
 71
    5
 72
    1
  1
\PNAV
  7
standard
210
0
220
0
230
1
 50
0
 73
    2
 44
1
  0
MTEXT
  5
19C
100
AcDbEntity
  8
0
  6
ByLayer
 62
  256
370
   -1
100
AcDbMText
 10
-6156836.201659629
 20
10261400.95339856
 30
0
 40
0.111
 41
0.2590000000000138
 71
    5
 72
    1
  1
COM\P1
  7
standard
210
0
220
0
230
1
 50
0
 73
    2
 44
1
  0
MTEXT
  5
19D
100
AcDbEntity
  8
0
  6
ByLayer
 62
  256
370
   -1
100
AcDbMText
 10
-6156835.551659629
 20
10261400.95339856
 30
0
 40
0.111
 41
0.2590000000000138
 71
    5
 72
    1
  1
COM\P2
  7
standard
210
0
220
0
230
1
 50
0
 73
    2
 44
1
  0
MTEXT
  5
19E
100
AcDbEntity
  8
0
  6
ByLayer
 62
  256
370
   -1
100
AcDbMText
 10
-6156837.50165963
 20
10261400.95339856
 30
0
 40
0.111
 41
0.2713333333333402
 71
    5
 72
    1
  1
AUD\PPNL
  7
standard
210
0
220
0
230
1
 50
0
 73
    2
 44
1
  0
MTEXT
  5
19F
100
AcDbEntity
  8
0
  6
ByLayer
 62
  256
370
   -1
100
AcDbMText
 10
-6156838.151659629
 20
10261400.95339856
 30
0
 40
0.111
 41
0.554999952935523
 71
    5
 72
    1
  1
A/P\PSERVOS
  7
standard
210
0
220
0
230
1
 50
0
 73
    2
 44
1
  0
MTEXT
  5
1A0
100
AcDbEntity
  8
0
  6
ByLayer
 62
  256
370
   -1
100
AcDbMText
 10
-6156836.20215963
 20
10261405.70339856
 30
0
 40
0.111
 41
0.4439999764677682
 71
    5
 72
    1
  1
ELT/\PDFRST
  7
standard
210
0
220
0
230
1
 50
0
 73
    2
 44
1
  0
MTEXT
  5
1A1
100
AcDbEntity
  8
0
  6
ByLayer
 62
  256
370
   -1
100
AcDbMText
 10
-6156838.152159629
 20
10261402.14089856
 30
0
 40
0.111
 41
0.37
 71
    5
 72
    1
  1
EFIS\PBATT
  7
standard
210
0
220
0
230
1
 50
0
 73
    2
 44
1
  0
MTEXT
  5
1A2
100
AcDbEntity
  8
0
  6
ByLayer
 62
  256
370
   -1
100
AcDbMText
 10
-6156838.802159628
 20
10261402.14089856
 30
0
 40
0.111
 41
0.5272500000000206
 71
    5
 72
    1
  1
ARINC\PGAD 29
  7
standard
210
0
220
0
230
1
 50
0
 73
    2
 44
1
  0
MTEXT
  5
1A3
100
AcDbEntity
  8
0
  6
ByLayer
 62
  256
370
   -1
100
AcDbMText
 10
-6156836.201659627
 20
10261403.32839856
 30
0
 40
0.111
 41
0.5272500000000138
 71
    5
 72
    1
  1
\PGEA 24
  7
standard
210
0
220
0
230
1
 50
0
 73
    2
 44
1
  0
MTEXT
  5
1A4
100
AcDbEntity
  8
0
  6
ByLayer
 62
  256
370
   -1
100
AcDbMText
 10
-6156835.551659627
 20
10261403.32839856
 30
0
 40
0.111
 41
0.5272500000000206
 71
    5
 72
    1
  1
\PGAD 27
  7
standard
210
0
220
0
230
1
 50
0
 73
    2
 44
1
  0
MTEXT
  5
1A5
100
AcDbEntity
  8
0
  6
ByLayer
 62
  256
370
   -1
100
AcDbMText
 10
-6156837.50165963
 20
10261403.32839856
 30
0
 40
0.111
 41
0.1480000000000207
 71
    5
 72
    1
  1
\PG5
  7
standard
210
0
220
0
230
1
 50
0
 73
    2
 44
1
  0
MTEXT
  5
1A6
100
AcDbEntity
  8
0
  6
ByLayer
 62
  256
370
   -1
100
AcDbMText
 10
-6156836.851659628
 20
10261403.32839856
 30
0
 40
0.111
 41
0.5149166431344487
 71
    5
 72
    1
  1
AHRS\PGSU 25
  7
standard
210
0
220
0
230
1
 50
0
 73
    2
 44
1
  0
MTEXT
  5
1A7
100
AcDbEntity
  8
0
  6
ByLayer
 62
  256
370
   -1
100
AcDbMText
 10
-6156836.202159628
 20
10261402.14089856
 30
0
 40
0.111
 41
0.3946666666666667
 71
    5
 72
    1
  1
PITOT\PHEAT
  7
standard
210
0
220
0
230
1
 50
0
 73
    2
 44
1
  0
MTEXT
  5
1A8
100
AcDbEntity
  8
0
  6
ByLayer
 62
  256
370
   -1
100
AcDbMText
 10
-6156837.502159629
 20
10261402.14089856
 30
0
 40
0.111
 41
0.7769999764677614
 71
    5
 72
    1
  1
AV/START\PRELAY
  7
standard
210
0
220
0
230
1
 50
0
 73
    2
 44
1
  0
ARC
  5
1A9
100
AcDbEntity
  8
0
  6
ByLayer
 62
  256
370
   -1
100
AcDbCircle
 10
-6156839.027159629
 20
10261407.07367519
 40
0.125
100
AcDbArc
 50
90
 51
180
  0
MTEXT
  5
1AA
100
AcDbEntity
  8
0
  6
ByLayer
 62
  256
370
   -1
100
AcDbMText
 10
-6156836.701905061
 20
10261398.84219919
 30
0
 40
0.111
 41
0.3946666666666805
 71
    5
 72
    1
  1
CABIN\PHEAT
  7
standard
210
0
220
0
230
1
 50
0
 73
    2
 44
1
  0
MTEXT
  5
1AB
100
AcDbEntity
  8
0
  6
ByLayer
 62
  256
370
   -1
100
AcDbMText
 10
-6156836.852159629
 20
10261402.14089856
 30
0
 40
0.111
 41
0.3175833333333333
 71
    5
 72
    1
  1
USB\PPWR
  7
standard
210
0
220
0
230
1
 50
0
 73
    2
 44
1
  0
MTEXT
  5
1AC
100
AcDbEntity
  8
0
  6
ByLayer
 62
  256
370
   -1
100
AcDbMText
 10
-6156871.574324006
 20
10261400.03623794
 30
0
 40
0.111
 41
0.37
 71
    5
 72
    1
  1
FUEL\PPUMP
  7
standard
210
0
220
0
230
1
 50
0
 73
    2
 44
1
  0
MTEXT
  5
1AD
100
AcDbEntity
  8
0
  6
ByLayer
 62
  256
370
   -1
100
AcDbMText
 10
-6156870.401461411
 20
10261400.03623794
 30
0
 40
0.111
 41
0.259
 71
    5
 72
    1
  1
\PALT
  7
standard
210
0
220
0
230
1
 50
0
 73
    2
 44
1
  0
MTEXT
  5
1AE
100
AcDbEntity
  8
0
  6
ByLayer
 62
  256
370
   -1
100
AcDbMText
 10
-6156870.402457425
 20
10261399.02547054
 30
0
 40
0.111
 41
0.2343333333333333
 71
    5
 72
    1
  1
OFF
  7
standard
210
0
220
0
230
1
 50
0
 73
    2
 44
1
  0
MTEXT
  5
1AF
100
AcDbEntity
  8
0
  6
ByLayer
 62
  256
370
   -1
100
AcDbMText
 10
-6156871.57532002
 20
10261399.02547054
 30
0
 40
0.111
 41
0.2343333333333333
 71
    5
 72
    1
  1
OFF
  7
standard
210
0
220
0
230
1
 50
0
 73
    2
 44
1
  0
MTEXT
  5
1B0
100
AcDbEntity
  8
0
  6
ByLayer
 62
  256
370
   -1
100
AcDbMText
 10
-6156869.156804584
 20
10261398.39214907
 30
0
 40
0.111
 41
0.2343333333333333
 71
    5
 72
    1
  1
OFF
  7
standard
210
0
220
0
230
1
 50
0
 73
    2
 44
1
  0
MTEXT
  5
1B1
100
AcDbEntity
  8
0
  6
ByLayer
 62
  256
370
   -1
100
AcDbMText
 10
-6156868.255808569
 20
10261399.40295511
 30
0
 40
0.111
 41
0.37
 71
    5
 72
    1
  1
EFIS\PBATT
  7
standard
210
0
220
0
230
1
 50
0
 73
    2
 44
1
  0
MTEXT
  5
1B2
100
AcDbEntity
  8
0
  6
ByLayer
 62
  256
370
   -1
100
AcDbMText
 10
-6156868.256804583
 20
10261398.39218771
 30
0
 40
0.111
 41
0.2343333333333333
 71
    5
 72
    1
  1
OFF
  7
standard
210
0
220
0
230
1
 50
0
 73
    2
 44
1
  0
MTEXT
  5
1B3
100
AcDbEntity
  8
0
  6
ByLayer
 62
  256
370
   -1
100
AcDbMText
 10
-6156866.906804584
 20
10261398.39224566
 30
0
 40
0.111
 41
0.2343333333333333
 71
    5
 72
    1
  1
OFF
  7
standard
210
0
220
0
230
1
 50
0
 73
    2
 44
1
  0
MTEXT
  5
1B4
100
AcDbEntity
  8
0
  6
ByLayer
 62
  256
370
   -1
100
AcDbMText
 10
-6156866.006804583
 20
10261398.3922843
 30
0
 40
0.111
 41
0.2343333333333333
 71
    5
 72
    1
  1
OFF
  7
standard
210
0
220
0
230
1
 50
0
 73
    2
 44
1
  0
MTEXT
  5
1B5
100
AcDbEntity
  8
0
  6
ByLayer
 62
  256
370
   -1
100
AcDbMText
 10
-6156865.106804583
 20
10261398.39232294
 30
0
 40
0.111
 41
0.2343333333333333
 71
    5
 72
    1
  1
OFF
  7
standard
210
0
220
0
230
1
 50
0
 73
    2
 44
1
  0
MTEXT
  5
1B6
100
AcDbEntity
  8
0
  6
ByLayer
 62
  256
370
   -1
100
AcDbMText
 10
-6156864.206804584
 20
10261398.39236158
 30
0
 40
0.111
 41
0.2343333333333333
 71
    5
 72
    1
  1
OFF
  7
standard
210
0
220
0
230
1
 50
0
 73
    2
 44
1
  0
MTEXT
  5
1B7
100
AcDbEntity
  8
0
  6
ByLayer
 62
  256
370
   -1
100
AcDbMText
 10
-6156862.856804583
 20
10261398.39241953
 30
0
 40
0.111
 41
0.2343333333333333
 71
    5
 72
    1
  1
OFF
  7
standard
210
0
220
0
230
1
 50
0
 73
    2
 44
1
  0
MTEXT
  5
1B8
100
AcDbEntity
  8
0
  6
ByLayer
 62
  256
370
   -1
100
AcDbMText
 10
-6156861.956804584
 20
10261398.39245818
 30
0
 40
0.111
 41
0.2343333333333333
 71
    5
 72
    1
  1
OFF
  7
standard
210
0
220
0
230
1
 50
0
 73
    2
 44
1
  0
MTEXT
  5
1B9
100
AcDbEntity
  8
0
  6
ByLayer
 62
  256
370
   -1
100
AcDbMText
 10
-6156861.056804583
 20
10261398.39249681
 30
0
 40
0.111
 41
0.2343333333333333
 71
    5
 72
    1
  1
OFF
  7
standard
210
0
220
0
230
1
 50
0
 73
    2
 44
1
  0
MTEXT
  5
1BA
100
AcDbEntity
  8
0
  6
ByLayer
 62
  256
370
   -1
100
AcDbMText
 10
-6156860.156804584
 20
10261398.39253545
 30
0
 40
0.111
 41
0.2343333333333333
 71
    5
 72
    1
  1
OFF
  7
standard
210
0
220
0
230
1
 50
0
 73
    2
 44
1
  0
MTEXT
  5
1BB
100
AcDbEntity
  8
0
  6
ByLayer
 62
  256
370
   -1
100
AcDbMText
 10
-6156859.256804583
 20
10261398.3925741
 30
0
 40
0.111
 41
0.2343333333333333
 71
    5
 72
    1
  1
OFF
  7
standard
210
0
220
0
230
1
 50
0
 73
    2
 44
1
  0
MTEXT
  5
1BC
100
AcDbEntity
  8
0
  6
ByLayer
 62
  256
370
   -1
100
AcDbMText
 10
-6156871.57532002
 20
10261400.38324988
 30
0
 40
0.111
 41
0.2343333333333333
 71
    5
 72
    1
  1
OFF
  7
standard
210
0
220
0
230
1
 50
0
 73
    2
 44
1
  0
MTEXT
  5
1BD
100
AcDbEntity
  8
0
  6
ByLayer
 62
  256
370
   -1
100
AcDbMText
 10
-6156870.402457425
 20
10261400.38324988
 30
0
 40
0.111
 41
0.2343333333333333
 71
    5
 72
    1
  1
OFF
  7
standard
210
0
220
0
230
1
 50
0
 73
    2
 44
1
  0
MTEXT
  5
1BE
100
AcDbEntity
  8
0
  6
ByLayer
 62
  256
370
   -1
100
AcDbMText
 10
-6156871.574324006
 20
10261401.39401728
 30
0
 40
0.111
 41
0.3700000000000069
 71
    5
 72
    1
  1
IGN-L\PTEST
  7
standard
210
0
220
0
230
1
 50
0
 73
    2
 44
1
  0
MTEXT
  5
1BF
100
AcDbEntity
  8
0
  6
ByLayer
 62
  256
370
   -1
100
AcDbMText
 10
-6156870.401461411
 20
10261401.39401728
 30
0
 40
0.111
 41
0.3823333333333402
 71
    5
 72
    1
  1
IGN-R\PTEST
  7
standard
210
0
220
0
230
1
 50
0
 73
    2
 44
1
  0
ARC
  5
1C0
100
AcDbEntity
  8
0
  6
ByLayer
 62
  256
370
   -1
100
AcDbCircle
 10
-6156870.862892709
 20
10261401.26924403
 40
0.125
100
AcDbArc
 50
90
 51
180
  0
ARC
  5
1C1
100
AcDbEntity
  8
0
  6
ByLayer
 62
  256
370
   -1
100
AcDbCircle
 10
-6156870.862892709
 20
10261400.50964294
 40
0.125
100
AcDbArc
 50
180
 51
270
  0
LINE
  5
1C2
100
AcDbEntity
  8
0
  6
ByLayer
 62
  256
370
   -1
100
AcDbLine
 10
-6156870.642223464
 20
10261401.39424403
 11
-6156870.862892709
 21
10261401.39424403
  0
LINE
  5
1C3
100
AcDbEntity
  8
0
  6
ByLayer
 62
  256
370
   -1
100
AcDbLine
 10
-6156870.640086938
 20
10261400.38464294
 11
-6156870.862892709
 21
10261400.38464294
  0
ARC
  5
1C4
100
AcDbEntity
  8
0
  6
ByLayer
 62
  256
370
   -1
100
AcDbCircle
 10
-6156871.112892709
 20
10261401.26924403
 40
0.125
100
AcDbArc
 50
0
 51
90
  0
ARC
  5
1C5
100
AcDbEntity
  8
0
  6
ByLayer
 62
  256
370
   -1
100
AcDbCircle
 10
-6156871.112892709
 20
10261400.50964294
 40
0.125
100
AcDbArc
 50
270
 51
0
  0
LINE
  5
1C6
100
AcDbEntity
  8
0
  6
ByLayer
 62
  256
370
   -1
100
AcDbLine
 10
-6156871.333561953
 20
10261401.39424403
 11
-6156871.112892709
 21
10261401.39424403
  0
LINE
  5
1C7
100
AcDbEntity
  8
0
  6
ByLayer
 62
  256
370
   -1
100
AcDbLine
 10
-6156871.33569848
 20
10261400.38464294
 11
-6156871.112892709
 21
10261400.38464294
  0
MTEXT
  5
1C8
100
AcDbEntity
  8
0
  6
ByLayer
 62
  256
370
   -1
100
AcDbMText
 10
-6156870.987892709
 20
10261400.84350428
 30
0
 40
0.111
 41
0.1603333333333333
 71
    5
 72
    1
  1
ON
  7
standard
210
0
220
0
230
1
 50
0
 73
    2
 44
1
  0
LINE
  5
1C9
100
AcDbEntity
  8
0
  6
ByLayer
 62
  256
370
   -1
100
AcDbLine
 10
-6156870.987892709
 20
10261400.50964294
 11
-6156870.987892709
 21
10261400.74350428
  0
LINE
  5
1CA
100
AcDbEntity
  8
0
  6
ByLayer
 62
  256
370
   -1
100
AcDbLine
 10
-6156870.987892709
 20
10261401.26924403
 11
-6156870.987892709
 21
10261400.94350428
  0
MTEXT
  5
1CB
100
AcDbEntity
  8
0
  6
ByLayer
 62
  256
370
   -1
100
AcDbMText
 10
-6156857.180760952
 20
10261399.40341914
 30
0
 40
0.111
 41
0.1603333333333333
 71
    5
 72
    1
  1
\PUP
  7
standard
210
0
220
0
230
1
 50
0
 73
    2
 44
1
  0
MTEXT
  5
1CC
100
AcDbEntity
  8
0
  6
ByLayer
 62
  256
370
   -1
100
AcDbMText
 10
-6156857.181756966
 20
10261398.39265174
 30
0
 40
0.111
 41
0.4162500000000069
 71
    5
 72
    1
  1
DOWN
  7
standard
210
0
220
0
230
1
 50
0
 73
    2
 44
1
  0
ARC
  5
1CD
100
AcDbEntity
  8
0
  6
ByLayer
 62
  256
370
   -1
100
AcDbCircle
 10
-6156857.687739007
 20
10261398.5190448
 40
0.125
100
AcDbArc
 50
180
 51
270
  0
LINE
  5
1CE
100
AcDbEntity
  8
0
  6
ByLayer
 62
  256
370
   -1
100
AcDbLine
 10
-6156857.464933236
 20
10261398.3940448
 11
-6156857.687739007
 21
10261398.3940448
  0
LINE
  5
1CF
100
AcDbEntity
  8
0
  6
ByLayer
 62
  256
370
   -1
100
AcDbLine
 10
-6156857.812739007
 20
10261398.5190448
 11
-6156857.812739007
 21
10261398.75290614
  0
ARC
  5
1D0
100
AcDbEntity
  8
0
  6
ByLayer
 62
  256
370
   -1
100
AcDbCircle
 10
-6156857.687739007
 20
10261399.18676748
 40
0.125
100
AcDbArc
 50
90
 51
180
  0
LINE
  5
1D1
100
AcDbEntity
  8
0
  6
ByLayer
 62
  256
370
   -1
100
AcDbLine
 10
-6156857.464933236
 20
10261399.31176748
 11
-6156857.687739007
 21
10261399.31176748
  0
LINE
  5
1D2
100
AcDbEntity
  8
0
  6
ByLayer
 62
  256
370
   -1
100
AcDbLine
 10
-6156857.812739007
 20
10261399.18676748
 11
-6156857.812739007
 21
10261398.95290614
  0
MTEXT
  5
1D3
100
AcDbEntity
  8
0
  6
ByLayer
 62
  256
370
   -1
100
AcDbMText
 10
-6156857.812739007
 20
10261398.85290614
 30
0
 40
0.111
 41
0.4439999764677615
 71
    5
 72
    1
  1
FLAPS
  7
standard
210
0
220
0
230
1
 50
0
 73
    2
 44
1
  0
CIRCLE
  5
1D4
100
AcDbEntity
  8
0
  6
ByLayer
 62
  256
370
   -1
100
AcDbCircle
 10
-6156873.102103952
 20
10261400.84350428
 40
0
  0
CIRCLE
  5
1D5
100
AcDbEntity
  8
0
  6
ByLayer
 62
  256
370
   -1
100
AcDbCircle
 10
-6156873.102103952
 20
10261400.84350428
 40
0
  0
CIRCLE
  5
1D6
100
AcDbEntity
  8
0
  6
ByLayer
 62
  256
370
   -1
100
AcDbCircle
 10
-6156873.102103952
 20
10261400.84350428
 40
0.5625
  0
MTEXT
  5
1D7
100
AcDbEntity
  8
0
  6
ByLayer
 62
  256
370
   -1
100
AcDbMText
 10
-6156872.19187145
 20
10261400.84350428
 30
0
 40
0.111
 41
0.4686666431344281
 71
    5
 72
    1
  1
START
  7
standard
210
0
220
0
230
1
 50
0
 73
    2
 44
1
  0
MTEXT
  5
1D8
100
AcDbEntity
  8
0
  6
ByLayer
 62
  256
370
   -1
100
AcDbMText
 10
-6156872.558626262
 20
10261401.38698197
 30
0
 40
0.111
 41
0.1603333333333333
 71
    5
 72
    1
  1
ON
  7
standard
210
0
220
0
230
1
 50
0
 73
    2
 44
1
  0
MTEXT
  5
1D9
100
AcDbEntity
  8
0
  6
ByLayer
 62
  256
370
   -1
100
AcDbMText
 10
-6156873.102103952
 20
10261401.58247473
 30
0
 40
0.111
 41
0.2343333333333333
 71
    5
 72
    1
  1
OFF
  7
standard
210
0
220
0
230
1
 50
0
 73
    2
 44
1
  0
MTEXT
  5
1DA
100
AcDbEntity
  8
0
  6
ByLayer
 62
  256
370
   -1
100
AcDbMText
 10
-6156872.229468212
 20
10261398.84219919
 30
0
 40
0.111
 41
0.3946666666666805
 71
    5
 72
    1
  1
CABIN\PHEAT
  7
standard
210
0
220
0
230
1
 50
0
 73
    2
 44
1
  0
MTEXT
  5
1DB
100
AcDbEntity
  8
0
  6
ByLayer
 62
  256
370
   -1
100
AcDbMText
 10
-6156853.285463129
 20
10261408.55186978
 30
0
 40
0.111
 41
0.6536666431344349
 71
    5
 72
    1
  1
CANOPY\PJETTISON
  7
standard
210
0
220
0
230
1
 50
0
 73
    2
 44
1
  0
MTEXT
  5
1DC
100
AcDbEntity
  8
0
  6
ByLayer
 62
  256
370
   -1
100
AcDbMText
 10
-6156869.15580857
 20
10261399.40291647
 30
0
 40
0.111
 41
0.6413333098011016
 71
    5
 72
    1
  1
\PAVIONICS
  7
standard
210
0
220
0
230
1
 50
0
 73
    2
 44
1
  0
MTEXT
  5
1DD
100
AcDbEntity
  8
0
  6
ByLayer
 62
  256
370
   -1
100
AcDbMText
 10
-6156866.90580857
 20
10261399.40301306
 30
0
 40
0.111
 41
0.2836666666666666
 71
    5
 72
    1
  1
\PNAV
  7
standard
210
0
220
0
230
1
 50
0
 73
    2
 44
1
  0
MTEXT
  5
1DE
100
AcDbEntity
  8
0
  6
ByLayer
 62
  256
370
   -1
100
AcDbMText
 10
-6156866.005808569
 20
10261399.4030517
 30
0
 40
0.111
 41
0.6413332862688561
 71
    5
 72
    1
  1
\PSTROBES
  7
standard
210
0
220
0
230
1
 50
0
 73
    2
 44
1
  0
MTEXT
  5
1DF
100
AcDbEntity
  8
0
  6
ByLayer
 62
  256
370
   -1
100
AcDbMText
 10
-6156865.105808569
 20
10261399.40309034
 30
0
 40
0.111
 41
0.3206666666666667
 71
    5
 72
    1
  1
\PTAXI
  7
standard
210
0
220
0
230
1
 50
0
 73
    2
 44
1
  0
MTEXT
  5
1E0
100
AcDbEntity
  8
0
  6
ByLayer
 62
  256
370
   -1
100
AcDbMText
 10
-6156864.20580857
 20
10261399.40312898
 30
0
 40
0.111
 41
0.5920000000000069
 71
    5
 72
    1
  1
\PLANDING
  7
standard
210
0
220
0
230
1
 50
0
 73
    2
 44
1
  0
MTEXT
  5
1E1
100
AcDbEntity
  8
0
  6
ByLayer
 62
  256
370
   -1
100
AcDbMText
 10
-6156862.855808569
 20
10261399.40318693
 30
0
 40
0.111
 41
0.3823333333333333
 71
    5
 72
    1
  1
AUTO\PPILOT
  7
standard
210
0
220
0
230
1
 50
0
 73
    2
 44
1
  0
MTEXT
  5
1E2
100
AcDbEntity
  8
0
  6
ByLayer
 62
  256
370
   -1
100
AcDbMText
 10
-6156861.95580857
 20
10261399.40322558
 30
0
 40
0.111
 41
0.3946666666666667
 71
    5
 72
    1
  1
PITOT\PHEAT
  7
standard
210
0
220
0
230
1
 50
0
 73
    2
 44
1
  0
MTEXT
  5
1E3
100
AcDbEntity
  8
0
  6
ByLayer
 62
  256
370
   -1
100
AcDbMText
 10
-6156861.055808569
 20
10261399.40326421
 30
0
 40
0.111
 41
0.6289999764677683
 71
    5
 72
    1
  1
DEFROST\PFANS
  7
standard
210
0
220
0
230
1
 50
0
 73
    2
 44
1
  0
CIRCLE
  5
1E4
100
AcDbEntity
  8
0
  6
ByLayer
 62
  256
370
   -1
100
AcDbCircle
 10
-6156855.76140786
 20
10261398.85240348
 40
0.3125
  0
CIRCLE
  5
1E5
100
AcDbEntity
  8
0
  6
ByLayer
 62
  256
370
   -1
100
AcDbCircle
 10
-6156855.76140786
 20
10261398.85240348
 40
0.3125
  0
CIRCLE
  5
1E6
100
AcDbEntity
  8
0
  6
ByLayer
 62
  256
370
   -1
100
AcDbCircle
 10
-6156855.76140786
 20
10261398.85240348
 40
0.375
  0
MTEXT
  5
1E7
100
AcDbEntity
  8
0
  6
ByLayer
 62
  256
370
   -1
100
AcDbMText
 10
-6156855.76140786
 20
10261399.40291648
 30
0
 40
0.111
 41
0.8479166666666873
 71
    5
 72
    1
  1
GO AROUND
  7
standard
210
0
220
0
230
1
 50
0
 73
    2
 44
1
  0
MTEXT
  5
1E8
100
AcDbEntity
  8
0
  6
ByLayer
 62
  256
370
   -1
100
AcDbMText
 10
-6156854.463032978
 20
10261399.40291648
 30
0
 40
0.111
 41
0.6413333098011016
 71
    5
 72
    1
  1
AVIONICS
  7
standard
210
0
220
0
230
1
 50
0
 73
    2
 44
1
  0
MTEXT
  5
1E9
100
AcDbEntity
  8
0
  6
ByLayer
 62
  256
370
  100
100
AcDbMText
 10
-6156864.229468212
 20
10261408.15389259
 30
0
 40
0.375
 41
2.12499875
 71
    5
 72
    1
  1
N363TM
  7
romand
210
0
220
0
230
1
 50
0
 73
    2
 44
1
  0
LINE
  5
1EA
100
AcDbEntity
  8
0
  6
ByLayer
 62
  256
370
   -1
100
AcDbLine
 10
-6156839.152159629
 20
10261400.17788604
 11
-6156839.152159629
 21
10261407.07367519
  0
ARC
  5
1EB
100
AcDbEntity
  8
0
  6
ByLayer
 62
  256
370
   -1
100
AcDbCircle
 10
-6156839.027159629
 20
10261400.17788604
 40
0.125
100
AcDbArc
 50
180
 51
270
  0
LINE
  5
1EC
100
AcDbEntity
  8
0
  6
ByLayer
 62
  256
370
   -1
100
AcDbLine
 10
-6156835.32715963
 20
10261400.05288604
 11
-6156839.027159629
 21
10261400.05288604
  0
ARC
  5
1ED
100
AcDbEntity
  8
0
  6
ByLayer
 62
  256
370
   -1
100
AcDbCircle
 10
-6156835.32715963
 20
10261400.17788604
 40
0.125
100
AcDbArc
 50
270
 51
0
  0
LINE
  5
1EE
100
AcDbEntity
  8
0
  6
ByLayer
 62
  256
370
   -1
100
AcDbLine
 10
-6156839.027159629
 20
10261407.19867519
 11
-6156837.9338425
 21
10261407.19867519
  0
ARC
  5
1EF
100
AcDbEntity
  8
0
  6
ByLayer
 62
  256
370
   -1
100
AcDbCircle
 10
-6156837.9338425
 20
10261407.07367518
 40
0.125
100
AcDbArc
 50
67.10780258573524
 51
90
  0
LINE
  5
1F0
100
AcDbEntity
  8
0
  6
ByLayer
 62
  256
370
   -1
100
AcDbLine
 10
-6156835.20215963
 20
10261400.17788604
 11
-6156835.20215963
 21
10261405.24665746
  0
ARC
  5
1F1
100
AcDbEntity
  8
0
  6
ByLayer
 62
  256
370
   -1
100
AcDbCircle
 10
-6156840.887147752
 20
10261400.07956546
 40
7.717075979878755
100
AcDbArc
 50
42.90238990738972
 51
67.10780267802117
  0
ARC
  5
1F2
100
AcDbEntity
  8
0
  6
ByLayer
 62
  256
370
   -1
100
AcDbCircle
 10
-6156835.32715963
 20
10261405.24665746
 40
0.125
100
AcDbArc
 50
0
 51
42.90238954697153
  0
MTEXT
  5
1F3
100
AcDbEntity
  8
0
  6
ByLayer
 62
  256
370
   -1
100
AcDbMText
 10
-6156844.701905061
 20
10261398.99146536
 30
0
 40
0.08
 41
2.766666632746342
 71
    5
 72
    1
  1
THIS AIRCRAFT DOES NOT COMPLY WITH FEDERAL\PSAFETY REGULATIONS FOR STANDARD AIRCRAFT
  7
standard
210
0
220
0
230
1
 50
0
 73
    2
 44
1
  0
MTEXT
  5
1F4
100
AcDbEntity
  8
0
  6
ByLayer
 62
  256
370
   -1
100
AcDbMText
 10
-6156844.701905061
 20
10261399.23464149
 30
0
 40
0.111
 41
1.621833286268863
 71
    5
 72
    1
  1
PASSENGER WARNING
  7
standard
210
0
220
0
230
1
 50
0
 73
    2
 44
1
  0
ARC
  5
1F5
100
AcDbEntity
  8
0
  6
ByLayer
 62
  256
370
   -1
100
AcDbCircle
 10
-6156846.076905061
 20
10261399.28122954
 40
0.125
100
AcDbArc
 50
90
 51
180
  0
LINE
  5
1F6
100
AcDbEntity
  8
0
  6
ByLayer
 62
  256
370
   -1
100
AcDbLine
 10
-6156846.201905061
 20
10261399.28122954
 11
-6156846.201905061
 21
10261398.89765524
  0
ARC
  5
1F7
100
AcDbEntity
  8
0
  6
ByLayer
 62
  256
370
   -1
100
AcDbCircle
 10
-6156846.076905061
 20
10261398.89765524
 40
0.125
100
AcDbArc
 50
180
 51
270
  0
LINE
  5
1F8
100
AcDbEntity
  8
0
  6
ByLayer
 62
  256
370
   -1
100
AcDbLine
 10
-6156846.076905061
 20
10261398.77265524
 11
-6156843.326905061
 21
10261398.77265524
  0
ARC
  5
1F9
100
AcDbEntity
  8
0
  6
ByLayer
 62
  256
370
   -1
100
AcDbCircle
 10
-6156843.326905061
 20
10261398.89765524
 40
0.125
100
AcDbArc
 50
270
 51
0
  0
LINE
  5
1FA
100
AcDbEntity
  8
0
  6
ByLayer
 62
  256
370
   -1
100
AcDbLine
 10
-6156843.201905061
 20
10261399.28122954
 11
-6156843.201905061
 21
10261398.89765524
  0
LINE
  5
1FB
100
AcDbEntity
  8
0
  6
ByLayer
 62
  256
370
   -1
100
AcDbLine
 10
-6156846.076905061
 20
10261399.40622954
 11
-6156843.326905061
 21
10261399.40622954
  0
ARC
  5
1FC
100
AcDbEntity
  8
0
  6
ByLayer
 62
  256
370
   -1
100
AcDbCircle
 10
-6156843.326905061
 20
10261399.28122954
 40
0.125
100
AcDbArc
 50
0
 51
90
  0
MTEXT
  5
1FD
100
AcDbEntity
  8
0
  6
ByLayer
 62
  256
370
   -1
100
AcDbMText
 10
-6156853.313032977
 20
10261399.40291648
 30
0
 40
0.111
 41
0.9496666431344487
 71
    5
 72
    1
  1
GLARESHIELD
  7
standard
210
0
220
0
230
1
 50
0
 73
    2
 44
1
  0
ENDSEC
  0
SECTION
  2
OBJECTS
  0
DICTIONARY
  5
C
330
0
100
AcDbDictionary
281
    1
  3
ACAD_GROUP
350
D
  0
DICTIONARY
  5
D
330
C
100
AcDbDictionary
281
    1
  0
PLOTSETTINGS
  5
1FE
100
AcDbPlotSettings
  6
4x2
 40
6.35
 41
4.229989
 42
6.35
 43
4.229989
  0
ENDSEC
  0
EOF
